  0
SECTION
  2
HEADER
  9
$ACADVER
  1
AC1015
  9
$ACADMAINTVER
 70
     6
  9
$DWGCODEPAGE
  3
ANSI_1252
  9
$INSBASE
 10
0.0
 20
0.0
 30
0.0
  9
$EXTMIN
 10
0.0
 20
0.0
 30
0.0
  9
$EXTMAX
 10
1682.0
 20
2378.0
 30
0.0
  9
$LIMMIN
 10
0.0
 20
0.0
  9
$LIMMAX
 10
1682.0
 20
2378.0
  9
$ORTHOMODE
 70
     0
  9
$REGENMODE
 70
     1
  9
$FILLMODE
 70
     1
  9
$QTEXTMODE
 70
     0
  9
$MIRRTEXT
 70
     1
  9
$LTSCALE
 40
1.0
  9
$ATTMODE
 70
     1
  9
$TEXTSIZE
 40
2.5
  9
$TRACEWID
 40
1.0
  9
$TEXTSTYLE
  7
Standard
  9
$CLAYER
  8
0
  9
$CELTYPE
  6
ByLayer
  9
$CECOLOR
 62
   256
  9
$CELTSCALE
 40
1.0
  9
$DISPSILH
 70
     0
  9
$DIMSCALE
 40
1.0
  9
$DIMASZ
 40
2.5
  9
$DIMEXO
 40
0.625
  9
$DIMDLI
 40
3.75
  9
$DIMRND
 40
0.0
  9
$DIMDLE
 40
0.0
  9
$DIMEXE
 40
1.25
  9
$DIMTP
 40
0.0
  9
$DIMTM
 40
0.0
  9
$DIMTXT
 40
2.5
  9
$DIMCEN
 40
2.5
  9
$DIMTSZ
 40
0.0
  9
$DIMTOL
 70
     0
  9
$DIMLIM
 70
     0
  9
$DIMTIH
 70
     0
  9
$DIMTOH
 70
     0
  9
$DIMSE1
 70
     0
  9
$DIMSE2
 70
     0
  9
$DIMTAD
 70
     1
  9
$DIMZIN
 70
     8
  9
$DIMBLK
  1

  9
$DIMASO
 70
     1
  9
$DIMSHO
 70
     1
  9
$DIMPOST
  1

  9
$DIMAPOST
  1

  9
$DIMALT
 70
     0
  9
$DIMALTD
 70
     3
  9
$DIMALTF
 40
0.0393700787
  9
$DIMLFAC
 40
1.0
  9
$DIMTOFL
 70
     1
  9
$DIMTVP
 40
0.0
  9
$DIMTIX
 70
     0
  9
$DIMSOXD
 70
     0
  9
$DIMSAH
 70
     0
  9
$DIMBLK1
  1

  9
$DIMBLK2
  1

  9
$DIMSTYLE
  2
ISO-25
  9
$DIMCLRD
 70
     0
  9
$DIMCLRE
 70
     0
  9
$DIMCLRT
 70
     0
  9
$DIMTFAC
 40
1.0
  9
$DIMGAP
 40
0.625
  9
$DIMJUST
 70
     0
  9
$DIMSD1
 70
     0
  9
$DIMSD2
 70
     0
  9
$DIMTOLJ
 70
     0
  9
$DIMTZIN
 70
     8
  9
$DIMALTZ
 70
     0
  9
$DIMALTTZ
 70
     0
  9
$DIMUPT
 70
     0
  9
$DIMDEC
 70
     2
  9
$DIMTDEC
 70
     2
  9
$DIMALTU
 70
     2
  9
$DIMALTTD
 70
     3
  9
$DIMTXSTY
  7
Standard
  9
$DIMAUNIT
 70
     0
  9
$DIMADEC
 70
     0
  9
$DIMALTRND
 40
0.0
  9
$DIMAZIN
 70
     0
  9
$DIMDSEP
 70
    44
  9
$DIMATFIT
 70
     3
  9
$DIMFRAC
 70
     0
  9
$DIMLDRBLK
  1

  9
$DIMLUNIT
 70
     2
  9
$DIMLWD
 70
    -2
  9
$DIMLWE
 70
    -2
  9
$DIMTMOVE
 70
     0
  9
$LUNITS
 70
     2
  9
$LUPREC
 70
     4
  9
$SKETCHINC
 40
1.0
  9
$FILLETRAD
 40
10.0
  9
$AUNITS
 70
     0
  9
$AUPREC
 70
     0
  9
$MENU
  1
.
  9
$ELEVATION
 40
0.0
  9
$PELEVATION
 40
0.0
  9
$THICKNESS
 40
0.0
  9
$LIMCHECK
 70
     0
  9
$CHAMFERA
 40
10.0
  9
$CHAMFERB
 40
10.0
  9
$CHAMFERC
 40
20.0
  9
$CHAMFERD
 40
0.0
  9
$SKPOLY
 70
     0
  9
$TDCREATE
 40
2455614.569875972
  9
$TDUCREATE
 40
2455614.528209305
  9
$TDUPDATE
 40
2455614.569875984
  9
$TDUUPDATE
 40
2455614.528209317
  9
$TDINDWG
 40
0.0000000116
  9
$TDUSRTIMER
 40
0.0000000116
  9
$USRTIMER
 70
     1
  9
$ANGBASE
 50
0.0
  9
$ANGDIR
 70
     0
  9
$PDMODE
 70
     0
  9
$PDSIZE
 40
0.0
  9
$PLINEWID
 40
0.0
  9
$SPLFRAME
 70
     0
  9
$SPLINETYPE
 70
     6
  9
$SPLINESEGS
 70
     8
  9
$HANDSEED
  5
572
  9
$SURFTAB1
 70
     6
  9
$SURFTAB2
 70
     6
  9
$SURFTYPE
 70
     6
  9
$SURFU
 70
     6
  9
$SURFV
 70
     6
  9
$UCSBASE
  2

  9
$UCSNAME
  2

  9
$UCSORG
 10
0.0
 20
0.0
 30
0.0
  9
$UCSXDIR
 10
1.0
 20
0.0
 30
0.0
  9
$UCSYDIR
 10
0.0
 20
1.0
 30
0.0
  9
$UCSORTHOREF
  2

  9
$UCSORTHOVIEW
 70
     0
  9
$UCSORGTOP
 10
0.0
 20
0.0
 30
0.0
  9
$UCSORGBOTTOM
 10
0.0
 20
0.0
 30
0.0
  9
$UCSORGLEFT
 10
0.0
 20
0.0
 30
0.0
  9
$UCSORGRIGHT
 10
0.0
 20
0.0
 30
0.0
  9
$UCSORGFRONT
 10
0.0
 20
0.0
 30
0.0
  9
$UCSORGBACK
 10
0.0
 20
0.0
 30
0.0
  9
$PUCSBASE
  2

  9
$PUCSNAME
  2

  9
$PUCSORG
 10
0.0
 20
0.0
 30
0.0
  9
$PUCSXDIR
 10
1.0
 20
0.0
 30
0.0
  9
$PUCSYDIR
 10
0.0
 20
1.0
 30
0.0
  9
$PUCSORTHOREF
  2

  9
$PUCSORTHOVIEW
 70
     0
  9
$PUCSORGTOP
 10
0.0
 20
0.0
 30
0.0
  9
$PUCSORGBOTTOM
 10
0.0
 20
0.0
 30
0.0
  9
$PUCSORGLEFT
 10
0.0
 20
0.0
 30
0.0
  9
$PUCSORGRIGHT
 10
0.0
 20
0.0
 30
0.0
  9
$PUCSORGFRONT
 10
0.0
 20
0.0
 30
0.0
  9
$PUCSORGBACK
 10
0.0
 20
0.0
 30
0.0
  9
$USERI1
 70
     0
  9
$USERI2
 70
     0
  9
$USERI3
 70
     0
  9
$USERI4
 70
     0
  9
$USERI5
 70
     0
  9
$USERR1
 40
0.0
  9
$USERR2
 40
0.0
  9
$USERR3
 40
0.0
  9
$USERR4
 40
0.0
  9
$USERR5
 40
0.0
  9
$WORLDVIEW
 70
     1
  9
$SHADEDGE
 70
     3
  9
$SHADEDIF
 70
    70
  9
$TILEMODE
 70
     1
  9
$MAXACTVP
 70
    64
  9
$PINSBASE
 10
0.0
 20
0.0
 30
0.0
  9
$PLIMCHECK
 70
     0
  9
$PEXTMIN
 10
0.0
 20
0.0
 30
0.0
  9
$PEXTMAX
 10
1682.0
 20
2378.0
 30
0.0
  9
$PLIMMIN
 10
0.0
 20
0.0
  9
$PLIMMAX
 10
1682.0
 20
2378.0
  9
$UNITMODE
 70
     0
  9
$VISRETAIN
 70
     1
  9
$PLINEGEN
 70
     0
  9
$PSLTSCALE
 70
     1
  9
$TREEDEPTH
 70
  3020
  9
$CMLSTYLE
  2
Standard
  9
$CMLJUST
 70
     0
  9
$CMLSCALE
 40
20.0
  9
$PROXYGRAPHICS
 70
     1
  9
$MEASUREMENT
 70
     1
  9
$CELWEIGHT
370
    -1
  9
$ENDCAPS
280
     0
  9
$JOINSTYLE
280
     0
  9
$LWDISPLAY
290
     0
  9
$INSUNITS
 70
     4
  9
$HYPERLINKBASE
  1

  9
$STYLESHEET
  1

  9
$XEDIT
290
     1
  9
$CEPSNTYPE
380
     0
  9
$PSTYLEMODE
290
     1
  9
$FINGERPRINTGUID
  2
{8DA6D332-0F42-474B-9026-17D48436AC41}
  9
$VERSIONGUID
  2
{FAEB1C32-E019-11D5-929B-00C0DF256EC4}
  9
$EXTNAMES
290
     1
  9
$PSVPSCALE
 40
0.0
  9
$OLESTARTUP
290
     0
  0
ENDSEC
  0
SECTION
  2
CLASSES
  0
CLASS
  1
ACDBDICTIONARYWDFLT
  2
AcDbDictionaryWithDefault
  3
ObjectDBX Classes
 90
        0
280
     0
281
     0
  0
CLASS
  1
VISUALSTYLE
  2
AcDbVisualStyle
  3
ObjectDBX Classes
 90
     4095
280
     0
281
     0
  0
CLASS
  1
SCALE
  2
AcDbScale
  3
ObjectDBX Classes
 90
     1153
280
     0
281
     0
  0
CLASS
  1
DICTIONARYVAR
  2
AcDbDictionaryVar
  3
ObjectDBX Classes
 90
        0
280
     0
281
     0
  0
CLASS
  1
ACDBPLACEHOLDER
  2
AcDbPlaceHolder
  3
ObjectDBX Classes
 90
        0
280
     0
281
     0
  0
CLASS
  1
LAYOUT
  2
AcDbLayout
  3
ObjectDBX Classes
 90
        0
280
     0
281
     0
  0
ENDSEC
  0
SECTION
  2
TABLES
  0
TABLE
  2
VPORT
  5
8
330
0
100
AcDbSymbolTable
 70
     1
  0
VPORT
  5
29
330
8
100
AcDbSymbolTableRecord
100
AcDbViewportTableRecord
  2
*Active
 70
     0
 10
0.0
 20
0.0
 11
1.0
 21
1.0
 12
344.1869158879
 22
148.5
 13
0.0
 23
0.0
 14
10.0
 24
10.0
 15
10.0
 25
10.0
 16
0.0
 26
0.0
 36
1.0
 17
0.0
 27
0.0
 37
0.0
 40
297.0
 41
1.9729729729
 42
50.0
 43
0.0
 44
0.0
 50
0.0
 51
0.0
 71
     0
 72
   100
 73
     1
 74
     3
 75
     0
 76
     0
 77
     0
 78
     0
281
     0
 65
     1
110
0.0
120
0.0
130
0.0
111
1.0
121
0.0
131
0.0
112
0.0
122
1.0
132
0.0
 79
     0
146
0.0
  0
ENDTAB
  0
TABLE
  2
LTYPE
  5
5
330
0
100
AcDbSymbolTable
 70
     2
  0
LTYPE
  5
14
330
5
100
AcDbSymbolTableRecord
100
AcDbLinetypeTableRecord
  2
ByBlock
 70
     0
  3

 72
    65
 73
     0
 40
0.0
  0
LTYPE
  5
15
330
5
100
AcDbSymbolTableRecord
100
AcDbLinetypeTableRecord
  2
ByLayer
 70
     0
  3

 72
    65
 73
     0
 40
0.0
  0
LTYPE
  5
16
330
5
100
AcDbSymbolTableRecord
100
AcDbLinetypeTableRecord
  2
Continuous
 70
     0
  3
Solid line
 72
    65
 73
     0
 40
0.0
  0
LTYPE
  5
60
330
5
100
AcDbSymbolTableRecord
100
AcDbLinetypeTableRecord
  2
CENTER2
 70
     0
  3
Center (.5x) ___ _ ___ _ ___ _ ___ _ ___ _ ___
 72
    65
 73
     4
 40
28.575
 49
19.05
 74
     4
 75
     0
340
0
 46
0.0
 50
0.0
 44
0.0
 45
0.0
 49
-3.175
 74
     4
 75
     0
340
0
 46
0.0
 50
0.0
 44
0.0
 45
0.0
 49
3.175
 74
     4
 75
     0
340
0
 46
0.0
 50
0.0
 44
0.0
 45
0.0
 49
-3.175
 74
     4
 75
     0
340
0
 46
0.0
 50
0.0
 44
0.0
 45
0.0
  0
ENDTAB
  0
TABLE
  2
LAYER
  5
2
330
0
100
AcDbSymbolTable
 70
    10
  0
LAYER
  5
10
330
2
100
AcDbSymbolTableRecord
100
AcDbLayerTableRecord
  2
0
 70
     0
 62
     7
  6
Continuous
370
    -3
390
F
  0
LAYER
  5
5D
330
2
100
AcDbSymbolTableRecord
100
AcDbLayerTableRecord
  2
Default
 70
     0
 62
     7
  6
Continuous
370
    -3
390
F
  0
LAYER
  5
BB
330
2
100
AcDbSymbolTableRecord
100
AcDbLayerTableRecord
  2
490147031_RAHMEN
 70
     0
 62
     7
  6
Continuous
370
    -3
390
F
  0
LAYER
  5
C6
330
2
100
AcDbSymbolTableRecord
100
AcDbLayerTableRecord
  2
490656XXX_VM_ABD
 70
     0
 62
     7
  6
Continuous
370
    -3
390
F
  0
LAYER
  5
D0
330
2
100
AcDbSymbolTableRecord
100
AcDbLayerTableRecord
  2
$DDT_AUDIT_GENERATED_(D0)
 70
     0
 62
     7
  6
Continuous
370
    -3
390
F
  0
LAYER
  5
E1
330
2
100
AcDbSymbolTableRecord
100
AcDbLayerTableRecord
  2
$DDT_AUDIT_GENERATED_(E1)
 70
     0
 62
     7
  6
Continuous
370
    -3
390
F
  0
LAYER
  5
F2
330
2
100
AcDbSymbolTableRecord
100
AcDbLayerTableRecord
  2
$DDT_AUDIT_GENERATED_(F2)
 70
     0
 62
     7
  6
Continuous
370
    -3
390
F
  0
LAYER
  5
111
330
2
100
AcDbSymbolTableRecord
100
AcDbLayerTableRecord
  2
$DDT_AUDIT_GENERATED_(111)
 70
     0
 62
     7
  6
Continuous
370
    -3
390
F
  0
LAYER
  5
190
330
2
100
AcDbSymbolTableRecord
100
AcDbLayerTableRecord
  2
$DDT_AUDIT_GENERATED_(190)
 70
     0
 62
     7
  6
Continuous
370
    -3
390
F
  0
LAYER
  5
1D1
330
2
100
AcDbSymbolTableRecord
100
AcDbLayerTableRecord
  2
$DDT_AUDIT_GENERATED_(1D1)
 70
     0
 62
     7
  6
Continuous
370
    -3
390
F
  0
ENDTAB
  0
TABLE
  2
STYLE
  5
3
330
0
100
AcDbSymbolTable
 70
     2
  0
STYLE
  5
11
330
3
100
AcDbSymbolTableRecord
100
AcDbTextStyleTableRecord
  2
Standard
 70
     0
 40
0.0
 41
1.0
 50
0.0
 71
     0
 42
2.5
  3
txt
  4

  0
STYLE
  5
561
330
3
100
AcDbSymbolTableRecord
100
AcDbTextStyleTableRecord
  2
SEACAD_seiso_ttf
 70
     0
 40
0.0
 41
1.0
 50
0.0
 71
     0
 42
0.2
  3
seiso.ttf
  4

  0
ENDTAB
  0
TABLE
  2
VIEW
  5
6
330
0
100
AcDbSymbolTable
 70
     0
  0
ENDTAB
  0
TABLE
  2
UCS
  5
7
330
0
100
AcDbSymbolTable
 70
     0
  0
ENDTAB
  0
TABLE
  2
APPID
  5
9
330
0
100
AcDbSymbolTable
 70
     1
  0
APPID
  5
12
330
9
100
AcDbSymbolTableRecord
100
AcDbRegAppTableRecord
  2
ACAD
 70
     0
  0
ENDTAB
  0
TABLE
  2
DIMSTYLE
  5
A
330
0
100
AcDbSymbolTable
 70
     1
100
AcDbDimStyleTable
  0
DIMSTYLE
105
27
330
A
100
AcDbSymbolTableRecord
100
AcDbDimStyleTableRecord
  2
ISO-25
 70
     0
 41
2.5
 42
0.625
 43
3.75
 44
1.25
 73
     0
 74
     0
 77
     1
 78
     8
140
2.5
141
2.5
143
0.0393700787
147
0.625
171
     3
172
     1
271
     2
272
     2
274
     3
278
    44
283
     0
284
     8
340
11
  0
ENDTAB
  0
TABLE
  2
BLOCK_RECORD
  5
1
330
0
100
AcDbSymbolTable
 70
    28
  0
BLOCK_RECORD
  5
1F
330
1
100
AcDbSymbolTableRecord
100
AcDbBlockTableRecord
  2
*Model_Space
340
22
  0
BLOCK_RECORD
  5
1B
330
1
100
AcDbSymbolTableRecord
100
AcDbBlockTableRecord
  2
*Paper_Space
340
1E
  0
BLOCK_RECORD
  5
5E
330
1
100
AcDbSymbolTableRecord
100
AcDbBlockTableRecord
  2
SEANNOT_GROUP
340
0
102
{BLKREFS
331
5F
102
}
  0
BLOCK_RECORD
  5
64
330
1
100
AcDbSymbolTableRecord
100
AcDbBlockTableRecord
  2
SEANNOT_GROUP1
340
0
102
{BLKREFS
331
65
102
}
  0
BLOCK_RECORD
  5
69
330
1
100
AcDbSymbolTableRecord
100
AcDbBlockTableRecord
  2
SEANNOT_GROUP2
340
0
102
{BLKREFS
331
6A
102
}
  0
BLOCK_RECORD
  5
6E
330
1
100
AcDbSymbolTableRecord
100
AcDbBlockTableRecord
  2
SEANNOT_GROUP3
340
0
102
{BLKREFS
331
6F
102
}
  0
BLOCK_RECORD
  5
73
330
1
100
AcDbSymbolTableRecord
100
AcDbBlockTableRecord
  2
SEANNOT_GROUP4
340
0
102
{BLKREFS
331
74
102
}
  0
BLOCK_RECORD
  5
78
330
1
100
AcDbSymbolTableRecord
100
AcDbBlockTableRecord
  2
SEANNOT_GROUP5
340
0
102
{BLKREFS
331
79
102
}
  0
BLOCK_RECORD
  5
7D
330
1
100
AcDbSymbolTableRecord
100
AcDbBlockTableRecord
  2
SEANNOT_GROUP6
340
0
102
{BLKREFS
331
7E
102
}
  0
BLOCK_RECORD
  5
82
330
1
100
AcDbSymbolTableRecord
100
AcDbBlockTableRecord
  2
SEANNOT_GROUP7
340
0
102
{BLKREFS
331
83
102
}
  0
BLOCK_RECORD
  5
87
330
1
100
AcDbSymbolTableRecord
100
AcDbBlockTableRecord
  2
SEANNOT_GROUP8
340
0
102
{BLKREFS
331
88
102
}
  0
BLOCK_RECORD
  5
8C
330
1
100
AcDbSymbolTableRecord
100
AcDbBlockTableRecord
  2
SEANNOT_GROUP9
340
0
102
{BLKREFS
331
8D
102
}
  0
BLOCK_RECORD
  5
91
330
1
100
AcDbSymbolTableRecord
100
AcDbBlockTableRecord
  2
SEANNOT_GROUP10
340
0
102
{BLKREFS
331
92
102
}
  0
BLOCK_RECORD
  5
96
330
1
100
AcDbSymbolTableRecord
100
AcDbBlockTableRecord
  2
SEANNOT_GROUP11
340
0
102
{BLKREFS
331
97
102
}
  0
BLOCK_RECORD
  5
9B
330
1
100
AcDbSymbolTableRecord
100
AcDbBlockTableRecord
  2
SEANNOT_GROUP12
340
0
102
{BLKREFS
331
9C
102
}
  0
BLOCK_RECORD
  5
A0
330
1
100
AcDbSymbolTableRecord
100
AcDbBlockTableRecord
  2
SEANNOT_GROUP13
340
0
102
{BLKREFS
331
A1
102
}
  0
BLOCK_RECORD
  5
A5
330
1
100
AcDbSymbolTableRecord
100
AcDbBlockTableRecord
  2
SEANNOT_GROUP14
340
0
102
{BLKREFS
331
A6
102
}
  0
BLOCK_RECORD
  5
AA
330
1
100
AcDbSymbolTableRecord
100
AcDbBlockTableRecord
  2
SEANNOT_GROUP15
340
0
102
{BLKREFS
331
AB
102
}
  0
BLOCK_RECORD
  5
AF
330
1
100
AcDbSymbolTableRecord
100
AcDbBlockTableRecord
  2
SEANNOT_GROUP16
340
0
102
{BLKREFS
331
B0
102
}
  0
BLOCK_RECORD
  5
B4
330
1
100
AcDbSymbolTableRecord
100
AcDbBlockTableRecord
  2
SEANNOT_GROUP17
340
0
102
{BLKREFS
331
B5
102
}
  0
BLOCK_RECORD
  5
B9
330
1
100
AcDbSymbolTableRecord
100
AcDbBlockTableRecord
  2
SE
340
0
102
{BLKREFS
331
BA
102
}
  0
BLOCK_RECORD
  5
CE
330
1
100
AcDbSymbolTableRecord
100
AcDbBlockTableRecord
  2
SE1
340
0
102
{BLKREFS
331
CF
102
}
  0
BLOCK_RECORD
  5
238
330
1
100
AcDbSymbolTableRecord
100
AcDbBlockTableRecord
  2
SE2
340
0
102
{BLKREFS
331
239
102
}
  0
BLOCK_RECORD
  5
24B
330
1
100
AcDbSymbolTableRecord
100
AcDbBlockTableRecord
  2
SE3
340
0
102
{BLKREFS
331
24C
102
}
  0
BLOCK_RECORD
  5
3AF
330
1
100
AcDbSymbolTableRecord
100
AcDbBlockTableRecord
  2
SE4
340
0
102
{BLKREFS
331
3B0
102
}
  0
BLOCK_RECORD
  5
3C3
330
1
100
AcDbSymbolTableRecord
100
AcDbBlockTableRecord
  2
SE5
340
0
102
{BLKREFS
331
3C4
102
}
  0
BLOCK_RECORD
  5
3D7
330
1
100
AcDbSymbolTableRecord
100
AcDbBlockTableRecord
  2
SE6
340
0
102
{BLKREFS
331
3D8
102
}
  0
BLOCK_RECORD
  5
53B
330
1
100
AcDbSymbolTableRecord
100
AcDbBlockTableRecord
  2
SE7
340
0
102
{BLKREFS
331
53C
102
}
  0
BLOCK_RECORD
  5
54E
330
1
100
AcDbSymbolTableRecord
100
AcDbBlockTableRecord
  2
SE8
340
0
102
{BLKREFS
331
54F
102
}
  0
ENDTAB
  0
ENDSEC
  0
SECTION
  2
BLOCKS
  0
BLOCK
  5
20
330
1F
100
AcDbEntity
  8
0
100
AcDbBlockBegin
  2
*Model_Space
 70
     0
 10
0.0
 20
0.0
 30
0.0
  3
*Model_Space
  1

  0
ENDBLK
  5
21
330
1F
100
AcDbEntity
  8
0
100
AcDbBlockEnd
  0
BLOCK
  5
1C
330
1B
100
AcDbEntity
 67
     1
  8
0
100
AcDbBlockBegin
  2
*Paper_Space
 70
     0
 10
0.0
 20
0.0
 30
0.0
  3
*Paper_Space
  1

  0
ENDBLK
  5
1D
330
1B
100
AcDbEntity
 67
     1
  8
0
100
AcDbBlockEnd
  0
BLOCK
  5
62
330
5E
100
AcDbEntity
  8
0
100
AcDbBlockBegin
  2
SEANNOT_GROUP
 70
     0
 10
0.0
 20
0.0
 30
0.0
  3
SEANNOT_GROUP
  1

  0
LINE
  5
61
330
5E
100
AcDbEntity
  8
Default
  6
CENTER2
 62
     7
100
AcDbLine
 10
164.6544488468
 20
1901.0772065828
 30
0.0
 11
164.6544488468
 21
1943.126433467
 31
0.0
  0
ENDBLK
  5
63
330
5E
100
AcDbEntity
  8
0
100
AcDbBlockEnd
  0
BLOCK
  5
67
330
64
100
AcDbEntity
  8
0
100
AcDbBlockBegin
  2
SEANNOT_GROUP1
 70
     0
 10
0.0
 20
0.0
 30
0.0
  3
SEANNOT_GROUP1
  1

  0
LINE
  5
66
330
64
100
AcDbEntity
  8
Default
  6
CENTER2
 62
     7
100
AcDbLine
 10
259.6544488468
 20
1826.5772065828
 30
0.0
 11
311.1864076977
 21
1826.5772065828
 31
0.0
  0
ENDBLK
  5
68
330
64
100
AcDbEntity
  8
0
100
AcDbBlockEnd
  0
BLOCK
  5
6C
330
69
100
AcDbEntity
  8
0
100
AcDbBlockBegin
  2
SEANNOT_GROUP2
 70
     0
 10
0.0
 20
0.0
 30
0.0
  3
SEANNOT_GROUP2
  1

  0
LINE
  5
6B
330
69
100
AcDbEntity
  8
Default
  6
CENTER2
 62
     7
100
AcDbLine
 10
164.6544488468
 20
1752.0772065828
 30
0.0
 11
164.6544488468
 21
1711.0574025166
 31
0.0
  0
ENDBLK
  5
6D
330
69
100
AcDbEntity
  8
0
100
AcDbBlockEnd
  0
BLOCK
  5
71
330
6E
100
AcDbEntity
  8
0
100
AcDbBlockBegin
  2
SEANNOT_GROUP3
 70
     0
 10
0.0
 20
0.0
 30
0.0
  3
SEANNOT_GROUP3
  1

  0
LINE
  5
70
330
6E
100
AcDbEntity
  8
Default
  6
CENTER2
 62
     7
100
AcDbLine
 10
69.6544488468
 20
1826.5772065828
 30
0.0
 11
25.6527027284
 21
1826.5772065828
 31
0.0
  0
ENDBLK
  5
72
330
6E
100
AcDbEntity
  8
0
100
AcDbBlockEnd
  0
BLOCK
  5
76
330
73
100
AcDbEntity
  8
0
100
AcDbBlockBegin
  2
SEANNOT_GROUP4
 70
     0
 10
0.0
 20
0.0
 30
0.0
  3
SEANNOT_GROUP4
  1

  0
LINE
  5
75
330
73
100
AcDbEntity
  8
Default
  6
CENTER2
 62
     7
100
AcDbLine
 10
263.3547569094
 20
1325.3507621816
 30
0.0
 11
307.6942296562
 21
1325.3507621816
 31
0.0
  0
ENDBLK
  5
77
330
73
100
AcDbEntity
  8
0
100
AcDbBlockEnd
  0
BLOCK
  5
7B
330
78
100
AcDbEntity
  8
0
100
AcDbBlockBegin
  2
SEANNOT_GROUP5
 70
     0
 10
0.0
 20
0.0
 30
0.0
  3
SEANNOT_GROUP5
  1

  0
LINE
  5
7A
330
78
100
AcDbEntity
  8
Default
  6
CENTER2
 62
     7
100
AcDbLine
 10
168.3547569094
 20
1399.8507621816
 30
0.0
 11
168.3547569094
 21
1446.2936054288
 31
0.0
  0
ENDBLK
  5
7C
330
78
100
AcDbEntity
  8
0
100
AcDbBlockEnd
  0
BLOCK
  5
80
330
7D
100
AcDbEntity
  8
0
100
AcDbBlockBegin
  2
SEANNOT_GROUP6
 70
     0
 10
0.0
 20
0.0
 30
0.0
  3
SEANNOT_GROUP6
  1

  0
LINE
  5
7F
330
7D
100
AcDbEntity
  8
Default
  6
CENTER2
 62
     7
100
AcDbLine
 10
73.3547569094
 20
1325.3507621816
 30
0.0
 11
32.1386256653
 21
1325.3507621816
 31
0.0
  0
ENDBLK
  5
81
330
7D
100
AcDbEntity
  8
0
100
AcDbBlockEnd
  0
BLOCK
  5
85
330
82
100
AcDbEntity
  8
0
100
AcDbBlockBegin
  2
SEANNOT_GROUP7
 70
     0
 10
0.0
 20
0.0
 30
0.0
  3
SEANNOT_GROUP7
  1

  0
LINE
  5
84
330
82
100
AcDbEntity
  8
Default
  6
CENTER2
 62
     7
100
AcDbLine
 10
168.3547569094
 20
1250.8507621816
 30
0.0
 11
168.3547569094
 21
1202.557385797
 31
0.0
  0
ENDBLK
  5
86
330
82
100
AcDbEntity
  8
0
100
AcDbBlockEnd
  0
BLOCK
  5
8A
330
87
100
AcDbEntity
  8
0
100
AcDbBlockBegin
  2
SEANNOT_GROUP8
 70
     0
 10
0.0
 20
0.0
 30
0.0
  3
SEANNOT_GROUP8
  1

  0
LINE
  5
89
330
87
100
AcDbEntity
  8
Default
  6
CENTER2
 62
     7
100
AcDbLine
 10
219.5203890952
 20
555.1313300343
 30
0.0
 11
266.6179934273
 21
555.1313300343
 31
0.0
  0
ENDBLK
  5
8B
330
87
100
AcDbEntity
  8
0
100
AcDbBlockEnd
  0
BLOCK
  5
8F
330
8C
100
AcDbEntity
  8
0
100
AcDbBlockBegin
  2
SEANNOT_GROUP9
 70
     0
 10
0.0
 20
0.0
 30
0.0
  3
SEANNOT_GROUP9
  1

  0
LINE
  5
8E
330
8C
100
AcDbEntity
  8
Default
  6
CENTER2
 62
     7
100
AcDbLine
 10
145.0203890952
 20
650.1313300343
 30
0.0
 11
145.0203890952
 21
690.4988763011
 31
0.0
  0
ENDBLK
  5
90
330
8C
100
AcDbEntity
  8
0
100
AcDbBlockEnd
  0
BLOCK
  5
94
330
91
100
AcDbEntity
  8
0
100
AcDbBlockBegin
  2
SEANNOT_GROUP10
 70
     0
 10
0.0
 20
0.0
 30
0.0
  3
SEANNOT_GROUP10
  1

  0
LINE
  5
93
330
91
100
AcDbEntity
  8
Default
  6
CENTER2
 62
     7
100
AcDbLine
 10
70.5203890952
 20
555.1313300343
 30
0.0
 11
26.209029105
 21
555.1313300343
 31
0.0
  0
ENDBLK
  5
95
330
91
100
AcDbEntity
  8
0
100
AcDbBlockEnd
  0
BLOCK
  5
99
330
96
100
AcDbEntity
  8
0
100
AcDbBlockBegin
  2
SEANNOT_GROUP11
 70
     0
 10
0.0
 20
0.0
 30
0.0
  3
SEANNOT_GROUP11
  1

  0
LINE
  5
98
330
96
100
AcDbEntity
  8
Default
  6
CENTER2
 62
     7
100
AcDbLine
 10
145.0203890952
 20
460.1313300343
 30
0.0
 11
145.0203890952
 21
424.1934429445
 31
0.0
  0
ENDBLK
  5
9A
330
96
100
AcDbEntity
  8
0
100
AcDbBlockEnd
  0
BLOCK
  5
9E
330
9B
100
AcDbEntity
  8
0
100
AcDbBlockBegin
  2
SEANNOT_GROUP12
 70
     0
 10
0.0
 20
0.0
 30
0.0
  3
SEANNOT_GROUP12
  1

  0
LINE
  5
9D
330
9B
100
AcDbEntity
  8
Default
  6
CENTER2
 62
     7
100
AcDbLine
 10
164.6544488468
 20
2126.2771352007
 30
0.0
 11
164.6544488468
 21
2095.0488647416
 31
0.0
  0
ENDBLK
  5
9F
330
9B
100
AcDbEntity
  8
0
100
AcDbBlockEnd
  0
BLOCK
  5
A3
330
A0
100
AcDbEntity
  8
0
100
AcDbBlockBegin
  2
SEANNOT_GROUP13
 70
     0
 10
0.0
 20
0.0
 30
0.0
  3
SEANNOT_GROUP13
  1

  0
LINE
  5
A2
330
A0
100
AcDbEntity
  8
Default
  6
CENTER2
 62
     7
100
AcDbLine
 10
522.7831335616
 20
2126.2771352007
 30
0.0
 11
522.7831335616
 21
2084.7383560773
 31
0.0
  0
ENDBLK
  5
A4
330
A0
100
AcDbEntity
  8
0
100
AcDbBlockEnd
  0
BLOCK
  5
A8
330
A5
100
AcDbEntity
  8
0
100
AcDbBlockBegin
  2
SEANNOT_GROUP14
 70
     0
 10
0.0
 20
0.0
 30
0.0
  3
SEANNOT_GROUP14
  1

  0
LINE
  5
A7
330
A5
100
AcDbEntity
  8
Default
  6
CENTER2
 62
     7
100
AcDbLine
 10
482.216075044
 20
1325.3507621816
 30
0.0
 11
433.8178482084
 21
1325.3507621816
 31
0.0
  0
ENDBLK
  5
A9
330
A5
100
AcDbEntity
  8
0
100
AcDbBlockEnd
  0
BLOCK
  5
AD
330
AA
100
AcDbEntity
  8
0
100
AcDbBlockBegin
  2
SEANNOT_GROUP15
 70
     0
 10
0.0
 20
0.0
 30
0.0
  3
SEANNOT_GROUP15
  1

  0
LINE
  5
AC
330
AA
100
AcDbEntity
  8
Default
  6
CENTER2
 62
     7
100
AcDbLine
 10
168.3547569094
 20
1025.6508335637
 30
0.0
 11
168.3547569094
 21
1059.3030792665
 31
0.0
  0
ENDBLK
  5
AE
330
AA
100
AcDbEntity
  8
0
100
AcDbBlockEnd
  0
BLOCK
  5
B2
330
AF
100
AcDbEntity
  8
0
100
AcDbBlockBegin
  2
SEANNOT_GROUP16
 70
     0
 10
0.0
 20
0.0
 30
0.0
  3
SEANNOT_GROUP16
  1

  0
LINE
  5
B1
330
AF
100
AcDbEntity
  8
Default
  6
CENTER2
 62
     7
100
AcDbLine
 10
444.7203177131
 20
555.1313300343
 30
0.0
 11
400.648854266
 21
555.1313300343
 31
0.0
  0
ENDBLK
  5
B3
330
AF
100
AcDbEntity
  8
0
100
AcDbBlockEnd
  0
BLOCK
  5
B7
330
B4
100
AcDbEntity
  8
0
100
AcDbBlockBegin
  2
SEANNOT_GROUP17
 70
     0
 10
0.0
 20
0.0
 30
0.0
  3
SEANNOT_GROUP17
  1

  0
LINE
  5
B6
330
B4
100
AcDbEntity
  8
Default
  6
CENTER2
 62
     7
100
AcDbLine
 10
145.0203890952
 20
275.9314014165
 30
0.0
 11
145.0203890952
 21
315.5145304419
 31
0.0
  0
ENDBLK
  5
B8
330
B4
100
AcDbEntity
  8
0
100
AcDbBlockEnd
  0
BLOCK
  5
CC
330
B9
100
AcDbEntity
  8
0
100
AcDbBlockBegin
  2
SE
 70
     0
 10
0.0
 20
0.0
 30
0.0
  3
SE
  1

  0
LINE
  5
BC
330
B9
100
AcDbEntity
  8
490147031_RAHMEN
  6
Continuous
 62
     7
100
AcDbLine
 10
257.1553626759
 20
2122.7771352007
 30
0.0
 11
72.1535350178
 21
2122.7771352007
 31
0.0
  0
LINE
  5
BD
330
B9
100
AcDbEntity
  8
490147031_RAHMEN
  6
Continuous
 62
     7
100
AcDbLine
 10
263.1544488468
 20
2122.7771352007
 30
0.0
 11
257.1553626759
 21
2122.7771352007
 31
0.0
  0
LINE
  5
BE
330
B9
100
AcDbEntity
  8
490147031_RAHMEN
  6
Continuous
 62
     7
100
AcDbLine
 10
72.1535350178
 20
2122.7771352007
 30
0.0
 11
66.1544488468
 21
2122.7771352007
 31
0.0
  0
LINE
  5
BF
330
B9
100
AcDbEntity
  8
490147031_RAHMEN
  6
Continuous
 62
     7
100
AcDbLine
 10
66.1544488468
 20
2122.7771352007
 30
0.0
 11
66.259240163
 21
2128.780625682
 31
0.0
  0
LINE
  5
C0
330
B9
100
AcDbEntity
  8
490147031_RAHMEN
  6
Continuous
 62
     7
100
AcDbLine
 10
257.0505713597
 20
2128.9771352007
 30
0.0
 11
262.8496879917
 21
2128.9771352007
 31
0.0
  0
LINE
  5
C1
330
B9
100
AcDbEntity
  8
490147031_RAHMEN
  6
Continuous
 62
     7
100
AcDbLine
 10
72.2583263339
 20
2128.9771352007
 30
0.0
 11
257.0505713597
 21
2128.9771352007
 31
0.0
  0
LINE
  5
C2
330
B9
100
AcDbEntity
  8
490147031_RAHMEN
  6
Continuous
 62
     7
100
AcDbLine
 10
66.459209702
 20
2128.9771352007
 30
0.0
 11
72.2583263339
 21
2128.9771352007
 31
0.0
  0
LINE
  5
C3
330
B9
100
AcDbEntity
  8
490147031_RAHMEN
  6
Continuous
 62
     7
100
AcDbLine
 10
263.0496575307
 20
2128.780625682
 30
0.0
 11
263.1544488468
 21
2122.7771352007
 31
0.0
  0
ARC
  5
C4
330
B9
100
AcDbEntity
  8
490147031_RAHMEN
  6
Continuous
 62
     7
100
AcDbCircle
 10
262.8496879917
 20
2128.7771352007
 30
0.0
 40
0.199999999999994
100
AcDbArc
 50
1.0000000001
 51
90.0
  0
ARC
  5
C5
330
B9
100
AcDbEntity
  8
490147031_RAHMEN
  6
Continuous
 62
     7
100
AcDbCircle
 10
66.459209702
 20
2128.7771352007
 30
0.0
 40
0.199999999999994
100
AcDbArc
 50
90.0
 51
179.0
  0
ARC
  5
C7
330
B9
100
AcDbEntity
  8
490656XXX_VM_ABD
  6
Continuous
 62
     7
100
AcDbCircle
 10
258.6044488468
 20
2128.8771352007
 30
0.0
 40
2.5
100
AcDbArc
 50
2.292442776
 51
90.0
  0
LINE
  5
C8
330
B9
100
AcDbEntity
  8
490656XXX_VM_ABD
  6
Continuous
 62
     7
100
AcDbLine
 10
258.6044488468
 20
2131.3771352007
 30
0.0
 11
256.6044488468
 21
2131.3771352007
 31
0.0
  0
LINE
  5
C9
330
B9
100
AcDbEntity
  8
490656XXX_VM_ABD
  6
Continuous
 62
     7
100
AcDbLine
 10
256.6044488468
 20
2131.3771352007
 30
0.0
 11
72.7044488468
 21
2131.3771352007
 31
0.0
  0
LINE
  5
CA
330
B9
100
AcDbEntity
  8
490656XXX_VM_ABD
  6
Continuous
 62
     7
100
AcDbLine
 10
70.7044488468
 20
2131.3771352007
 30
0.0
 11
72.7044488468
 21
2131.3771352007
 31
0.0
  0
ARC
  5
CB
330
B9
100
AcDbEntity
  8
490656XXX_VM_ABD
  6
Continuous
 62
     7
100
AcDbCircle
 10
70.7044488468
 20
2128.8771352007
 30
0.0
 40
2.5
100
AcDbArc
 50
90.0
 51
177.707557224
  0
ENDBLK
  5
CD
330
B9
100
AcDbEntity
  8
0
100
AcDbBlockEnd
  0
BLOCK
  5
236
330
CE
100
AcDbEntity
  8
0
100
AcDbBlockBegin
  2
SE1
 70
     0
 10
0.0
 20
0.0
 30
0.0
  3
SE1
  1

  0
LINE
  5
D1
330
CE
100
AcDbEntity
  8
$DDT_AUDIT_GENERATED_(D0)
  6
Continuous
 62
     7
100
AcDbLine
 10
214.4544488468
 20
1792.777054278
 30
0.0
 11
214.4544488468
 21
1824.5877300257
 31
0.0
  0
ELLIPSE
  5
D2
330
CE
100
AcDbEntity
  8
$DDT_AUDIT_GENERATED_(D0)
  6
Continuous
 62
     7
100
AcDbEllipse
 10
213.4542965188
 20
1792.7773589109
 30
0.0
 11
-0.7073221891695811
 21
0.7073221891695809
 31
0.0
210
0.0
220
0.0
230
0.9999999999999999
 40
0.9996954599
 41
2.356346783439832
 42
3.926838523739697
  0
LINE
  5
D3
330
CE
100
AcDbEntity
  8
$DDT_AUDIT_GENERATED_(D0)
  6
Continuous
 62
     7
100
AcDbLine
 10
145.854296542
 20
1791.7772065828
 30
0.0
 11
213.4546011517
 21
1791.7772065828
 31
0.0
  0
ELLIPSE
  5
D4
330
CE
100
AcDbEntity
  8
$DDT_AUDIT_GENERATED_(D0)
  6
Continuous
 62
     7
100
AcDbEllipse
 10
145.8546011749
 20
1792.7773589109
 30
0.0
 11
0.7073221891695809
 21
0.7073221891695811
 31
0.0
210
0.0
220
0.0
230
0.9999999999999999
 40
0.9996954599
 41
2.356346783439889
 42
3.926838523739754
  0
LINE
  5
D5
330
CE
100
AcDbEntity
  8
$DDT_AUDIT_GENERATED_(D0)
  6
Continuous
 62
     7
100
AcDbLine
 10
144.8544488468
 20
1860.3773588877
 30
0.0
 11
144.8544488468
 21
1792.777054278
 31
0.0
  0
ELLIPSE
  5
D6
330
CE
100
AcDbEntity
  8
$DDT_AUDIT_GENERATED_(D0)
  6
Continuous
 62
     7
100
AcDbEllipse
 10
145.8546011749
 20
1860.3770542548
 30
0.0
 11
0.7073221891695811
 21
-0.7073221891695809
 31
0.0
210
0.0
220
0.0
230
0.9999999999999999
 40
0.9996954599
 41
2.35634678343986
 42
3.92683852373947
  0
LINE
  5
D7
330
CE
100
AcDbEntity
  8
$DDT_AUDIT_GENERATED_(D0)
  6
Continuous
 62
     7
100
AcDbLine
 10
213.4546011517
 20
1861.3772065828
 30
0.0
 11
145.854296542
 21
1861.3772065828
 31
0.0
  0
ELLIPSE
  5
D8
330
CE
100
AcDbEntity
  8
$DDT_AUDIT_GENERATED_(D0)
  6
Continuous
 62
     7
100
AcDbEllipse
 10
213.4542965188
 20
1860.3770542548
 30
0.0
 11
-0.7073221891695809
 21
-0.7073221891695811
 31
0.0
210
0.0
220
0.0
230
0.9999999999999999
 40
0.9996954599
 41
2.356346783440116
 42
3.926838523739725
  0
LINE
  5
D9
330
CE
100
AcDbEntity
  8
$DDT_AUDIT_GENERATED_(D0)
  6
Continuous
 62
     7
100
AcDbLine
 10
214.457635598
 20
1824.7869689653
 30
0.0
 11
214.5075746962
 21
1825.0372748208
 31
0.0
  0
ELLIPSE
  5
DA
330
CE
100
AcDbEntity
  8
$DDT_AUDIT_GENERATED_(D0)
  6
Continuous
 62
     7
100
AcDbEllipse
 10
214.4579398598
 20
1824.5877300257
 30
0.0
 11
0.0
 21
0.1992391719405267
 31
0.0
210
0.0
220
0.0
230
1.0
 40
1.0
 41
0.0015271191150861
 42
1.570796326794897
  0
LINE
  5
DB
330
CE
100
AcDbEntity
  8
$DDT_AUDIT_GENERATED_(D0)
  6
Continuous
 62
     7
100
AcDbLine
 10
214.4544488468
 20
1828.56668314
 30
0.0
 11
214.4544488468
 21
1860.3773588877
 31
0.0
  0
ELLIPSE
  5
DC
330
CE
100
AcDbEntity
  8
$DDT_AUDIT_GENERATED_(D0)
  6
Continuous
 62
     7
100
AcDbEllipse
 10
214.4579398598
 20
1828.56668314
 30
0.0
 11
2.301490536886626E-17
 21
-0.2000000000000001
 31
0.0
210
0.0
220
0.0
230
1.0
 40
0.0174550649
 41
4.71238898038469
 42
6.195918844585855
  0
LINE
  5
DD
330
CE
100
AcDbEntity
  8
$DDT_AUDIT_GENERATED_(D0)
  6
Continuous
 62
     7
100
AcDbLine
 10
214.5155415741
 20
1825.5353721698
 30
0.0
 11
214.5155415741
 21
1827.6190409958
 31
0.0
  0
ELLIPSE
  5
DE
330
CE
100
AcDbEntity
  8
$DDT_AUDIT_GENERATED_(D0)
  6
Continuous
 62
     7
100
AcDbEllipse
 10
214.5068140416
 20
1825.5353721698
 30
0.0
 11
5.753726342216563E-17
 21
-0.5
 31
0.0
210
0.0
220
0.0
230
1.0
 40
0.0174550649
 41
0.0872664625963356
 42
1.570796326794897
  0
LINE
  5
DF
330
CE
100
AcDbEntity
  8
$DDT_AUDIT_GENERATED_(D0)
  6
Continuous
 62
     7
100
AcDbLine
 10
214.5075746962
 20
1828.1171383449
 30
0.0
 11
214.457635598
 21
1828.3674442004
 31
0.0
  0
ELLIPSE
  5
E0
330
CE
100
AcDbEntity
  8
$DDT_AUDIT_GENERATED_(D0)
  6
Continuous
 62
     7
100
AcDbEllipse
 10
214.5068140416
 20
1827.6190409958
 30
0.0
 11
-6.881356640485063E-15
 21
-0.4999999999999997
 31
0.0
210
0.0
220
0.0
230
1.0
 40
0.0174550649
 41
1.570796326794897
 42
3.054326190993465
  0
LINE
  5
E2
330
CE
100
AcDbEntity
  8
$DDT_AUDIT_GENERATED_(E1)
  6
Continuous
 62
     7
100
AcDbLine
 10
114.9044488468
 20
1860.3773588877
 30
0.0
 11
114.9044488468
 21
1828.56668314
 31
0.0
  0
ELLIPSE
  5
E3
330
CE
100
AcDbEntity
  8
$DDT_AUDIT_GENERATED_(E1)
  6
Continuous
 62
     7
100
AcDbEllipse
 10
115.9046011749
 20
1860.3770542548
 30
0.0
 11
0.7073221891695811
 21
-0.7073221891695809
 31
0.0
210
0.0
220
0.0
230
0.9999999999999999
 40
0.9996954599
 41
2.356346783439832
 42
3.92683852373947
  0
LINE
  5
E4
330
CE
100
AcDbEntity
  8
$DDT_AUDIT_GENERATED_(E1)
  6
Continuous
 62
     7
100
AcDbLine
 10
115.904296542
 20
1791.7772065828
 30
0.0
 11
143.2046011517
 21
1791.7772065828
 31
0.0
  0
ELLIPSE
  5
E5
330
CE
100
AcDbEntity
  8
$DDT_AUDIT_GENERATED_(E1)
  6
Continuous
 62
     7
100
AcDbEllipse
 10
115.9046011749
 20
1792.7773589109
 30
0.0
 11
0.7073221891695809
 21
0.7073221891695811
 31
0.0
210
0.0
220
0.0
230
0.9999999999999999
 40
0.9996954599
 41
2.356346783439889
 42
3.926838523739725
  0
LINE
  5
E6
330
CE
100
AcDbEntity
  8
$DDT_AUDIT_GENERATED_(E1)
  6
Continuous
 62
     7
100
AcDbLine
 10
144.2044488468
 20
1792.777054278
 30
0.0
 11
144.2044488468
 21
1860.3773588877
 31
0.0
  0
ELLIPSE
  5
E7
330
CE
100
AcDbEntity
  8
$DDT_AUDIT_GENERATED_(E1)
  6
Continuous
 62
     7
100
AcDbEllipse
 10
143.2042965188
 20
1792.7773589109
 30
0.0
 11
-0.7073221891695811
 21
0.7073221891695809
 31
0.0
210
0.0
220
0.0
230
0.9999999999999999
 40
0.9996954599
 41
2.35634678343986
 42
3.926838523739669
  0
LINE
  5
E8
330
CE
100
AcDbEntity
  8
$DDT_AUDIT_GENERATED_(E1)
  6
Continuous
 62
     7
100
AcDbLine
 10
143.2046011517
 20
1861.3772065828
 30
0.0
 11
115.904296542
 21
1861.3772065828
 31
0.0
  0
ELLIPSE
  5
E9
330
CE
100
AcDbEntity
  8
$DDT_AUDIT_GENERATED_(E1)
  6
Continuous
 62
     7
100
AcDbEllipse
 10
143.2042965188
 20
1860.3770542548
 30
0.0
 11
-0.7073221891695809
 21
-0.7073221891695811
 31
0.0
210
0.0
220
0.0
230
0.9999999999999999
 40
0.9996954599
 41
2.356346783440116
 42
3.926838523739725
  0
LINE
  5
EA
330
CE
100
AcDbEntity
  8
$DDT_AUDIT_GENERATED_(E1)
  6
Continuous
 62
     7
100
AcDbLine
 10
114.8513229975
 20
1828.1171383449
 30
0.0
 11
114.9012620957
 21
1828.3674442004
 31
0.0
  0
ELLIPSE
  5
EB
330
CE
100
AcDbEntity
  8
$DDT_AUDIT_GENERATED_(E1)
  6
Continuous
 62
     7
100
AcDbEllipse
 10
114.852083652
 20
1827.6190409958
 30
0.0
 11
0.0
 21
0.4980979298512032
 31
0.0
210
0.0
220
0.0
230
1.0
 40
1.0
 41
0.0015271191151434
 42
1.570796326794897
  0
LINE
  5
EC
330
CE
100
AcDbEntity
  8
$DDT_AUDIT_GENERATED_(E1)
  6
Continuous
 62
     7
100
AcDbLine
 10
114.8433561196
 20
1825.5353721698
 30
0.0
 11
114.8433561196
 21
1827.6190409958
 31
0.0
  0
ELLIPSE
  5
ED
330
CE
100
AcDbEntity
  8
$DDT_AUDIT_GENERATED_(E1)
  6
Continuous
 62
     7
100
AcDbEllipse
 10
114.852083652
 20
1825.5353721698
 30
0.0
 11
0.0
 21
0.008727532464092747
 31
0.0
210
0.0
220
0.0
230
1.0
 40
1.0
 41
1.570796326794897
 42
3.140065534474649
  0
ELLIPSE
  5
EE
330
CE
100
AcDbEntity
  8
$DDT_AUDIT_GENERATED_(E1)
  6
Continuous
 62
     7
100
AcDbEllipse
 10
114.9009578338
 20
1828.56668314
 30
0.0
 11
2.301490536886626E-17
 21
-0.2000000000000001
 31
0.0
210
0.0
220
0.0
230
1.0
 40
0.0174550649
 41
0.0872664625937306
 42
1.570796326794897
  0
LINE
  5
EF
330
CE
100
AcDbEntity
  8
$DDT_AUDIT_GENERATED_(E1)
  6
Continuous
 62
     7
100
AcDbLine
 10
114.9044488468
 20
1824.5877300257
 30
0.0
 11
114.9044488468
 21
1792.777054278
 31
0.0
  0
LINE
  5
F0
330
CE
100
AcDbEntity
  8
$DDT_AUDIT_GENERATED_(E1)
  6
Continuous
 62
     7
100
AcDbLine
 10
114.9012620957
 20
1824.7869689653
 30
0.0
 11
114.8513229975
 21
1825.0372748208
 31
0.0
  0
ELLIPSE
  5
F1
330
CE
100
AcDbEntity
  8
$DDT_AUDIT_GENERATED_(E1)
  6
Continuous
 62
     7
100
AcDbEllipse
 10
114.9009578338
 20
1824.5877300257
 30
0.0
 11
0.0
 21
0.003491012985648467
 31
0.0
210
0.0
220
0.0
230
1.0
 40
1.0
 41
-1.570796326794897
 42
-0.0015271191150861
  0
LINE
  5
F3
330
CE
100
AcDbEntity
  8
$DDT_AUDIT_GENERATED_(F2)
  6
Continuous
 62
     7
100
AcDbLine
 10
144.8544488468
 20
1857.9772065828
 30
0.0
 11
144.2044488468
 21
1857.9772065828
 31
0.0
  0
LINE
  5
F4
330
CE
100
AcDbEntity
  8
$DDT_AUDIT_GENERATED_(F2)
  6
Continuous
 62
     7
100
AcDbLine
 10
144.2044488468
 20
1854.1772065828
 30
0.0
 11
144.8544488468
 21
1854.1772065828
 31
0.0
  0
LINE
  5
F5
330
CE
100
AcDbEntity
  8
$DDT_AUDIT_GENERATED_(F2)
  6
Continuous
 62
     7
100
AcDbLine
 10
144.8544488468
 20
1795.1772065828
 30
0.0
 11
144.2044488468
 21
1795.1772065828
 31
0.0
  0
LINE
  5
F6
330
CE
100
AcDbEntity
  8
$DDT_AUDIT_GENERATED_(F2)
  6
Continuous
 62
     7
100
AcDbLine
 10
144.2044488468
 20
1798.9772065828
 30
0.0
 11
144.8544488468
 21
1798.9772065828
 31
0.0
  0
LINE
  5
F7
330
CE
100
AcDbEntity
  8
$DDT_AUDIT_GENERATED_(F2)
  6
Continuous
 62
     7
100
AcDbLine
 10
153.3369061988
 20
1861.9926104445
 30
0.0
 11
150.652227447
 21
1862.0737764964
 31
0.0
  0
ELLIPSE
  5
F8
330
CE
100
AcDbEntity
  8
$DDT_AUDIT_GENERATED_(F2)
  6
Continuous
 62
     7
100
AcDbEllipse
 10
114.4330271046
 20
1815.6522370484
 30
0.0
 11
0.1414644378339161
 21
0.1414644378339162
 31
0.0
210
0.0
220
0.0
230
1.0
 40
0.9996954599
 41
2.3563467834404
 42
3.926838523739256
  0
LINE
  5
F9
330
CE
100
AcDbEntity
  8
$DDT_AUDIT_GENERATED_(F2)
  6
Continuous
 62
     7
100
AcDbLine
 10
114.232996639
 20
1837.5022370438
 30
0.0
 11
114.232996639
 21
1815.6521761219
 31
0.0
  0
LINE
  5
FA
330
CE
100
AcDbEntity
  8
$DDT_AUDIT_GENERATED_(F2)
  6
Continuous
 62
     7
100
AcDbLine
 10
114.2208189566
 20
1837.626695907
 30
0.0
 11
114.1895084655
 21
1839.4204727383
 31
0.0
  0
LINE
  5
FB
330
CE
100
AcDbEntity
  8
$DDT_AUDIT_GENERATED_(F2)
  6
Continuous
 62
     7
100
AcDbLine
 10
114.1895084655
 20
1839.4204727383
 30
0.0
 11
114.1578789332
 21
1840.2654477182
 31
0.0
  0
ELLIPSE
  5
FC
330
CE
100
AcDbEntity
  8
$DDT_AUDIT_GENERATED_(F2)
  6
Continuous
 62
     7
100
AcDbEllipse
 10
114.4330271046
 20
1837.5021761172
 30
0.0
 11
0.1414644378339162
 21
-0.1414644378339162
 31
0.0
210
0.0
220
0.0
230
1.0
 40
0.9996954599
 41
2.35634678344033
 42
3.926838523739186
  0
LINE
  5
FD
330
CE
100
AcDbEntity
  8
$DDT_AUDIT_GENERATED_(F2)
  6
Continuous
 62
     7
100
AcDbLine
 10
214.8978593924
 20
1836.1295501472
 30
0.0
 11
214.8978593924
 21
1817.0248630185
 31
0.0
  0
LINE
  5
FE
330
CE
100
AcDbEntity
  8
$DDT_AUDIT_GENERATED_(F2)
  6
Continuous
 62
     7
100
AcDbLine
 10
214.9350123587
 20
1839.0575289639
 30
0.0
 11
214.9100370748
 21
1837.626695907
 31
0.0
  0
ELLIPSE
  5
FF
330
CE
100
AcDbEntity
  8
$DDT_AUDIT_GENERATED_(F2)
  6
Continuous
 62
     7
100
AcDbEllipse
 10
214.6978289268
 20
1837.5021761172
 30
0.0
 11
-0.1414644378339161
 21
-0.1414644378339162
 31
0.0
210
0.0
220
0.0
230
1.0
 40
0.9996954599
 41
2.3563467834404
 42
3.02770046547289
  0
LINE
  5
100
330
CE
100
AcDbEntity
  8
$DDT_AUDIT_GENERATED_(F2)
  6
Continuous
 62
     7
100
AcDbLine
 10
214.9100370748
 20
1815.5277172586
 30
0.0
 11
214.9350123587
 21
1814.0968842018
 31
0.0
  0
ELLIPSE
  5
101
330
CE
100
AcDbEntity
  8
$DDT_AUDIT_GENERATED_(F2)
  6
Continuous
 62
     7
100
AcDbEllipse
 10
214.6978289268
 20
1815.6522370484
 30
0.0
 11
-0.1414644378339162
 21
0.1414644378339161
 31
0.0
210
0.0
220
0.0
230
1.0
 40
0.9996954599
 41
3.255484841706696
 42
3.926838523739185
  0
LINE
  5
102
330
CE
100
AcDbEntity
  8
$DDT_AUDIT_GENERATED_(F2)
  6
Continuous
 62
     7
100
AcDbLine
 10
181.8862137327
 20
1791.3337960373
 30
0.0
 11
177.4226839609
 21
1791.3337960373
 31
0.0
  0
LINE
  5
103
330
CE
100
AcDbEntity
  8
$DDT_AUDIT_GENERATED_(F2)
  6
Continuous
 62
     7
100
AcDbLine
 10
181.8862137327
 20
1861.8206171284
 30
0.0
 11
177.4226839609
 21
1861.8206171284
 31
0.0
  0
LINE
  5
104
330
CE
100
AcDbEntity
  8
$DDT_AUDIT_GENERATED_(F2)
  6
Continuous
 62
     7
100
AcDbLine
 10
114.1578789332
 20
1812.8889654475
 30
0.0
 11
114.1895084655
 21
1813.7339404274
 31
0.0
  0
LINE
  5
105
330
CE
100
AcDbEntity
  8
$DDT_AUDIT_GENERATED_(F2)
  6
Continuous
 62
     7
100
AcDbLine
 10
215.0544488468
 20
1794.5269324898
 30
0.0
 11
215.0544488468
 21
1808.5274806759
 31
0.0
  0
ELLIPSE
  5
106
330
CE
100
AcDbEntity
  8
$DDT_AUDIT_GENERATED_(F2)
  6
Continuous
 62
     7
100
AcDbEllipse
 10
215.254723316
 20
1794.527481052
 30
0.0
 11
0.1418092486870134
 21
0.1418092486870134
 31
0.0
210
0.0
220
0.0
230
1.0
 40
0.9972646886
 41
2.357564018062943
 42
3.386709506087425
  0
ELLIPSE
  5
107
330
CE
100
AcDbEntity
  8
$DDT_AUDIT_GENERATED_(F2)
  6
Continuous
 62
     7
100
AcDbEllipse
 10
215.254723316
 20
1808.5269321136
 30
0.0
 11
0.1418092486870133
 21
-0.1418092486870134
 31
0.0
210
0.0
220
0.0
230
1.0
 40
0.9972646886
 41
2.898935184942279
 42
3.925621289117921
  0
LINE
  5
108
330
CE
100
AcDbEntity
  8
$DDT_AUDIT_GENERATED_(F2)
  6
Continuous
 62
     7
100
AcDbLine
 10
215.0544488468
 20
1844.6269324898
 30
0.0
 11
215.0544488468
 21
1858.6274806759
 31
0.0
  0
ELLIPSE
  5
109
330
CE
100
AcDbEntity
  8
$DDT_AUDIT_GENERATED_(F2)
  6
Continuous
 62
     7
100
AcDbEllipse
 10
215.254723316
 20
1844.627481052
 30
0.0
 11
0.1418092486870133
 21
0.1418092486870134
 31
0.0
210
0.0
220
0.0
230
1.0
 40
0.9972646886
 41
2.357564018061807
 42
3.384250122795741
  0
ELLIPSE
  5
10A
330
CE
100
AcDbEntity
  8
$DDT_AUDIT_GENERATED_(F2)
  6
Continuous
 62
     7
100
AcDbEllipse
 10
215.254723316
 20
1858.6269321136
 30
0.0
 11
0.1418092486870134
 21
-0.1418092486870134
 31
0.0
210
0.0
220
0.0
230
1.0
 40
0.9972646886
 41
2.896475801163602
 42
3.925621289115508
  0
ELLIPSE
  5
10B
330
CE
100
AcDbEntity
  8
$DDT_AUDIT_GENERATED_(F2)
  6
Continuous
 62
     7
100
AcDbEllipse
 10
114.0541743776
 20
1794.527481052
 30
0.0
 11
-0.1418092486870134
 21
0.1418092486870134
 31
0.0
210
0.0
220
0.0
230
1.0
 40
0.9972646886
 41
2.896475801965968
 42
3.925621289116714
  0
LINE
  5
10C
330
CE
100
AcDbEntity
  8
$DDT_AUDIT_GENERATED_(F2)
  6
Continuous
 62
     7
100
AcDbLine
 10
114.2544488468
 20
1808.5274806759
 30
0.0
 11
114.2544488468
 21
1794.5269324898
 31
0.0
  0
ELLIPSE
  5
10D
330
CE
100
AcDbEntity
  8
$DDT_AUDIT_GENERATED_(F2)
  6
Continuous
 62
     7
100
AcDbEllipse
 10
114.0541743776
 20
1808.5269321136
 30
0.0
 11
-0.1418092486870133
 21
-0.1418092486870134
 31
0.0
210
0.0
220
0.0
230
1.0
 40
0.9972646886
 41
2.357564018062872
 42
3.384250122571784
  0
ELLIPSE
  5
10E
330
CE
100
AcDbEntity
  8
$DDT_AUDIT_GENERATED_(F2)
  6
Continuous
 62
     7
100
AcDbEllipse
 10
114.0541743776
 20
1844.627481052
 30
0.0
 11
-0.1418092486870133
 21
0.1418092486870134
 31
0.0
210
0.0
220
0.0
230
1.0
 40
0.9972646886
 41
2.898935186042885
 42
3.92562128911785
  0
LINE
  5
10F
330
CE
100
AcDbEntity
  8
$DDT_AUDIT_GENERATED_(F2)
  6
Continuous
 62
     7
100
AcDbLine
 10
114.2544488468
 20
1858.6274806759
 30
0.0
 11
114.2544488468
 21
1844.6269324898
 31
0.0
  0
ELLIPSE
  5
110
330
CE
100
AcDbEntity
  8
$DDT_AUDIT_GENERATED_(F2)
  6
Continuous
 62
     7
100
AcDbEllipse
 10
114.0541743776
 20
1858.6269321136
 30
0.0
 11
-0.1418092486870134
 21
-0.1418092486870134
 31
0.0
210
0.0
220
0.0
230
1.0
 40
0.9972646886
 41
2.357564018064007
 42
3.38670950581756
  0
LINE
  5
112
330
CE
100
AcDbEntity
  8
$DDT_AUDIT_GENERATED_(111)
  6
Continuous
 62
     7
100
AcDbLine
 10
144.8544488468
 20
1792.777054278
 30
0.0
 11
144.8544488468
 21
1792.0228398542
 31
0.0
  0
LINE
  5
113
330
CE
100
AcDbEntity
  8
$DDT_AUDIT_GENERATED_(111)
  6
Continuous
 62
     7
100
AcDbLine
 10
176.3881630187
 20
1861.8272065828
 30
0.0
 11
170.1544488468
 21
1861.8272065828
 31
0.0
  0
LINE
  5
114
330
CE
100
AcDbEntity
  8
$DDT_AUDIT_GENERATED_(111)
  6
Continuous
 62
     7
100
AcDbLine
 10
176.3881630187
 20
1861.8272065828
 30
0.0
 11
177.3843577168
 21
1861.8272065828
 31
0.0
  0
LINE
  5
115
330
CE
100
AcDbEntity
  8
$DDT_AUDIT_GENERATED_(111)
  6
Continuous
 62
     7
100
AcDbLine
 10
181.9245399769
 20
1861.8272065828
 30
0.0
 11
181.8906682384
 21
1861.8272065828
 31
0.0
  0
LINE
  5
116
330
CE
100
AcDbEntity
  8
$DDT_AUDIT_GENERATED_(111)
  6
Continuous
 62
     7
100
AcDbLine
 10
181.9245399769
 20
1861.8272065828
 30
0.0
 11
182.920734675
 21
1861.8272065828
 31
0.0
  0
LINE
  5
117
330
CE
100
AcDbEntity
  8
$DDT_AUDIT_GENERATED_(111)
  6
Continuous
 62
     7
100
AcDbLine
 10
214.8544488468
 20
1829.8434924109
 30
0.0
 11
214.8544488468
 21
1836.0772065828
 31
0.0
  0
LINE
  5
118
330
CE
100
AcDbEntity
  8
$DDT_AUDIT_GENERATED_(111)
  6
Continuous
 62
     7
100
AcDbLine
 10
214.8544488468
 20
1829.8434924109
 30
0.0
 11
214.8544488468
 21
1828.8472977129
 31
0.0
  0
LINE
  5
119
330
CE
100
AcDbEntity
  8
$DDT_AUDIT_GENERATED_(111)
  6
Continuous
 62
     7
100
AcDbLine
 10
214.8544488468
 20
1824.3071154528
 30
0.0
 11
214.8544488468
 21
1824.3409871913
 31
0.0
  0
LINE
  5
11A
330
CE
100
AcDbEntity
  8
$DDT_AUDIT_GENERATED_(111)
  6
Continuous
 62
     7
100
AcDbLine
 10
214.8544488468
 20
1824.3071154528
 30
0.0
 11
214.8544488468
 21
1823.3109207547
 31
0.0
  0
LINE
  5
11B
330
CE
100
AcDbEntity
  8
$DDT_AUDIT_GENERATED_(111)
  6
Continuous
 62
     7
100
AcDbLine
 10
182.920734675
 20
1791.3272065828
 30
0.0
 11
189.1544488468
 21
1791.3272065828
 31
0.0
  0
LINE
  5
11C
330
CE
100
AcDbEntity
  8
$DDT_AUDIT_GENERATED_(111)
  6
Continuous
 62
     7
100
AcDbLine
 10
182.920734675
 20
1791.3272065828
 30
0.0
 11
181.9245399769
 21
1791.3272065828
 31
0.0
  0
LINE
  5
11D
330
CE
100
AcDbEntity
  8
$DDT_AUDIT_GENERATED_(111)
  6
Continuous
 62
     7
100
AcDbLine
 10
177.3843577168
 20
1791.3272065828
 30
0.0
 11
177.4182294553
 21
1791.3272065828
 31
0.0
  0
LINE
  5
11E
330
CE
100
AcDbEntity
  8
$DDT_AUDIT_GENERATED_(111)
  6
Continuous
 62
     7
100
AcDbLine
 10
177.3843577168
 20
1791.3272065828
 30
0.0
 11
176.3881630187
 21
1791.3272065828
 31
0.0
  0
LINE
  5
11F
330
CE
100
AcDbEntity
  8
$DDT_AUDIT_GENERATED_(111)
  6
Continuous
 62
     7
100
AcDbLine
 10
144.8544488468
 20
1855.0789671875
 30
0.0
 11
144.7544488468
 21
1855.0789671875
 31
0.0
  0
LINE
  5
120
330
CE
100
AcDbEntity
  8
$DDT_AUDIT_GENERATED_(111)
  6
Continuous
 62
     7
100
AcDbLine
 10
144.5544488468
 20
1855.2789595721
 30
0.0
 11
144.5544488468
 21
1856.8754535936
 31
0.0
  0
LINE
  5
121
330
CE
100
AcDbEntity
  8
$DDT_AUDIT_GENERATED_(111)
  6
Continuous
 62
     7
100
AcDbLine
 10
144.7544488468
 20
1857.0754459782
 30
0.0
 11
144.8544488468
 21
1857.0754459782
 31
0.0
  0
ARC
  5
122
330
CE
100
AcDbEntity
  8
$DDT_AUDIT_GENERATED_(111)
  6
Continuous
 62
     7
100
AcDbCircle
 10
144.7544488468
 20
1856.8754535936
 30
0.0
 40
0.1999923846128342
100
AcDbArc
 50
90.0
 51
180.0
  0
ARC
  5
123
330
CE
100
AcDbEntity
  8
$DDT_AUDIT_GENERATED_(111)
  6
Continuous
 62
     7
100
AcDbCircle
 10
144.7544488468
 20
1855.2789595721
 30
0.0
 40
0.1999999999999988
100
AcDbArc
 50
180.0
 51
270.0
  0
LINE
  5
124
330
CE
100
AcDbEntity
  8
$DDT_AUDIT_GENERATED_(111)
  6
Continuous
 62
     7
100
AcDbLine
 10
144.5544488468
 20
1796.2789595721
 30
0.0
 11
144.5544488468
 21
1797.8754535936
 31
0.0
  0
LINE
  5
125
330
CE
100
AcDbEntity
  8
$DDT_AUDIT_GENERATED_(111)
  6
Continuous
 62
     7
100
AcDbLine
 10
144.7544488468
 20
1798.0754459782
 30
0.0
 11
144.8544488468
 21
1798.0754459782
 31
0.0
  0
LINE
  5
126
330
CE
100
AcDbEntity
  8
$DDT_AUDIT_GENERATED_(111)
  6
Continuous
 62
     7
100
AcDbLine
 10
144.8544488468
 20
1796.0789671875
 30
0.0
 11
144.7544488468
 21
1796.0789671875
 31
0.0
  0
ARC
  5
127
330
CE
100
AcDbEntity
  8
$DDT_AUDIT_GENERATED_(111)
  6
Continuous
 62
     7
100
AcDbCircle
 10
144.7544488468
 20
1796.2789595721
 30
0.0
 40
0.1999999999999953
100
AcDbArc
 50
180.0
 51
270.0
  0
ARC
  5
128
330
CE
100
AcDbEntity
  8
$DDT_AUDIT_GENERATED_(111)
  6
Continuous
 62
     7
100
AcDbCircle
 10
144.7544488468
 20
1797.8754535936
 30
0.0
 40
0.2000000000000023
100
AcDbArc
 50
90.0
 51
180.0
  0
LINE
  5
129
330
CE
100
AcDbEntity
  8
$DDT_AUDIT_GENERATED_(111)
  6
Continuous
 62
     7
100
AcDbLine
 10
144.5544488468
 20
1812.7789595721
 30
0.0
 11
144.5544488468
 21
1814.3754535936
 31
0.0
  0
LINE
  5
12A
330
CE
100
AcDbEntity
  8
$DDT_AUDIT_GENERATED_(111)
  6
Continuous
 62
     7
100
AcDbLine
 10
144.7544488468
 20
1814.5754459782
 30
0.0
 11
144.8544488468
 21
1814.5754459782
 31
0.0
  0
LINE
  5
12B
330
CE
100
AcDbEntity
  8
$DDT_AUDIT_GENERATED_(111)
  6
Continuous
 62
     7
100
AcDbLine
 10
144.8544488468
 20
1812.5789671875
 30
0.0
 11
144.7544488468
 21
1812.5789671875
 31
0.0
  0
ARC
  5
12C
330
CE
100
AcDbEntity
  8
$DDT_AUDIT_GENERATED_(111)
  6
Continuous
 62
     7
100
AcDbCircle
 10
144.7544488468
 20
1812.7789595721
 30
0.0
 40
0.1999999999999988
100
AcDbArc
 50
180.0
 51
270.0
  0
ARC
  5
12D
330
CE
100
AcDbEntity
  8
$DDT_AUDIT_GENERATED_(111)
  6
Continuous
 62
     7
100
AcDbCircle
 10
144.7544488468
 20
1814.3754535936
 30
0.0
 40
0.1999999999999988
100
AcDbArc
 50
90.0
 51
180.0
  0
LINE
  5
12E
330
CE
100
AcDbEntity
  8
$DDT_AUDIT_GENERATED_(111)
  6
Continuous
 62
     7
100
AcDbLine
 10
144.5544488468
 20
1838.7789595721
 30
0.0
 11
144.5544488468
 21
1840.3754535936
 31
0.0
  0
LINE
  5
12F
330
CE
100
AcDbEntity
  8
$DDT_AUDIT_GENERATED_(111)
  6
Continuous
 62
     7
100
AcDbLine
 10
144.7544488468
 20
1840.5754459782
 30
0.0
 11
144.8544488468
 21
1840.5754459782
 31
0.0
  0
LINE
  5
130
330
CE
100
AcDbEntity
  8
$DDT_AUDIT_GENERATED_(111)
  6
Continuous
 62
     7
100
AcDbLine
 10
144.8544488468
 20
1838.5789671875
 30
0.0
 11
144.7544488468
 21
1838.5789671875
 31
0.0
  0
ARC
  5
131
330
CE
100
AcDbEntity
  8
$DDT_AUDIT_GENERATED_(111)
  6
Continuous
 62
     7
100
AcDbCircle
 10
144.7544488468
 20
1838.7789595721
 30
0.0
 40
0.1999999999999988
100
AcDbArc
 50
180.0
 51
270.0
  0
ARC
  5
132
330
CE
100
AcDbEntity
  8
$DDT_AUDIT_GENERATED_(111)
  6
Continuous
 62
     7
100
AcDbCircle
 10
144.7544488468
 20
1840.3754535936
 30
0.0
 40
0.1999999999999988
100
AcDbArc
 50
90.0
 51
180.0
  0
LINE
  5
133
330
CE
100
AcDbEntity
  8
$DDT_AUDIT_GENERATED_(111)
  6
Continuous
 62
     7
100
AcDbLine
 10
214.8544488468
 20
1814.5772065828
 30
0.0
 11
214.8544488468
 21
1815.5772065828
 31
0.0
  0
LINE
  5
134
330
CE
100
AcDbEntity
  8
$DDT_AUDIT_GENERATED_(111)
  6
Continuous
 62
     7
100
AcDbLine
 10
167.6544488468
 20
1791.3272065828
 30
0.0
 11
168.6544488468
 21
1791.3272065828
 31
0.0
  0
ARC
  5
135
330
CE
100
AcDbEntity
  8
$DDT_AUDIT_GENERATED_(111)
  6
Continuous
 62
     7
100
AcDbCircle
 10
212.175860524
 20
1794.0057481571
 30
0.0
 40
2.499999999999998
100
AcDbArc
 50
335.7044631048
 51
359.5028690524
  0
ARC
  5
136
330
CE
100
AcDbEntity
  8
$DDT_AUDIT_GENERATED_(111)
  6
Continuous
 62
     7
100
AcDbCircle
 10
212.175860524
 20
1794.0057481571
 30
0.0
 40
2.499999999999998
100
AcDbArc
 50
270.4982116126
 51
296.9481967487
  0
LINE
  5
137
330
CE
100
AcDbEntity
  8
$DDT_AUDIT_GENERATED_(111)
  6
Continuous
 62
     7
100
AcDbLine
 10
212.1975988326
 20
1791.5058426697
 30
0.0
 11
209.9044488468
 21
1791.485902235
 31
0.0
  0
ARC
  5
138
330
CE
100
AcDbEntity
  8
$DDT_AUDIT_GENERATED_(111)
  6
Continuous
 62
     7
100
AcDbCircle
 10
145.3544488468
 20
1792.0228398542
 30
0.0
 40
0.5000000000000026
100
AcDbArc
 50
180.0
 51
269.4974183333
  0
LINE
  5
139
330
CE
100
AcDbEntity
  8
$DDT_AUDIT_GENERATED_(111)
  6
Continuous
 62
     7
100
AcDbLine
 10
167.6544488468
 20
1791.3272065828
 30
0.0
 11
150.9044488468
 21
1791.4741364074
 31
0.0
  0
LINE
  5
13A
330
CE
100
AcDbEntity
  8
$DDT_AUDIT_GENERATED_(111)
  6
Continuous
 62
     7
100
AcDbLine
 10
214.8544488468
 20
1814.5772065828
 30
0.0
 11
214.7091126212
 21
1797.8272065828
 31
0.0
  0
LINE
  5
13B
330
CE
100
AcDbEntity
  8
$DDT_AUDIT_GENERATED_(111)
  6
Continuous
 62
     7
100
AcDbLine
 10
191.6544488468
 20
1861.8272065828
 30
0.0
 11
190.6544488468
 21
1861.8272065828
 31
0.0
  0
LINE
  5
13C
330
CE
100
AcDbEntity
  8
$DDT_AUDIT_GENERATED_(111)
  6
Continuous
 62
     7
100
AcDbLine
 10
144.8544488468
 20
1861.1315733114
 30
0.0
 11
144.8544488468
 21
1860.3773588877
 31
0.0
  0
LINE
  5
13D
330
CE
100
AcDbEntity
  8
$DDT_AUDIT_GENERATED_(111)
  6
Continuous
 62
     7
100
AcDbLine
 10
145.3500630507
 20
1861.6315540758
 30
0.0
 11
149.4044488468
 21
1861.6671188635
 31
0.0
  0
ARC
  5
13E
330
CE
100
AcDbEntity
  8
$DDT_AUDIT_GENERATED_(111)
  6
Continuous
 62
     7
100
AcDbCircle
 10
212.175860524
 20
1859.1486650086
 30
0.0
 40
2.499999999999999
100
AcDbArc
 50
63.0518032513
 51
89.5017883874
  0
ARC
  5
13F
330
CE
100
AcDbEntity
  8
$DDT_AUDIT_GENERATED_(111)
  6
Continuous
 62
     7
100
AcDbCircle
 10
212.175860524
 20
1859.1486650086
 30
0.0
 40
2.499999999999999
100
AcDbArc
 50
0.4971309476
 51
24.2955368952
  0
LINE
  5
140
330
CE
100
AcDbEntity
  8
$DDT_AUDIT_GENERATED_(111)
  6
Continuous
 62
     7
100
AcDbLine
 10
214.6757664209
 20
1859.1703561661
 30
0.0
 11
214.6960974369
 21
1856.8272065828
 31
0.0
  0
LINE
  5
141
330
CE
100
AcDbEntity
  8
$DDT_AUDIT_GENERATED_(111)
  6
Continuous
 62
     7
100
AcDbLine
 10
191.6544488468
 20
1861.8272065828
 30
0.0
 11
208.4044488468
 21
1861.6815544089
 31
0.0
  0
ARC
  5
142
330
CE
100
AcDbEntity
  8
$DDT_AUDIT_GENERATED_(111)
  6
Continuous
 62
     7
100
AcDbCircle
 10
145.3544488468
 20
1861.1315733114
 30
0.0
 40
0.5000000000000004
100
AcDbArc
 50
90.5025816667
 51
180.0
  0
ELLIPSE
  5
143
330
CE
100
AcDbEntity
  8
$DDT_AUDIT_GENERATED_(111)
  6
Continuous
 62
     7
100
AcDbEllipse
 10
177.4182294553
 20
1791.5272065828
 30
0.0
 11
2.301490536886612E-17
 21
-0.1999999999999988
 31
0.0
210
0.0
220
0.0
230
1.0
 40
0.0874886635
 41
0.0
 42
1.570796326794897
  0
ELLIPSE
  5
144
330
CE
100
AcDbEntity
  8
$DDT_AUDIT_GENERATED_(111)
  6
Continuous
 62
     7
100
AcDbEllipse
 10
181.8906682384
 20
1861.6272065828
 30
0.0
 11
0.0
 21
0.2000000000000455
 31
0.0
210
0.0
220
0.0
230
1.0
 40
1.0
 41
0.0
 42
1.570796326794897
  0
LINE
  5
145
330
CE
100
AcDbEntity
  8
$DDT_AUDIT_GENERATED_(111)
  6
Continuous
 62
     7
100
AcDbLine
 10
214.6544488468
 20
1828.7959282416
 30
0.0
 11
214.5103541917
 21
1828.7959282416
 31
0.0
  0
LINE
  5
146
330
CE
100
AcDbEntity
  8
$DDT_AUDIT_GENERATED_(111)
  6
Continuous
 62
     7
100
AcDbLine
 10
214.8544488468
 20
1828.8134259743
 30
0.0
 11
214.8544488468
 21
1828.8472977129
 31
0.0
  0
ELLIPSE
  5
147
330
CE
100
AcDbEntity
  8
$DDT_AUDIT_GENERATED_(111)
  6
Continuous
 62
     7
100
AcDbEllipse
 10
214.6544488468
 20
1828.8134259743
 30
0.0
 11
-0.1999999999999919
 21
-8.903766433572688E-16
 31
0.0
210
0.0
220
0.0
230
1.0
 40
0.0874886635
 41
1.570796326794754
 42
3.141592653589793
  0
ELLIPSE
  5
148
330
CE
100
AcDbEntity
  8
$DDT_AUDIT_GENERATED_(111)
  6
Continuous
 62
     7
100
AcDbEllipse
 10
214.6544488468
 20
1824.3409871913
 30
0.0
 11
0.1999999999999988
 21
2.301490536886612E-17
 31
0.0
210
0.0
220
0.0
230
1.0
 40
0.0874886635
 41
0.0
 42
1.570796326794897
  0
LINE
  5
149
330
CE
100
AcDbEntity
  8
$DDT_AUDIT_GENERATED_(111)
  6
Continuous
 62
     7
100
AcDbLine
 10
181.8731705056
 20
1791.5272065828
 30
0.0
 11
181.8731705056
 21
1791.771301238
 31
0.0
  0
LINE
  5
14A
330
CE
100
AcDbEntity
  8
$DDT_AUDIT_GENERATED_(111)
  6
Continuous
 62
     7
100
AcDbLine
 10
181.8906682384
 20
1791.3272065828
 30
0.0
 11
181.9245399769
 21
1791.3272065828
 31
0.0
  0
ELLIPSE
  5
14B
330
CE
100
AcDbEntity
  8
$DDT_AUDIT_GENERATED_(111)
  6
Continuous
 62
     7
100
AcDbEllipse
 10
181.8906682384
 20
1791.5272065828
 30
0.0
 11
0.0
 21
0.01749773270518062
 31
0.0
210
0.0
220
0.0
230
1.0
 40
1.0
 41
1.570796326794897
 42
3.141592653589793
  0
LINE
  5
14C
330
CE
100
AcDbEntity
  8
$DDT_AUDIT_GENERATED_(111)
  6
Continuous
 62
     7
100
AcDbLine
 10
177.4182294553
 20
1861.8272065828
 30
0.0
 11
177.3843577168
 21
1861.8272065828
 31
0.0
  0
LINE
  5
14D
330
CE
100
AcDbEntity
  8
$DDT_AUDIT_GENERATED_(111)
  6
Continuous
 62
     7
100
AcDbLine
 10
177.435727188
 20
1861.6272065828
 30
0.0
 11
177.435727188
 21
1861.3831119277
 31
0.0
  0
ELLIPSE
  5
14E
330
CE
100
AcDbEntity
  8
$DDT_AUDIT_GENERATED_(111)
  6
Continuous
 62
     7
100
AcDbEllipse
 10
177.4182294553
 20
1861.6272065828
 30
0.0
 11
2.301490536886612E-17
 21
-0.1999999999999988
 31
0.0
210
0.0
220
0.0
230
1.0
 40
0.0874886635
 41
1.570796326794897
 42
3.141592653589793
  0
LINE
  5
14F
330
CE
100
AcDbEntity
  8
$DDT_AUDIT_GENERATED_(111)
  6
Continuous
 62
     7
100
AcDbLine
 10
177.435727188
 20
1791.771301238
 30
0.0
 11
177.435727188
 21
1791.5272065828
 31
0.0
  0
LINE
  5
150
330
CE
100
AcDbEntity
  8
$DDT_AUDIT_GENERATED_(111)
  6
Continuous
 62
     7
100
AcDbLine
 10
181.8731705056
 20
1861.3831119277
 30
0.0
 11
181.8731705056
 21
1861.6272065828
 31
0.0
  0
ARC
  5
151
330
CE
100
AcDbEntity
  8
$DDT_AUDIT_GENERATED_(111)
  6
Continuous
 62
     7
100
AcDbCircle
 10
214.5302362186
 20
1825.0850388976
 30
0.0
 40
3.710942605191546
100
AcDbArc
 50
90.3069736723
 51
91.1847822732
  0
LINE
  5
152
330
CE
100
AcDbEntity
  8
$DDT_AUDIT_GENERATED_(111)
  6
Continuous
 62
     7
100
AcDbLine
 10
214.5103541917
 20
1824.358484924
 30
0.0
 11
214.6544488468
 21
1824.358484924
 31
0.0
  0
ARC
  5
153
330
CE
100
AcDbEntity
  8
$DDT_AUDIT_GENERATED_(111)
  6
Continuous
 62
     7
100
AcDbCircle
 10
214.5302362186
 20
1828.0693742681
 30
0.0
 40
3.710942605191031
100
AcDbArc
 50
268.8152177268
 51
269.6930263277
  0
LINE
  5
154
330
CE
100
AcDbEntity
  8
$DDT_AUDIT_GENERATED_(111)
  6
Continuous
 62
     7
100
AcDbLine
 10
190.6544488468
 20
1791.3272065828
 30
0.0
 11
191.6544488468
 21
1791.3272065828
 31
0.0
  0
LINE
  5
155
330
CE
100
AcDbEntity
  8
$DDT_AUDIT_GENERATED_(111)
  6
Continuous
 62
     7
100
AcDbLine
 10
208.4044488468
 20
1791.4728587567
 30
0.0
 11
191.6544488468
 21
1791.3272065828
 31
0.0
  0
LINE
  5
156
330
CE
100
AcDbEntity
  8
$DDT_AUDIT_GENERATED_(111)
  6
Continuous
 62
     7
100
AcDbLine
 10
189.3276539276
 20
1791.2272065828
 30
0.0
 11
190.4812437661
 21
1791.2272065828
 31
0.0
  0
ARC
  5
157
330
CE
100
AcDbEntity
  8
$DDT_AUDIT_GENERATED_(111)
  6
Continuous
 62
     7
100
AcDbCircle
 10
190.4812437661
 20
1791.4272065828
 30
0.0
 40
0.1999999999999988
100
AcDbArc
 50
270.0
 51
330.0
  0
ARC
  5
158
330
CE
100
AcDbEntity
  8
$DDT_AUDIT_GENERATED_(111)
  6
Continuous
 62
     7
100
AcDbCircle
 10
189.3276539276
 20
1791.4272065828
 30
0.0
 40
0.1999999999999999
100
AcDbArc
 50
210.0
 51
270.0
  0
LINE
  5
159
330
CE
100
AcDbEntity
  8
$DDT_AUDIT_GENERATED_(111)
  6
Continuous
 62
     7
100
AcDbLine
 10
208.4044488468
 20
1791.4272065828
 30
0.0
 11
208.4044488468
 21
1791.4728587567
 31
0.0
  0
LINE
  5
15A
330
CE
100
AcDbEntity
  8
$DDT_AUDIT_GENERATED_(111)
  6
Continuous
 62
     7
100
AcDbLine
 10
208.6044488468
 20
1791.2272065828
 30
0.0
 11
209.7044488468
 21
1791.2272065828
 31
0.0
  0
LINE
  5
15B
330
CE
100
AcDbEntity
  8
$DDT_AUDIT_GENERATED_(111)
  6
Continuous
 62
     7
100
AcDbLine
 10
209.9044488468
 20
1791.4272065828
 30
0.0
 11
209.9044488468
 21
1791.485902235
 31
0.0
  0
ARC
  5
15C
330
CE
100
AcDbEntity
  8
$DDT_AUDIT_GENERATED_(111)
  6
Continuous
 62
     7
100
AcDbCircle
 10
209.7044488468
 20
1791.4272065828
 30
0.0
 40
0.1999999999999988
100
AcDbArc
 50
270.0
 51
0.0
  0
ARC
  5
15D
330
CE
100
AcDbEntity
  8
$DDT_AUDIT_GENERATED_(111)
  6
Continuous
 62
     7
100
AcDbCircle
 10
208.6044488468
 20
1791.4272065828
 30
0.0
 40
0.1999999999999988
100
AcDbArc
 50
180.0
 51
270.0
  0
LINE
  5
15E
330
CE
100
AcDbEntity
  8
$DDT_AUDIT_GENERATED_(111)
  6
Continuous
 62
     7
100
AcDbLine
 10
170.1544488468
 20
1791.3272065828
 30
0.0
 11
176.3881630187
 21
1791.3272065828
 31
0.0
  0
LINE
  5
15F
330
CE
100
AcDbEntity
  8
$DDT_AUDIT_GENERATED_(111)
  6
Continuous
 62
     7
100
AcDbLine
 10
149.4044488468
 20
1791.4872943021
 30
0.0
 11
145.3500630507
 21
1791.5228590898
 31
0.0
  0
LINE
  5
160
330
CE
100
AcDbEntity
  8
$DDT_AUDIT_GENERATED_(111)
  6
Continuous
 62
     7
100
AcDbLine
 10
168.8276539276
 20
1791.2272065828
 30
0.0
 11
169.9812437661
 21
1791.2272065828
 31
0.0
  0
ARC
  5
161
330
CE
100
AcDbEntity
  8
$DDT_AUDIT_GENERATED_(111)
  6
Continuous
 62
     7
100
AcDbCircle
 10
169.9812437661
 20
1791.4272065828
 30
0.0
 40
0.1999999999999988
100
AcDbArc
 50
270.0
 51
330.0
  0
ARC
  5
162
330
CE
100
AcDbEntity
  8
$DDT_AUDIT_GENERATED_(111)
  6
Continuous
 62
     7
100
AcDbCircle
 10
168.8276539276
 20
1791.4272065828
 30
0.0
 40
0.1999999999999994
100
AcDbArc
 50
210.0
 51
270.0
  0
LINE
  5
163
330
CE
100
AcDbEntity
  8
$DDT_AUDIT_GENERATED_(111)
  6
Continuous
 62
     7
100
AcDbLine
 10
149.4044488468
 20
1791.4272065828
 30
0.0
 11
149.4044488468
 21
1791.4872943021
 31
0.0
  0
LINE
  5
164
330
CE
100
AcDbEntity
  8
$DDT_AUDIT_GENERATED_(111)
  6
Continuous
 62
     7
100
AcDbLine
 10
149.6044488468
 20
1791.2272065828
 30
0.0
 11
150.7044488468
 21
1791.2272065828
 31
0.0
  0
LINE
  5
165
330
CE
100
AcDbEntity
  8
$DDT_AUDIT_GENERATED_(111)
  6
Continuous
 62
     7
100
AcDbLine
 10
150.9044488468
 20
1791.4272065828
 30
0.0
 11
150.9044488468
 21
1791.4741364074
 31
0.0
  0
ARC
  5
166
330
CE
100
AcDbEntity
  8
$DDT_AUDIT_GENERATED_(111)
  6
Continuous
 62
     7
100
AcDbCircle
 10
150.7044488468
 20
1791.4272065828
 30
0.0
 40
0.1999999999999988
100
AcDbArc
 50
270.0
 51
0.0
  0
ARC
  5
167
330
CE
100
AcDbEntity
  8
$DDT_AUDIT_GENERATED_(111)
  6
Continuous
 62
     7
100
AcDbCircle
 10
149.6044488468
 20
1791.4272065828
 30
0.0
 40
0.1999999999999988
100
AcDbArc
 50
180.0
 51
270.0
  0
LINE
  5
168
330
CE
100
AcDbEntity
  8
$DDT_AUDIT_GENERATED_(111)
  6
Continuous
 62
     7
100
AcDbLine
 10
189.1544488468
 20
1861.8272065828
 30
0.0
 11
182.920734675
 21
1861.8272065828
 31
0.0
  0
LINE
  5
169
330
CE
100
AcDbEntity
  8
$DDT_AUDIT_GENERATED_(111)
  6
Continuous
 62
     7
100
AcDbLine
 10
209.9044488468
 20
1861.6685109307
 30
0.0
 11
212.1975988326
 21
1861.648570496
 31
0.0
  0
LINE
  5
16A
330
CE
100
AcDbEntity
  8
$DDT_AUDIT_GENERATED_(111)
  6
Continuous
 62
     7
100
AcDbLine
 10
190.4812437661
 20
1861.9272065828
 30
0.0
 11
189.3276539276
 21
1861.9272065828
 31
0.0
  0
ARC
  5
16B
330
CE
100
AcDbEntity
  8
$DDT_AUDIT_GENERATED_(111)
  6
Continuous
 62
     7
100
AcDbCircle
 10
189.3276539276
 20
1861.7272065828
 30
0.0
 40
0.1999999999999988
100
AcDbArc
 50
90.0
 51
150.0
  0
ARC
  5
16C
330
CE
100
AcDbEntity
  8
$DDT_AUDIT_GENERATED_(111)
  6
Continuous
 62
     7
100
AcDbCircle
 10
190.4812437661
 20
1861.7272065828
 30
0.0
 40
0.200000000000002
100
AcDbArc
 50
30.0
 51
90.0
  0
LINE
  5
16D
330
CE
100
AcDbEntity
  8
$DDT_AUDIT_GENERATED_(111)
  6
Continuous
 62
     7
100
AcDbLine
 10
209.9044488468
 20
1861.7272065828
 30
0.0
 11
209.9044488468
 21
1861.6685109307
 31
0.0
  0
LINE
  5
16E
330
CE
100
AcDbEntity
  8
$DDT_AUDIT_GENERATED_(111)
  6
Continuous
 62
     7
100
AcDbLine
 10
209.7044488468
 20
1861.9272065828
 30
0.0
 11
208.6044488468
 21
1861.9272065828
 31
0.0
  0
LINE
  5
16F
330
CE
100
AcDbEntity
  8
$DDT_AUDIT_GENERATED_(111)
  6
Continuous
 62
     7
100
AcDbLine
 10
208.4044488468
 20
1861.7272065828
 30
0.0
 11
208.4044488468
 21
1861.6815544089
 31
0.0
  0
ARC
  5
170
330
CE
100
AcDbEntity
  8
$DDT_AUDIT_GENERATED_(111)
  6
Continuous
 62
     7
100
AcDbCircle
 10
208.6044488468
 20
1861.7272065828
 30
0.0
 40
0.1999999999999988
100
AcDbArc
 50
90.0
 51
180.0
  0
ARC
  5
171
330
CE
100
AcDbEntity
  8
$DDT_AUDIT_GENERATED_(111)
  6
Continuous
 62
     7
100
AcDbCircle
 10
209.7044488468
 20
1861.7272065828
 30
0.0
 40
0.1999999999999988
100
AcDbArc
 50
0.0
 51
90.0
  0
LINE
  5
172
330
CE
100
AcDbEntity
  8
$DDT_AUDIT_GENERATED_(111)
  6
Continuous
 62
     7
100
AcDbLine
 10
168.6544488468
 20
1861.8272065828
 30
0.0
 11
167.6544488468
 21
1861.8272065828
 31
0.0
  0
LINE
  5
173
330
CE
100
AcDbEntity
  8
$DDT_AUDIT_GENERATED_(111)
  6
Continuous
 62
     7
100
AcDbLine
 10
150.9044488468
 20
1861.6802767583
 30
0.0
 11
167.6544488468
 21
1861.8272065828
 31
0.0
  0
LINE
  5
174
330
CE
100
AcDbEntity
  8
$DDT_AUDIT_GENERATED_(111)
  6
Continuous
 62
     7
100
AcDbLine
 10
169.9812437661
 20
1861.9272065828
 30
0.0
 11
168.8276539276
 21
1861.9272065828
 31
0.0
  0
ARC
  5
175
330
CE
100
AcDbEntity
  8
$DDT_AUDIT_GENERATED_(111)
  6
Continuous
 62
     7
100
AcDbCircle
 10
168.8276539276
 20
1861.7272065828
 30
0.0
 40
0.1999999999999988
100
AcDbArc
 50
90.0
 51
150.0
  0
ARC
  5
176
330
CE
100
AcDbEntity
  8
$DDT_AUDIT_GENERATED_(111)
  6
Continuous
 62
     7
100
AcDbCircle
 10
169.9812437661
 20
1861.7272065828
 30
0.0
 40
0.1999999999999994
100
AcDbArc
 50
30.0
 51
90.0
  0
LINE
  5
177
330
CE
100
AcDbEntity
  8
$DDT_AUDIT_GENERATED_(111)
  6
Continuous
 62
     7
100
AcDbLine
 10
150.9044488468
 20
1861.7272065828
 30
0.0
 11
150.9044488468
 21
1861.6802767583
 31
0.0
  0
LINE
  5
178
330
CE
100
AcDbEntity
  8
$DDT_AUDIT_GENERATED_(111)
  6
Continuous
 62
     7
100
AcDbLine
 10
150.7044488468
 20
1861.9272065828
 30
0.0
 11
149.6044488468
 21
1861.9272065828
 31
0.0
  0
LINE
  5
179
330
CE
100
AcDbEntity
  8
$DDT_AUDIT_GENERATED_(111)
  6
Continuous
 62
     7
100
AcDbLine
 10
149.4044488468
 20
1861.7272065828
 30
0.0
 11
149.4044488468
 21
1861.6671188635
 31
0.0
  0
ARC
  5
17A
330
CE
100
AcDbEntity
  8
$DDT_AUDIT_GENERATED_(111)
  6
Continuous
 62
     7
100
AcDbCircle
 10
149.6044488468
 20
1861.7272065828
 30
0.0
 40
0.1999999999999988
100
AcDbArc
 50
90.0
 51
180.0
  0
ARC
  5
17B
330
CE
100
AcDbEntity
  8
$DDT_AUDIT_GENERATED_(111)
  6
Continuous
 62
     7
100
AcDbCircle
 10
150.7044488468
 20
1861.7272065828
 30
0.0
 40
0.1999999999999988
100
AcDbArc
 50
0.0
 51
90.0
  0
LINE
  5
17C
330
CE
100
AcDbEntity
  8
$DDT_AUDIT_GENERATED_(111)
  6
Continuous
 62
     7
100
AcDbLine
 10
214.8544488468
 20
1837.5772065828
 30
0.0
 11
214.8544488468
 21
1838.5772065828
 31
0.0
  0
LINE
  5
17D
330
CE
100
AcDbEntity
  8
$DDT_AUDIT_GENERATED_(111)
  6
Continuous
 62
     7
100
AcDbLine
 10
214.7091126212
 20
1855.3272065828
 30
0.0
 11
214.8544488468
 21
1838.5772065828
 31
0.0
  0
LINE
  5
17E
330
CE
100
AcDbEntity
  8
$DDT_AUDIT_GENERATED_(111)
  6
Continuous
 62
     7
100
AcDbLine
 10
214.9244488468
 20
1836.2291934244
 30
0.0
 11
214.9244488468
 21
1837.4252197413
 31
0.0
  0
ARC
  5
17F
330
CE
100
AcDbEntity
  8
$DDT_AUDIT_GENERATED_(111)
  6
Continuous
 62
     7
100
AcDbCircle
 10
214.7244488468
 20
1837.4252197413
 30
0.0
 40
0.1999999999999988
100
AcDbArc
 50
0.0
 51
49.4583981265
  0
ARC
  5
180
330
CE
100
AcDbEntity
  8
$DDT_AUDIT_GENERATED_(111)
  6
Continuous
 62
     7
100
AcDbCircle
 10
214.7244488468
 20
1836.2291934244
 30
0.0
 40
0.2000000000000006
100
AcDbArc
 50
310.5416018735
 51
0.0
  0
LINE
  5
181
330
CE
100
AcDbEntity
  8
$DDT_AUDIT_GENERATED_(111)
  6
Continuous
 62
     7
100
AcDbLine
 10
214.7244488468
 20
1855.3272065828
 30
0.0
 11
214.7091126212
 21
1855.3272065828
 31
0.0
  0
LINE
  5
182
330
CE
100
AcDbEntity
  8
$DDT_AUDIT_GENERATED_(111)
  6
Continuous
 62
     7
100
AcDbLine
 10
214.9244488468
 20
1855.5272065828
 30
0.0
 11
214.9244488468
 21
1856.6272065828
 31
0.0
  0
LINE
  5
183
330
CE
100
AcDbEntity
  8
$DDT_AUDIT_GENERATED_(111)
  6
Continuous
 62
     7
100
AcDbLine
 10
214.7244488468
 20
1856.8272065828
 30
0.0
 11
214.6960974369
 21
1856.8272065828
 31
0.0
  0
ARC
  5
184
330
CE
100
AcDbEntity
  8
$DDT_AUDIT_GENERATED_(111)
  6
Continuous
 62
     7
100
AcDbCircle
 10
214.7244488468
 20
1856.6272065828
 30
0.0
 40
0.1999999999999988
100
AcDbArc
 50
0.0
 51
90.0
  0
ARC
  5
185
330
CE
100
AcDbEntity
  8
$DDT_AUDIT_GENERATED_(111)
  6
Continuous
 62
     7
100
AcDbCircle
 10
214.7244488468
 20
1855.5272065828
 30
0.0
 40
0.1999999999999988
100
AcDbArc
 50
270.0
 51
0.0
  0
LINE
  5
186
330
CE
100
AcDbEntity
  8
$DDT_AUDIT_GENERATED_(111)
  6
Continuous
 62
     7
100
AcDbLine
 10
214.8544488468
 20
1817.0772065828
 30
0.0
 11
214.8544488468
 21
1823.3109207547
 31
0.0
  0
LINE
  5
187
330
CE
100
AcDbEntity
  8
$DDT_AUDIT_GENERATED_(111)
  6
Continuous
 62
     7
100
AcDbLine
 10
214.6960974369
 20
1796.3272065828
 30
0.0
 11
214.6757664209
 21
1793.9840569996
 31
0.0
  0
LINE
  5
188
330
CE
100
AcDbEntity
  8
$DDT_AUDIT_GENERATED_(111)
  6
Continuous
 62
     7
100
AcDbLine
 10
214.9244488468
 20
1815.7291934244
 30
0.0
 11
214.9244488468
 21
1816.9252197413
 31
0.0
  0
ARC
  5
189
330
CE
100
AcDbEntity
  8
$DDT_AUDIT_GENERATED_(111)
  6
Continuous
 62
     7
100
AcDbCircle
 10
214.7244488468
 20
1816.9252197413
 30
0.0
 40
0.1999999999999988
100
AcDbArc
 50
0.0
 51
49.4583981265
  0
ARC
  5
18A
330
CE
100
AcDbEntity
  8
$DDT_AUDIT_GENERATED_(111)
  6
Continuous
 62
     7
100
AcDbCircle
 10
214.7244488468
 20
1815.7291934244
 30
0.0
 40
0.2
100
AcDbArc
 50
310.5416018735
 51
0.0
  0
LINE
  5
18B
330
CE
100
AcDbEntity
  8
$DDT_AUDIT_GENERATED_(111)
  6
Continuous
 62
     7
100
AcDbLine
 10
214.7244488468
 20
1796.3272065828
 30
0.0
 11
214.6960974369
 21
1796.3272065828
 31
0.0
  0
LINE
  5
18C
330
CE
100
AcDbEntity
  8
$DDT_AUDIT_GENERATED_(111)
  6
Continuous
 62
     7
100
AcDbLine
 10
214.9244488468
 20
1796.5272065828
 30
0.0
 11
214.9244488468
 21
1797.6272065828
 31
0.0
  0
LINE
  5
18D
330
CE
100
AcDbEntity
  8
$DDT_AUDIT_GENERATED_(111)
  6
Continuous
 62
     7
100
AcDbLine
 10
214.7244488468
 20
1797.8272065828
 30
0.0
 11
214.7091126212
 21
1797.8272065828
 31
0.0
  0
ARC
  5
18E
330
CE
100
AcDbEntity
  8
$DDT_AUDIT_GENERATED_(111)
  6
Continuous
 62
     7
100
AcDbCircle
 10
214.7244488468
 20
1797.6272065828
 30
0.0
 40
0.1999999999999988
100
AcDbArc
 50
0.0
 51
90.0
  0
ARC
  5
18F
330
CE
100
AcDbEntity
  8
$DDT_AUDIT_GENERATED_(111)
  6
Continuous
 62
     7
100
AcDbCircle
 10
214.7244488468
 20
1796.5272065828
 30
0.0
 40
0.1999999999999988
100
AcDbArc
 50
270.0
 51
0.0
  0
LINE
  5
191
330
CE
100
AcDbEntity
  8
$DDT_AUDIT_GENERATED_(190)
  6
Continuous
 62
     7
100
AcDbLine
 10
116.9044488468
 20
1791.2972065828
 30
0.0
 11
122.6544488468
 21
1791.2972065828
 31
0.0
  0
ARC
  5
192
330
CE
100
AcDbEntity
  8
$DDT_AUDIT_GENERATED_(190)
  6
Continuous
 62
     7
100
AcDbCircle
 10
116.9044488468
 20
1793.7972065828
 30
0.0
 40
2.500000000000002
100
AcDbArc
 50
180.0
 51
270.0
  0
LINE
  5
193
330
CE
100
AcDbEntity
  8
$DDT_AUDIT_GENERATED_(190)
  6
Continuous
 62
     7
100
AcDbLine
 10
114.4044488468
 20
1859.3572065828
 30
0.0
 11
114.4044488468
 21
1837.5772065828
 31
0.0
  0
ARC
  5
194
330
CE
100
AcDbEntity
  8
$DDT_AUDIT_GENERATED_(190)
  6
Continuous
 62
     7
100
AcDbCircle
 10
116.9044488468
 20
1859.3572065828
 30
0.0
 40
2.500000000000002
100
AcDbArc
 50
90.0
 51
180.0
  0
LINE
  5
195
330
CE
100
AcDbEntity
  8
$DDT_AUDIT_GENERATED_(190)
  6
Continuous
 62
     7
100
AcDbLine
 10
143.7044488468
 20
1861.8572065828
 30
0.0
 11
139.4544488468
 21
1861.8572065828
 31
0.0
  0
ARC
  5
196
330
CE
100
AcDbEntity
  8
$DDT_AUDIT_GENERATED_(190)
  6
Continuous
 62
     7
100
AcDbCircle
 10
143.7044488468
 20
1861.3572065828
 30
0.0
 40
0.5000000000000004
100
AcDbArc
 50
0.0
 51
90.0
  0
LINE
  5
197
330
CE
100
AcDbEntity
  8
$DDT_AUDIT_GENERATED_(190)
  6
Continuous
 62
     7
100
AcDbLine
 10
144.2044488468
 20
1791.7972065828
 30
0.0
 11
144.2044488468
 21
1792.777054278
 31
0.0
  0
ARC
  5
198
330
CE
100
AcDbEntity
  8
$DDT_AUDIT_GENERATED_(190)
  6
Continuous
 62
     7
100
AcDbCircle
 10
143.7044488468
 20
1791.7972065828
 30
0.0
 40
0.5000000000000004
100
AcDbArc
 50
270.0
 51
0.0
  0
LINE
  5
199
330
CE
100
AcDbEntity
  8
$DDT_AUDIT_GENERATED_(190)
  6
Continuous
 62
     7
100
AcDbLine
 10
144.2044488468
 20
1860.3773588877
 30
0.0
 11
144.2044488468
 21
1861.3572065828
 31
0.0
  0
LINE
  5
19A
330
CE
100
AcDbEntity
  8
$DDT_AUDIT_GENERATED_(190)
  6
Continuous
 62
     7
100
AcDbLine
 10
114.4044488468
 20
1828.8472977129
 30
0.0
 11
114.4044488468
 21
1828.8134259743
 31
0.0
  0
LINE
  5
19B
330
CE
100
AcDbEntity
  8
$DDT_AUDIT_GENERATED_(190)
  6
Continuous
 62
     7
100
AcDbLine
 10
114.4044488468
 20
1828.8472977129
 30
0.0
 11
114.4044488468
 21
1829.8434924109
 31
0.0
  0
LINE
  5
19C
330
CE
100
AcDbEntity
  8
$DDT_AUDIT_GENERATED_(190)
  6
Continuous
 62
     7
100
AcDbLine
 10
114.4044488468
 20
1823.3109207547
 30
0.0
 11
114.4044488468
 21
1817.0772065828
 31
0.0
  0
LINE
  5
19D
330
CE
100
AcDbEntity
  8
$DDT_AUDIT_GENERATED_(190)
  6
Continuous
 62
     7
100
AcDbLine
 10
114.4044488468
 20
1823.3109207547
 30
0.0
 11
114.4044488468
 21
1824.3071154528
 31
0.0
  0
LINE
  5
19E
330
CE
100
AcDbEntity
  8
$DDT_AUDIT_GENERATED_(190)
  6
Continuous
 62
     7
100
AcDbLine
 10
114.6044488468
 20
1828.7959282416
 30
0.0
 11
114.8044488468
 21
1828.7959282416
 31
0.0
  0
ELLIPSE
  5
19F
330
CE
100
AcDbEntity
  8
$DDT_AUDIT_GENERATED_(190)
  6
Continuous
 62
     7
100
AcDbEllipse
 10
114.6044488468
 20
1828.8134259743
 30
0.0
 11
-0.1999999999999988
 21
-2.301490536886612E-17
 31
0.0
210
0.0
220
0.0
230
1.0
 40
0.0874886635
 41
0.0
 42
1.570796326794897
  0
LINE
  5
1A0
330
CE
100
AcDbEntity
  8
$DDT_AUDIT_GENERATED_(190)
  6
Continuous
 62
     7
100
AcDbLine
 10
114.4044488468
 20
1824.3409871913
 30
0.0
 11
114.4044488468
 21
1824.3071154528
 31
0.0
  0
ELLIPSE
  5
1A1
330
CE
100
AcDbEntity
  8
$DDT_AUDIT_GENERATED_(190)
  6
Continuous
 62
     7
100
AcDbEllipse
 10
114.6044488468
 20
1824.3409871913
 30
0.0
 11
0.1999999999999988
 21
2.301490536886612E-17
 31
0.0
210
0.0
220
0.0
230
1.0
 40
0.0874886635
 41
1.570796326794897
 42
3.141592653589792
  0
LINE
  5
1A2
330
CE
100
AcDbEntity
  8
$DDT_AUDIT_GENERATED_(190)
  6
Continuous
 62
     7
100
AcDbLine
 10
114.8044488468
 20
1824.358484924
 30
0.0
 11
114.6044488468
 21
1824.358484924
 31
0.0
  0
ELLIPSE
  5
1A3
330
CE
100
AcDbEntity
  8
$DDT_AUDIT_GENERATED_(190)
  6
Continuous
 62
     7
100
AcDbEllipse
 10
114.8044488468
 20
1824.3759826567
 30
0.0
 11
0.2000000000000057
 21
-4.106659636253348E-16
 31
0.0
210
0.0
220
0.0
230
1.0
 40
0.0874886635
 41
4.71238898038469
 42
5.235987755983022
  0
ELLIPSE
  5
1A4
330
CE
100
AcDbEntity
  8
$DDT_AUDIT_GENERATED_(190)
  6
Continuous
 62
     7
100
AcDbEllipse
 10
114.8044488468
 20
1828.7784305089
 30
0.0
 11
-0.1999999999999988
 21
-2.301490536886612E-17
 31
0.0
210
0.0
220
0.0
230
1.0
 40
0.0874886635
 41
4.188790204786338
 42
4.71238898038469
  0
LINE
  5
1A5
330
CE
100
AcDbEntity
  8
$DDT_AUDIT_GENERATED_(190)
  6
Continuous
 62
     7
100
AcDbLine
 10
144.3079393281
 20
1796.0737764964
 30
0.0
 11
144.2044488468
 21
1796.0719700633
 31
0.0
  0
LINE
  5
1A6
330
CE
100
AcDbEntity
  8
$DDT_AUDIT_GENERATED_(190)
  6
Continuous
 62
     7
100
AcDbLine
 10
144.2044488468
 20
1798.0824431023
 30
0.0
 11
144.3079393281
 21
1798.0806366692
 31
0.0
  0
ARC
  5
1A7
330
CE
100
AcDbEntity
  8
$DDT_AUDIT_GENERATED_(190)
  6
Continuous
 62
     7
100
AcDbCircle
 10
144.3044488468
 20
1796.2737460355
 30
0.0
 40
0.1999999999999988
100
AcDbArc
 50
271.0
 51
0.0
  0
ARC
  5
1A8
330
CE
100
AcDbEntity
  8
$DDT_AUDIT_GENERATED_(190)
  6
Continuous
 62
     7
100
AcDbCircle
 10
144.3044488468
 20
1797.8806671302
 30
0.0
 40
0.2000000000000009
100
AcDbArc
 50
0.0
 51
89.0
  0
LINE
  5
1A9
330
CE
100
AcDbEntity
  8
$DDT_AUDIT_GENERATED_(190)
  6
Continuous
 62
     7
100
AcDbLine
 10
144.5044488468
 20
1797.8806671302
 30
0.0
 11
144.5044488468
 21
1796.2737460355
 31
0.0
  0
LINE
  5
1AA
330
CE
100
AcDbEntity
  8
$DDT_AUDIT_GENERATED_(190)
  6
Continuous
 62
     7
100
AcDbLine
 10
144.2044488468
 20
1857.0824431023
 30
0.0
 11
144.3079393281
 21
1857.0806366692
 31
0.0
  0
ARC
  5
1AB
330
CE
100
AcDbEntity
  8
$DDT_AUDIT_GENERATED_(190)
  6
Continuous
 62
     7
100
AcDbCircle
 10
144.3044488468
 20
1856.8806671302
 30
0.0
 40
0.2000000000000009
100
AcDbArc
 50
0.0
 51
89.0
  0
LINE
  5
1AC
330
CE
100
AcDbEntity
  8
$DDT_AUDIT_GENERATED_(190)
  6
Continuous
 62
     7
100
AcDbLine
 10
144.5044488468
 20
1856.8806671302
 30
0.0
 11
144.5044488468
 21
1855.2737460355
 31
0.0
  0
ARC
  5
1AD
330
CE
100
AcDbEntity
  8
$DDT_AUDIT_GENERATED_(190)
  6
Continuous
 62
     7
100
AcDbCircle
 10
144.3044488468
 20
1855.2737460355
 30
0.0
 40
0.1999999999999988
100
AcDbArc
 50
271.0
 51
0.0
  0
LINE
  5
1AE
330
CE
100
AcDbEntity
  8
$DDT_AUDIT_GENERATED_(190)
  6
Continuous
 62
     7
100
AcDbLine
 10
144.3079393281
 20
1855.0737764964
 30
0.0
 11
144.2044488468
 21
1855.0719700633
 31
0.0
  0
LINE
  5
1AF
330
CE
100
AcDbEntity
  8
$DDT_AUDIT_GENERATED_(190)
  6
Continuous
 62
     7
100
AcDbLine
 10
144.3079393281
 20
1838.5737764964
 30
0.0
 11
144.2044488468
 21
1838.5719700633
 31
0.0
  0
ARC
  5
1B0
330
CE
100
AcDbEntity
  8
$DDT_AUDIT_GENERATED_(190)
  6
Continuous
 62
     7
100
AcDbCircle
 10
144.3044488468
 20
1838.7737460355
 30
0.0
 40
0.1999999999999988
100
AcDbArc
 50
271.0
 51
0.0
  0
LINE
  5
1B1
330
CE
100
AcDbEntity
  8
$DDT_AUDIT_GENERATED_(190)
  6
Continuous
 62
     7
100
AcDbLine
 10
144.5044488468
 20
1840.3806671302
 30
0.0
 11
144.5044488468
 21
1838.7737460355
 31
0.0
  0
ARC
  5
1B2
330
CE
100
AcDbEntity
  8
$DDT_AUDIT_GENERATED_(190)
  6
Continuous
 62
     7
100
AcDbCircle
 10
144.3044488468
 20
1840.3806671302
 30
0.0
 40
0.1999999999999992
100
AcDbArc
 50
0.0
 51
89.0
  0
LINE
  5
1B3
330
CE
100
AcDbEntity
  8
$DDT_AUDIT_GENERATED_(190)
  6
Continuous
 62
     7
100
AcDbLine
 10
144.2044488468
 20
1840.5824431023
 30
0.0
 11
144.3079393281
 21
1840.5806366692
 31
0.0
  0
LINE
  5
1B4
330
CE
100
AcDbEntity
  8
$DDT_AUDIT_GENERATED_(190)
  6
Continuous
 62
     7
100
AcDbLine
 10
144.3079393281
 20
1812.5737764964
 30
0.0
 11
144.2044488468
 21
1812.5719700633
 31
0.0
  0
ARC
  5
1B5
330
CE
100
AcDbEntity
  8
$DDT_AUDIT_GENERATED_(190)
  6
Continuous
 62
     7
100
AcDbCircle
 10
144.3044488468
 20
1812.7737460355
 30
0.0
 40
0.1999999999999988
100
AcDbArc
 50
271.0
 51
0.0
  0
LINE
  5
1B6
330
CE
100
AcDbEntity
  8
$DDT_AUDIT_GENERATED_(190)
  6
Continuous
 62
     7
100
AcDbLine
 10
144.5044488468
 20
1814.3806671302
 30
0.0
 11
144.5044488468
 21
1812.7737460355
 31
0.0
  0
ARC
  5
1B7
330
CE
100
AcDbEntity
  8
$DDT_AUDIT_GENERATED_(190)
  6
Continuous
 62
     7
100
AcDbCircle
 10
144.3044488468
 20
1814.3806671302
 30
0.0
 40
0.1999999999999992
100
AcDbArc
 50
0.0
 51
89.0
  0
LINE
  5
1B8
330
CE
100
AcDbEntity
  8
$DDT_AUDIT_GENERATED_(190)
  6
Continuous
 62
     7
100
AcDbLine
 10
144.2044488468
 20
1814.5824431023
 30
0.0
 11
144.3079393281
 21
1814.5806366692
 31
0.0
  0
LINE
  5
1B9
330
CE
100
AcDbEntity
  8
$DDT_AUDIT_GENERATED_(190)
  6
Continuous
 62
     7
100
AcDbLine
 10
138.3544488468
 20
1861.8572065828
 30
0.0
 11
123.7544488468
 21
1861.8572065828
 31
0.0
  0
LINE
  5
1BA
330
CE
100
AcDbEntity
  8
$DDT_AUDIT_GENERATED_(190)
  6
Continuous
 62
     7
100
AcDbLine
 10
122.6544488468
 20
1861.8572065828
 30
0.0
 11
116.9044488468
 21
1861.8572065828
 31
0.0
  0
LINE
  5
1BB
330
CE
100
AcDbEntity
  8
$DDT_AUDIT_GENERATED_(190)
  6
Continuous
 62
     7
100
AcDbLine
 10
123.6024620053
 20
1861.9272065828
 30
0.0
 11
122.8064356884
 21
1861.9272065828
 31
0.0
  0
ARC
  5
1BC
330
CE
100
AcDbEntity
  8
$DDT_AUDIT_GENERATED_(190)
  6
Continuous
 62
     7
100
AcDbCircle
 10
122.8064356884
 20
1861.7272065828
 30
0.0
 40
0.1999999999999988
100
AcDbArc
 50
90.0
 51
139.4583981265
  0
ARC
  5
1BD
330
CE
100
AcDbEntity
  8
$DDT_AUDIT_GENERATED_(190)
  6
Continuous
 62
     7
100
AcDbCircle
 10
123.6024620053
 20
1861.7272065828
 30
0.0
 40
0.2000000000000006
100
AcDbArc
 50
40.5416018735
 51
90.0
  0
LINE
  5
1BE
330
CE
100
AcDbEntity
  8
$DDT_AUDIT_GENERATED_(190)
  6
Continuous
 62
     7
100
AcDbLine
 10
139.3024620053
 20
1861.9272065828
 30
0.0
 11
138.5064356884
 21
1861.9272065828
 31
0.0
  0
ARC
  5
1BF
330
CE
100
AcDbEntity
  8
$DDT_AUDIT_GENERATED_(190)
  6
Continuous
 62
     7
100
AcDbCircle
 10
138.5064356884
 20
1861.7272065828
 30
0.0
 40
0.1999999999999988
100
AcDbArc
 50
90.0
 51
139.4583981265
  0
ARC
  5
1C0
330
CE
100
AcDbEntity
  8
$DDT_AUDIT_GENERATED_(190)
  6
Continuous
 62
     7
100
AcDbCircle
 10
139.3024620053
 20
1861.7272065828
 30
0.0
 40
0.2000000000000006
100
AcDbArc
 50
40.5416018735
 51
90.0
  0
LINE
  5
1C1
330
CE
100
AcDbEntity
  8
$DDT_AUDIT_GENERATED_(190)
  6
Continuous
 62
     7
100
AcDbLine
 10
139.4544488468
 20
1791.2972065828
 30
0.0
 11
143.7044488468
 21
1791.2972065828
 31
0.0
  0
LINE
  5
1C2
330
CE
100
AcDbEntity
  8
$DDT_AUDIT_GENERATED_(190)
  6
Continuous
 62
     7
100
AcDbLine
 10
123.7544488468
 20
1791.2972065828
 30
0.0
 11
138.3544488468
 21
1791.2972065828
 31
0.0
  0
LINE
  5
1C3
330
CE
100
AcDbEntity
  8
$DDT_AUDIT_GENERATED_(190)
  6
Continuous
 62
     7
100
AcDbLine
 10
122.8064356884
 20
1791.2272065828
 30
0.0
 11
123.6024620053
 21
1791.2272065828
 31
0.0
  0
ARC
  5
1C4
330
CE
100
AcDbEntity
  8
$DDT_AUDIT_GENERATED_(190)
  6
Continuous
 62
     7
100
AcDbCircle
 10
123.6024620053
 20
1791.4272065828
 30
0.0
 40
0.2000000000000057
100
AcDbArc
 50
270.0
 51
319.4583981265
  0
ARC
  5
1C5
330
CE
100
AcDbEntity
  8
$DDT_AUDIT_GENERATED_(190)
  6
Continuous
 62
     7
100
AcDbCircle
 10
122.8064356884
 20
1791.4272065828
 30
0.0
 40
0.2000000000000013
100
AcDbArc
 50
220.5416018735
 51
270.0
  0
LINE
  5
1C6
330
CE
100
AcDbEntity
  8
$DDT_AUDIT_GENERATED_(190)
  6
Continuous
 62
     7
100
AcDbLine
 10
138.5064356884
 20
1791.2272065828
 30
0.0
 11
139.3024620053
 21
1791.2272065828
 31
0.0
  0
ARC
  5
1C7
330
CE
100
AcDbEntity
  8
$DDT_AUDIT_GENERATED_(190)
  6
Continuous
 62
     7
100
AcDbCircle
 10
139.3024620053
 20
1791.4272065828
 30
0.0
 40
0.1999999999999988
100
AcDbArc
 50
270.0
 51
319.4583981265
  0
ARC
  5
1C8
330
CE
100
AcDbEntity
  8
$DDT_AUDIT_GENERATED_(190)
  6
Continuous
 62
     7
100
AcDbCircle
 10
138.5064356884
 20
1791.4272065828
 30
0.0
 40
0.2000000000000006
100
AcDbArc
 50
220.5416018735
 51
270.0
  0
LINE
  5
1C9
330
CE
100
AcDbEntity
  8
$DDT_AUDIT_GENERATED_(190)
  6
Continuous
 62
     7
100
AcDbLine
 10
114.4044488468
 20
1815.5772065828
 30
0.0
 11
114.4044488468
 21
1793.7972065828
 31
0.0
  0
LINE
  5
1CA
330
CE
100
AcDbEntity
  8
$DDT_AUDIT_GENERATED_(190)
  6
Continuous
 62
     7
100
AcDbLine
 10
114.3344488468
 20
1816.9252197413
 30
0.0
 11
114.3344488468
 21
1815.7291934244
 31
0.0
  0
ARC
  5
1CB
330
CE
100
AcDbEntity
  8
$DDT_AUDIT_GENERATED_(190)
  6
Continuous
 62
     7
100
AcDbCircle
 10
114.5344488468
 20
1815.7291934244
 30
0.0
 40
0.2000000000000057
100
AcDbArc
 50
180.0
 51
229.4583981265
  0
ARC
  5
1CC
330
CE
100
AcDbEntity
  8
$DDT_AUDIT_GENERATED_(190)
  6
Continuous
 62
     7
100
AcDbCircle
 10
114.5344488468
 20
1816.9252197413
 30
0.0
 40
0.2000000000000019
100
AcDbArc
 50
130.5416018735
 51
180.0
  0
LINE
  5
1CD
330
CE
100
AcDbEntity
  8
$DDT_AUDIT_GENERATED_(190)
  6
Continuous
 62
     7
100
AcDbLine
 10
114.4044488468
 20
1836.0772065828
 30
0.0
 11
114.4044488468
 21
1829.8434924109
 31
0.0
  0
LINE
  5
1CE
330
CE
100
AcDbEntity
  8
$DDT_AUDIT_GENERATED_(190)
  6
Continuous
 62
     7
100
AcDbLine
 10
114.3344488468
 20
1837.4252197413
 30
0.0
 11
114.3344488468
 21
1836.2291934244
 31
0.0
  0
ARC
  5
1CF
330
CE
100
AcDbEntity
  8
$DDT_AUDIT_GENERATED_(190)
  6
Continuous
 62
     7
100
AcDbCircle
 10
114.5344488468
 20
1837.4252197413
 30
0.0
 40
0.2000000000000006
100
AcDbArc
 50
130.5416018735
 51
180.0
  0
ARC
  5
1D0
330
CE
100
AcDbEntity
  8
$DDT_AUDIT_GENERATED_(190)
  6
Continuous
 62
     7
100
AcDbCircle
 10
114.5344488468
 20
1836.2291934244
 30
0.0
 40
0.2000000000000057
100
AcDbArc
 50
180.0
 51
229.4583981265
  0
ARC
  5
1D2
330
CE
100
AcDbEntity
  8
$DDT_AUDIT_GENERATED_(1D1)
  6
Continuous
 62
     7
100
AcDbCircle
 10
145.8610708203
 20
1819.0169926527
 30
0.0
 40
2.000000000000001
100
AcDbArc
 50
237.638246322
 51
239.7807040472
  0
ARC
  5
1D3
330
CE
100
AcDbEntity
  8
$DDT_AUDIT_GENERATED_(1D1)
  6
Continuous
 62
     7
100
AcDbCircle
 10
145.8610708203
 20
1834.1374205129
 30
0.0
 40
1.999999999999998
100
AcDbArc
 50
120.2192959524
 51
122.3617536777
  0
ARC
  5
1D4
330
CE
100
AcDbEntity
  8
$DDT_AUDIT_GENERATED_(1D1)
  6
Continuous
 62
     7
100
AcDbCircle
 10
134.6544488468
 20
1826.5772065828
 30
0.0
 40
13.75000000000002
100
AcDbArc
 50
313.9910068718
 51
317.6397375278
  0
ARC
  5
1D5
330
CE
100
AcDbEntity
  8
$DDT_AUDIT_GENERATED_(1D1)
  6
Continuous
 62
     7
100
AcDbCircle
 10
134.6544488468
 20
1826.5772065828
 30
0.0
 40
13.72207189611486
100
AcDbArc
 50
314.1036897453
 51
317.618323372
  0
ARC
  5
1D6
330
CE
100
AcDbEntity
  8
$DDT_AUDIT_GENERATED_(1D1)
  6
Continuous
 62
     7
100
AcDbCircle
 10
134.6544488468
 20
1826.5772065828
 30
0.0
 40
13.75
100
AcDbArc
 50
42.3602624722
 51
46.0089931282
  0
ARC
  5
1D7
330
CE
100
AcDbEntity
  8
$DDT_AUDIT_GENERATED_(1D1)
  6
Continuous
 62
     7
100
AcDbCircle
 10
134.6544488468
 20
1826.5772065828
 30
0.0
 40
13.72207189611485
100
AcDbArc
 50
42.381676628
 51
45.8963102547
  0
ARC
  5
1D8
330
CE
100
AcDbEntity
  8
$DDT_AUDIT_GENERATED_(1D1)
  6
Continuous
 62
     7
100
AcDbCircle
 10
134.6544488468
 20
1826.5772065828
 30
0.0
 40
12.79999999999998
100
AcDbArc
 50
37.1672854613
 51
41.7468700231
  0
ARC
  5
1D9
330
CE
100
AcDbEntity
  8
$DDT_AUDIT_GENERATED_(1D1)
  6
Continuous
 62
     7
100
AcDbCircle
 10
134.6544488468
 20
1826.5772065828
 30
0.0
 40
12.79999999999998
100
AcDbArc
 50
318.2531299769
 51
322.8327145387
  0
LINE
  5
1DA
330
CE
100
AcDbEntity
  8
490147031_RAHMEN
  6
Continuous
 62
     7
100
AcDbLine
 10
72.1535350178
 20
1904.5772065828
 30
0.0
 11
257.1553626759
 21
1904.5772065828
 31
0.0
  0
ELLIPSE
  5
1DB
330
CE
100
AcDbEntity
  8
490147031_RAHMEN
  6
Continuous
 62
     7
100
AcDbEllipse
 10
72.1553628151
 20
1898.5762926146
 30
0.0
 11
4.243933135017486
 21
-4.243933135017484
 31
0.0
210
0.0
220
0.0
230
1.0
 40
0.9996954599
 41
2.356346783439965
 42
3.926838523739687
  0
LINE
  5
1DC
330
CE
100
AcDbEntity
  8
490147031_RAHMEN
  6
Continuous
 62
     7
100
AcDbLine
 10
263.1544488468
 20
1898.5781204119
 30
0.0
 11
263.1544488468
 21
1754.5762927538
 31
0.0
  0
ELLIPSE
  5
1DD
330
CE
100
AcDbEntity
  8
490147031_RAHMEN
  6
Continuous
 62
     7
100
AcDbEllipse
 10
257.1535348786
 20
1898.5762926146
 30
0.0
 11
-4.243933135017484
 21
-4.243933135017487
 31
0.0
210
0.0
220
0.0
230
1.0
 40
0.9996954599
 41
2.356346783439898
 42
3.926838523739612
  0
LINE
  5
1DE
330
CE
100
AcDbEntity
  8
490147031_RAHMEN
  6
Continuous
 62
     7
100
AcDbLine
 10
257.1553626759
 20
1748.5772065828
 30
0.0
 11
72.1535350178
 21
1748.5772065828
 31
0.0
  0
ELLIPSE
  5
1DF
330
CE
100
AcDbEntity
  8
490147031_RAHMEN
  6
Continuous
 62
     7
100
AcDbEllipse
 10
257.1535348786
 20
1754.5781205511
 30
0.0
 11
-4.243933135017487
 21
4.243933135017484
 31
0.0
210
0.0
220
0.0
230
1.0
 40
0.9996954599
 41
2.356346783439974
 42
3.92683852373964
  0
LINE
  5
1E0
330
CE
100
AcDbEntity
  8
490147031_RAHMEN
  6
Continuous
 62
     7
100
AcDbLine
 10
66.1544488468
 20
1754.5762927538
 30
0.0
 11
66.1544488468
 21
1898.5781204119
 31
0.0
  0
ELLIPSE
  5
1E1
330
CE
100
AcDbEntity
  8
490147031_RAHMEN
  6
Continuous
 62
     7
100
AcDbEllipse
 10
72.1553628151
 20
1754.5781205511
 30
0.0
 11
4.243933135017484
 21
4.243933135017486
 31
0.0
210
0.0
220
0.0
230
1.0
 40
0.9996954599
 41
2.356346783439936
 42
3.926838523739621
  0
LINE
  5
1E2
330
CE
100
AcDbEntity
  8
490147031_RAHMEN
  6
Continuous
 62
     7
100
AcDbLine
 10
153.6632773802
 20
1791.0772065581
 30
0.0
 11
167.6456203135
 21
1791.0772065581
 31
0.0
  0
LINE
  5
1E3
330
CE
100
AcDbEntity
  8
490147031_RAHMEN
  6
Continuous
 62
     7
100
AcDbLine
 10
167.6456203135
 20
1791.0772065581
 30
0.0
 11
167.6522715089
 21
1791.0771280436
 31
0.0
  0
LINE
  5
1E4
330
CE
100
AcDbEntity
  8
490147031_RAHMEN
  6
Continuous
 62
     7
100
AcDbLine
 10
153.6566261848
 20
1791.0771280436
 30
0.0
 11
153.6632773802
 21
1791.0772065581
 31
0.0
  0
ELLIPSE
  5
1E5
330
CE
100
AcDbEntity
  8
490147031_RAHMEN
  6
Continuous
 62
     7
100
AcDbEllipse
 10
168.1372932342
 20
1791.081554761
 30
0.0
 11
-0.7000000000000057
 21
-8.055216879103255E-17
 31
0.0
210
0.0
220
0.0
230
1.0
 40
0.0087268678
 41
0.7920468062636097
 42
1.570796326794897
  0
LINE
  5
1E6
330
CE
100
AcDbEntity
  8
490147031_RAHMEN
  6
Continuous
 62
     7
100
AcDbLine
 10
213.8464779968
 20
1791.0754459535
 30
0.0
 11
168.1372932342
 21
1791.0754459535
 31
0.0
  0
LINE
  5
1E7
330
CE
100
AcDbEntity
  8
490147031_RAHMEN
  6
Continuous
 62
     7
100
AcDbLine
 10
153.1716044594
 20
1791.0754459535
 30
0.0
 11
115.4624196968
 21
1791.0754459535
 31
0.0
  0
ELLIPSE
  5
1E8
330
CE
100
AcDbEntity
  8
490147031_RAHMEN
  6
Continuous
 62
     7
100
AcDbEllipse
 10
153.1716044594
 20
1791.081554761
 30
0.0
 11
0.6999999999999905
 21
1.395833997660549E-14
 31
0.0
210
0.0
220
0.0
230
1.0
 40
0.0087268678
 41
4.712388980384649
 42
5.491138500916283
  0
ARC
  5
1E9
330
CE
100
AcDbEntity
  8
490147031_RAHMEN
  6
Continuous
 62
     7
100
AcDbCircle
 10
115.4624196968
 20
1792.3808520328
 30
0.0
 40
1.305406079330391
100
AcDbArc
 50
180.0
 51
270.0
  0
LINE
  5
1EA
330
CE
100
AcDbEntity
  8
490147031_RAHMEN
  6
Continuous
 62
     7
100
AcDbLine
 10
114.1781547502
 20
1858.250103847
 30
0.0
 11
114.1781547502
 21
1844.9043093187
 31
0.0
  0
LINE
  5
1EB
330
CE
100
AcDbEntity
  8
490147031_RAHMEN
  6
Continuous
 62
     7
100
AcDbLine
 10
114.1781547502
 20
1794.9043093187
 30
0.0
 11
114.1781547502
 21
1808.250103847
 31
0.0
  0
LINE
  5
1EC
330
CE
100
AcDbEntity
  8
490147031_RAHMEN
  6
Continuous
 62
     7
100
AcDbLine
 10
114.1570136175
 20
1859.0516888662
 30
0.0
 11
114.1570136175
 21
1860.7735611328
 31
0.0
  0
ELLIPSE
  5
1ED
330
CE
100
AcDbEntity
  8
490147031_RAHMEN
  6
Continuous
 62
     7
100
AcDbEllipse
 10
114.163122425
 20
1859.0516888662
 30
0.0
 11
8.055216879103181E-17
 21
-0.6999999999999993
 31
0.0
210
0.0
220
0.0
230
1.0
 40
0.0087268678
 41
4.71238898038469
 42
6.23082542962018
  0
ELLIPSE
  5
1EE
330
CE
100
AcDbEntity
  8
490147031_RAHMEN
  6
Continuous
 62
     7
100
AcDbEllipse
 10
114.163122425
 20
1844.1027242995
 30
0.0
 11
7.019446072698260E-15
 21
-0.6999999999999993
 31
0.0
210
0.0
220
0.0
230
1.0
 40
0.0087268678
 41
3.193952531142994
 42
4.71238898038469
  0
LINE
  5
1EF
330
CE
100
AcDbEntity
  8
490147031_RAHMEN
  6
Continuous
 62
     7
100
AcDbLine
 10
114.1570136175
 20
1809.0516888662
 30
0.0
 11
114.1570136175
 21
1844.1027242995
 31
0.0
  0
ELLIPSE
  5
1F0
330
CE
100
AcDbEntity
  8
490147031_RAHMEN
  6
Continuous
 62
     7
100
AcDbEllipse
 10
114.163122425
 20
1809.0516888662
 30
0.0
 11
8.055216879103181E-17
 21
-0.6999999999999993
 31
0.0
210
0.0
220
0.0
230
1.0
 40
0.0087268678
 41
4.71238898038469
 42
6.23082542962018
  0
ELLIPSE
  5
1F1
330
CE
100
AcDbEntity
  8
490147031_RAHMEN
  6
Continuous
 62
     7
100
AcDbEllipse
 10
114.163122425
 20
1794.1027242995
 30
0.0
 11
0.0
 21
0.6990407474386544
 31
0.0
210
0.0
220
0.0
230
1.0
 40
1.0
 41
0.0004573557291814
 42
1.570796326794897
  0
LINE
  5
1F2
330
CE
100
AcDbEntity
  8
490147031_RAHMEN
  6
Continuous
 62
     7
100
AcDbLine
 10
114.1570136175
 20
1792.3808520328
 30
0.0
 11
114.1570136175
 21
1794.1027242995
 31
0.0
  0
ARC
  5
1F3
330
CE
100
AcDbEntity
  8
490147031_RAHMEN
  6
Continuous
 62
     7
100
AcDbCircle
 10
213.8464779968
 20
1792.3808520328
 30
0.0
 40
1.305406079330391
100
AcDbArc
 50
270.0
 51
0.0
  0
LINE
  5
1F4
330
CE
100
AcDbEntity
  8
490147031_RAHMEN
  6
Continuous
 62
     7
100
AcDbLine
 10
215.1307429435
 20
1794.9043093187
 30
0.0
 11
215.1307429435
 21
1808.250103847
 31
0.0
  0
LINE
  5
1F5
330
CE
100
AcDbEntity
  8
490147031_RAHMEN
  6
Continuous
 62
     7
100
AcDbLine
 10
215.1307429435
 20
1858.250103847
 30
0.0
 11
215.1307429435
 21
1844.9043093187
 31
0.0
  0
LINE
  5
1F6
330
CE
100
AcDbEntity
  8
490147031_RAHMEN
  6
Continuous
 62
     7
100
AcDbLine
 10
215.1518840762
 20
1860.7735611328
 30
0.0
 11
215.1518840762
 21
1859.0516888662
 31
0.0
  0
ELLIPSE
  5
1F7
330
CE
100
AcDbEntity
  8
490147031_RAHMEN
  6
Continuous
 62
     7
100
AcDbEllipse
 10
215.1457752687
 20
1859.0516888662
 30
0.0
 11
8.055216879103181E-17
 21
-0.6999999999999993
 31
0.0
210
0.0
220
0.0
230
1.0
 40
0.0087268678
 41
0.0523598775594064
 42
1.570796326794897
  0
ELLIPSE
  5
1F8
330
CE
100
AcDbEntity
  8
490147031_RAHMEN
  6
Continuous
 62
     7
100
AcDbEllipse
 10
215.1457752687
 20
1844.1027242995
 30
0.0
 11
0.0
 21
0.006108807453529153
 31
0.0
210
0.0
220
0.0
230
1.0
 40
1.0
 41
-1.570796326794897
 42
-0.000457355729059
  0
LINE
  5
1F9
330
CE
100
AcDbEntity
  8
490147031_RAHMEN
  6
Continuous
 62
     7
100
AcDbLine
 10
215.1518840762
 20
1844.1027242995
 30
0.0
 11
215.1518840762
 21
1809.0516888662
 31
0.0
  0
ELLIPSE
  5
1FA
330
CE
100
AcDbEntity
  8
490147031_RAHMEN
  6
Continuous
 62
     7
100
AcDbEllipse
 10
215.1457752687
 20
1809.0516888662
 30
0.0
 11
0.0
 21
0.6990407474388818
 31
0.0
210
0.0
220
0.0
230
1.0
 40
1.0
 41
3.142050009318893
 42
4.71238898038469
  0
ELLIPSE
  5
1FB
330
CE
100
AcDbEntity
  8
490147031_RAHMEN
  6
Continuous
 62
     7
100
AcDbEllipse
 10
215.1457752687
 20
1794.1027242995
 30
0.0
 11
0.0
 21
0.006108807453529153
 31
0.0
210
0.0
220
0.0
230
1.0
 40
1.0
 41
-1.570796326794897
 42
-0.0004573557291814
  0
LINE
  5
1FC
330
CE
100
AcDbEntity
  8
490147031_RAHMEN
  6
Continuous
 62
     7
100
AcDbLine
 10
215.1518840762
 20
1794.1027242995
 30
0.0
 11
215.1518840762
 21
1792.3808520328
 31
0.0
  0
ARC
  5
1FD
330
CE
100
AcDbEntity
  8
490147031_RAHMEN
  6
Continuous
 62
     7
100
AcDbCircle
 10
115.4624196968
 20
1860.7735611328
 30
0.0
 40
1.305406079330391
100
AcDbArc
 50
90.0
 51
180.0
  0
LINE
  5
1FE
330
CE
100
AcDbEntity
  8
490147031_RAHMEN
  6
Continuous
 62
     7
100
AcDbLine
 10
153.6632773802
 20
1862.0772066075
 30
0.0
 11
167.6456203135
 21
1862.0772066075
 31
0.0
  0
LINE
  5
1FF
330
CE
100
AcDbEntity
  8
490147031_RAHMEN
  6
Continuous
 62
     7
100
AcDbLine
 10
168.1372932342
 20
1862.0789672122
 30
0.0
 11
213.8464779968
 21
1862.0789672122
 31
0.0
  0
ELLIPSE
  5
200
330
CE
100
AcDbEntity
  8
490147031_RAHMEN
  6
Continuous
 62
     7
100
AcDbEllipse
 10
168.1372932342
 20
1862.0728584047
 30
0.0
 11
-0.6999999999999932
 21
-8.055216879103111E-17
 31
0.0
210
0.0
220
0.0
230
1.0
 40
0.0087268678
 41
4.71238898038469
 42
5.491138500918561
  0
ELLIPSE
  5
201
330
CE
100
AcDbEntity
  8
490147031_RAHMEN
  6
Continuous
 62
     7
100
AcDbEllipse
 10
153.1716044594
 20
1862.0728584047
 30
0.0
 11
0.6999999999999957
 21
8.055216879103139E-17
 31
0.0
210
0.0
220
0.0
230
1.0
 40
0.0087268678
 41
0.7920468062621695
 42
1.570796326794897
  0
LINE
  5
202
330
CE
100
AcDbEntity
  8
490147031_RAHMEN
  6
Continuous
 62
     7
100
AcDbLine
 10
115.4624196968
 20
1862.0789672122
 30
0.0
 11
153.1716044594
 21
1862.0789672122
 31
0.0
  0
LINE
  5
203
330
CE
100
AcDbEntity
  8
490147031_RAHMEN
  6
Continuous
 62
     7
100
AcDbLine
 10
167.6522715089
 20
1862.077285122
 30
0.0
 11
167.6456203135
 21
1862.0772066075
 31
0.0
  0
LINE
  5
204
330
CE
100
AcDbEntity
  8
490147031_RAHMEN
  6
Continuous
 62
     7
100
AcDbLine
 10
153.6632773802
 20
1862.0772066075
 30
0.0
 11
153.6566261848
 21
1862.077285122
 31
0.0
  0
ARC
  5
205
330
CE
100
AcDbEntity
  8
490147031_RAHMEN
  6
Continuous
 62
     7
100
AcDbCircle
 10
213.8464779968
 20
1860.7735611328
 30
0.0
 40
1.305406079330385
100
AcDbArc
 50
0.0
 51
90.0
  0
LINE
  5
206
330
CE
100
AcDbEntity
  8
490147031_RAHMEN
  6
Continuous
 62
     7
100
AcDbLine
 10
114.1781570897
 20
1794.8939731657
 30
0.0
 11
114.1781547502
 21
1794.9043093187
 31
0.0
  0
LINE
  5
207
330
CE
100
AcDbEntity
  8
490147031_RAHMEN
  6
Continuous
 62
     7
100
AcDbLine
 10
215.1307429435
 20
1794.9043093187
 30
0.0
 11
215.1307406039
 21
1794.8939731657
 31
0.0
  0
LINE
  5
208
330
CE
100
AcDbEntity
  8
490147031_RAHMEN
  6
Continuous
 62
     7
100
AcDbLine
 10
114.1781547502
 20
1808.250103847
 30
0.0
 11
114.1781570897
 21
1808.26044
 31
0.0
  0
LINE
  5
209
330
CE
100
AcDbEntity
  8
490147031_RAHMEN
  6
Continuous
 62
     7
100
AcDbLine
 10
215.1307406039
 20
1808.26044
 30
0.0
 11
215.1307429435
 21
1808.250103847
 31
0.0
  0
LINE
  5
20A
330
CE
100
AcDbEntity
  8
490147031_RAHMEN
  6
Continuous
 62
     7
100
AcDbLine
 10
114.1781570897
 20
1844.8939731657
 30
0.0
 11
114.1781547502
 21
1844.9043093187
 31
0.0
  0
LINE
  5
20B
330
CE
100
AcDbEntity
  8
490147031_RAHMEN
  6
Continuous
 62
     7
100
AcDbLine
 10
215.1307429435
 20
1844.9043093187
 30
0.0
 11
215.1307406039
 21
1844.8939731657
 31
0.0
  0
LINE
  5
20C
330
CE
100
AcDbEntity
  8
490147031_RAHMEN
  6
Continuous
 62
     7
100
AcDbLine
 10
114.1781547502
 20
1858.250103847
 30
0.0
 11
114.1781570897
 21
1858.26044
 31
0.0
  0
LINE
  5
20D
330
CE
100
AcDbEntity
  8
490147031_RAHMEN
  6
Continuous
 62
     7
100
AcDbLine
 10
215.1307406039
 20
1858.26044
 30
0.0
 11
215.1307429435
 21
1858.250103847
 31
0.0
  0
ELLIPSE
  5
20E
330
CE
100
AcDbEntity
  8
490147031_RAHMEN
  6
Continuous
 62
     7
100
AcDbEllipse
 10
215.3460873636
 20
1858.3526481919
 30
0.0
 11
0.1972835210251322
 21
-0.0328513672763833
 31
0.0
210
0.0
220
0.0
230
1.0
 40
0.9985916141
 41
3.194835332843556
 42
3.306825729051593
  0
ELLIPSE
  5
20F
330
CE
100
AcDbEntity
  8
490147031_RAHMEN
  6
Continuous
 62
     7
100
AcDbEllipse
 10
113.9628103301
 20
1858.3526481919
 30
0.0
 11
-0.1972835210255139
 21
-0.03285136727406576
 31
0.0
210
0.0
220
0.0
230
1.0
 40
0.9985916141
 41
2.976359578140556
 42
3.088349974291671
  0
ELLIPSE
  5
210
330
CE
100
AcDbEntity
  8
490147031_RAHMEN
  6
Continuous
 62
     7
100
AcDbEllipse
 10
215.3460873636
 20
1844.8017649738
 30
0.0
 11
0.1972835210252294
 21
0.03285136727576579
 31
0.0
210
0.0
220
0.0
230
0.9999999999999997
 40
0.9985916141
 41
2.976359578131565
 42
3.088349968247875
  0
ELLIPSE
  5
211
330
CE
100
AcDbEntity
  8
490147031_RAHMEN
  6
Continuous
 62
     7
100
AcDbEllipse
 10
215.3460873636
 20
1808.3526481919
 30
0.0
 11
0.1972835210252294
 21
-0.03285136727576574
 31
0.0
210
0.0
220
0.0
230
1.0
 40
0.9985916141
 41
3.19483533891857
 42
3.306825729048019
  0
ELLIPSE
  5
212
330
CE
100
AcDbEntity
  8
490147031_RAHMEN
  6
Continuous
 62
     7
100
AcDbEllipse
 10
113.9628103301
 20
1844.8017649738
 30
0.0
 11
-0.1972835210255555
 21
0.03285136727377428
 31
0.0
210
0.0
220
0.0
230
1.0
 40
0.9985916141
 41
3.194835347239674
 42
3.306825729037783
  0
ELLIPSE
  5
213
330
CE
100
AcDbEntity
  8
490147031_RAHMEN
  6
Continuous
 62
     7
100
AcDbEllipse
 10
113.9628103301
 20
1808.3526481919
 30
0.0
 11
-0.1972835210255555
 21
-0.03285136727377433
 31
0.0
210
0.0
220
0.0
230
0.9999999999999997
 40
0.9985916141
 41
2.976359578141803
 42
3.088349959923281
  0
ELLIPSE
  5
214
330
CE
100
AcDbEntity
  8
490147031_RAHMEN
  6
Continuous
 62
     7
100
AcDbEllipse
 10
215.3460873636
 20
1794.8017649738
 30
0.0
 11
0.1972835210251322
 21
0.03285136727640416
 31
0.0
210
0.0
220
0.0
230
1.0
 40
0.9985916141
 41
2.976359578128071
 42
3.088349974336481
  0
ELLIPSE
  5
215
330
CE
100
AcDbEntity
  8
490147031_RAHMEN
  6
Continuous
 62
     7
100
AcDbEllipse
 10
113.9628103301
 20
1794.8017649738
 30
0.0
 11
-0.1972835210254167
 21
0.03285136727461389
 31
0.0
210
0.0
220
0.0
230
1.0
 40
0.9985916141
 41
3.194835332907235
 42
3.306825729042062
  0
LINE
  5
216
330
CE
100
AcDbEntity
  8
490147031_RAHMEN
  6
Continuous
 62
     7
100
AcDbLine
 10
215.1474065406
 20
1858.3771082903
 30
0.0
 11
215.1334239257
 21
1858.2931379801
 31
0.0
  0
LINE
  5
217
330
CE
100
AcDbEntity
  8
490147031_RAHMEN
  6
Continuous
 62
     7
100
AcDbLine
 10
215.1488962883
 20
1858.4499427913
 30
0.0
 11
215.0544488468
 21
1858.450375841
 31
0.0
  0
LINE
  5
218
330
CE
100
AcDbEntity
  8
490147031_RAHMEN
  6
Continuous
 62
     7
100
AcDbLine
 10
114.175473768
 20
1858.2931379801
 30
0.0
 11
114.1614911531
 21
1858.3771082903
 31
0.0
  0
LINE
  5
219
330
CE
100
AcDbEntity
  8
490147031_RAHMEN
  6
Continuous
 62
     7
100
AcDbLine
 10
114.2544488468
 20
1858.450375841
 30
0.0
 11
114.1600014054
 21
1858.4499427913
 31
0.0
  0
LINE
  5
21A
330
CE
100
AcDbEntity
  8
490147031_RAHMEN
  6
Continuous
 62
     7
100
AcDbLine
 10
215.0544488468
 20
1844.7040373247
 30
0.0
 11
215.1488962883
 21
1844.7044703744
 31
0.0
  0
LINE
  5
21B
330
CE
100
AcDbEntity
  8
490147031_RAHMEN
  6
Continuous
 62
     7
100
AcDbLine
 10
215.1334239257
 20
1844.8612751856
 30
0.0
 11
215.1474065406
 21
1844.7773048754
 31
0.0
  0
LINE
  5
21C
330
CE
100
AcDbEntity
  8
490147031_RAHMEN
  6
Continuous
 62
     7
100
AcDbLine
 10
114.1600014054
 20
1844.7044703744
 30
0.0
 11
114.2544488468
 21
1844.7040373247
 31
0.0
  0
LINE
  5
21D
330
CE
100
AcDbEntity
  8
490147031_RAHMEN
  6
Continuous
 62
     7
100
AcDbLine
 10
215.1474065406
 20
1808.3771082903
 30
0.0
 11
215.1334239257
 21
1808.2931379801
 31
0.0
  0
LINE
  5
21E
330
CE
100
AcDbEntity
  8
490147031_RAHMEN
  6
Continuous
 62
     7
100
AcDbLine
 10
114.1614911531
 20
1844.7773048754
 30
0.0
 11
114.175473768
 21
1844.8612751856
 31
0.0
  0
LINE
  5
21F
330
CE
100
AcDbEntity
  8
490147031_RAHMEN
  6
Continuous
 62
     7
100
AcDbLine
 10
215.1488962883
 20
1808.4499427913
 30
0.0
 11
215.0544488468
 21
1808.450375841
 31
0.0
  0
LINE
  5
220
330
CE
100
AcDbEntity
  8
490147031_RAHMEN
  6
Continuous
 62
     7
100
AcDbLine
 10
114.175473768
 20
1808.2931379801
 30
0.0
 11
114.1614911531
 21
1808.3771082903
 31
0.0
  0
LINE
  5
221
330
CE
100
AcDbEntity
  8
490147031_RAHMEN
  6
Continuous
 62
     7
100
AcDbLine
 10
114.2544488468
 20
1808.450375841
 30
0.0
 11
114.1600014054
 21
1808.4499427913
 31
0.0
  0
LINE
  5
222
330
CE
100
AcDbEntity
  8
490147031_RAHMEN
  6
Continuous
 62
     7
100
AcDbLine
 10
215.0544488468
 20
1794.7040373247
 30
0.0
 11
215.1488962883
 21
1794.7044703744
 31
0.0
  0
LINE
  5
223
330
CE
100
AcDbEntity
  8
490147031_RAHMEN
  6
Continuous
 62
     7
100
AcDbLine
 10
215.1334239257
 20
1794.8612751856
 30
0.0
 11
215.1474065406
 21
1794.7773048754
 31
0.0
  0
LINE
  5
224
330
CE
100
AcDbEntity
  8
490147031_RAHMEN
  6
Continuous
 62
     7
100
AcDbLine
 10
114.1600014054
 20
1794.7044703744
 30
0.0
 11
114.2544488468
 21
1794.7040373247
 31
0.0
  0
LINE
  5
225
330
CE
100
AcDbEntity
  8
490147031_RAHMEN
  6
Continuous
 62
     7
100
AcDbLine
 10
114.1614911531
 20
1794.7773048754
 30
0.0
 11
114.175473768
 21
1794.8612751856
 31
0.0
  0
LINE
  5
226
330
CE
100
AcDbEntity
  8
490656XXX_VM_ABD
  6
Continuous
 62
     7
100
AcDbLine
 10
72.7044488468
 20
1902.5272065828
 30
0.0
 11
256.6044488468
 21
1902.5272065828
 31
0.0
  0
ARC
  5
227
330
CE
100
AcDbEntity
  8
490656XXX_VM_ABD
  6
Continuous
 62
     7
100
AcDbCircle
 10
256.6044488468
 20
1898.0272065828
 30
0.0
 40
4.49999999999999
100
AcDbArc
 50
0.0
 51
90.0
  0
LINE
  5
228
330
CE
100
AcDbEntity
  8
490656XXX_VM_ABD
  6
Continuous
 62
     7
100
AcDbLine
 10
261.1044488468
 20
1898.0272065828
 30
0.0
 11
261.1044488468
 21
1755.1272065828
 31
0.0
  0
LINE
  5
229
330
CE
100
AcDbEntity
  8
490656XXX_VM_ABD
  6
Continuous
 62
     7
100
AcDbLine
 10
214.1544488468
 20
1868.0772065828
 30
0.0
 11
115.1544488468
 21
1868.0772065828
 31
0.0
  0
ARC
  5
22A
330
CE
100
AcDbEntity
  8
490656XXX_VM_ABD
  6
Continuous
 62
     7
100
AcDbCircle
 10
214.1544488468
 20
1861.0772065828
 30
0.0
 40
6.999999999999999
100
AcDbArc
 50
0.0
 51
90.0
  0
LINE
  5
22B
330
CE
100
AcDbEntity
  8
490656XXX_VM_ABD
  6
Continuous
 62
     7
100
AcDbLine
 10
221.1544488468
 20
1792.0772065828
 30
0.0
 11
221.1544488468
 21
1861.0772065828
 31
0.0
  0
ARC
  5
22C
330
CE
100
AcDbEntity
  8
490656XXX_VM_ABD
  6
Continuous
 62
     7
100
AcDbCircle
 10
256.6044488468
 20
1755.1272065828
 30
0.0
 40
4.49999999999999
100
AcDbArc
 50
270.0
 51
0.0
  0
LINE
  5
22D
330
CE
100
AcDbEntity
  8
490656XXX_VM_ABD
  6
Continuous
 62
     7
100
AcDbLine
 10
72.7044488468
 20
1750.6272065828
 30
0.0
 11
256.6044488468
 21
1750.6272065828
 31
0.0
  0
ARC
  5
22E
330
CE
100
AcDbEntity
  8
490656XXX_VM_ABD
  6
Continuous
 62
     7
100
AcDbCircle
 10
214.1544488468
 20
1792.0772065828
 30
0.0
 40
6.999999999999999
100
AcDbArc
 50
270.0
 51
0.0
  0
LINE
  5
22F
330
CE
100
AcDbEntity
  8
490656XXX_VM_ABD
  6
Continuous
 62
     7
100
AcDbLine
 10
214.1544488468
 20
1785.0772065828
 30
0.0
 11
115.1544488468
 21
1785.0772065828
 31
0.0
  0
LINE
  5
230
330
CE
100
AcDbEntity
  8
490656XXX_VM_ABD
  6
Continuous
 62
     7
100
AcDbLine
 10
68.2044488468
 20
1898.0272065828
 30
0.0
 11
68.2044488468
 21
1755.1272065828
 31
0.0
  0
ARC
  5
231
330
CE
100
AcDbEntity
  8
490656XXX_VM_ABD
  6
Continuous
 62
     7
100
AcDbCircle
 10
72.7044488468
 20
1898.0272065828
 30
0.0
 40
4.49999999999999
100
AcDbArc
 50
90.0
 51
180.0
  0
LINE
  5
232
330
CE
100
AcDbEntity
  8
490656XXX_VM_ABD
  6
Continuous
 62
     7
100
AcDbLine
 10
108.1544488468
 20
1792.0772065828
 30
0.0
 11
108.1544488468
 21
1861.0772065828
 31
0.0
  0
ARC
  5
233
330
CE
100
AcDbEntity
  8
490656XXX_VM_ABD
  6
Continuous
 62
     7
100
AcDbCircle
 10
115.1544488468
 20
1861.0772065828
 30
0.0
 40
6.999999999999999
100
AcDbArc
 50
90.0
 51
180.0
  0
ARC
  5
234
330
CE
100
AcDbEntity
  8
490656XXX_VM_ABD
  6
Continuous
 62
     7
100
AcDbCircle
 10
72.7044488468
 20
1755.1272065828
 30
0.0
 40
4.49999999999999
100
AcDbArc
 50
180.0
 51
270.0
  0
ARC
  5
235
330
CE
100
AcDbEntity
  8
490656XXX_VM_ABD
  6
Continuous
 62
     7
100
AcDbCircle
 10
115.1544488468
 20
1792.0772065828
 30
0.0
 40
6.999999999999999
100
AcDbArc
 50
180.0
 51
270.0
  0
ENDBLK
  5
237
330
CE
100
AcDbEntity
  8
0
100
AcDbBlockEnd
  0
BLOCK
  5
249
330
238
100
AcDbEntity
  8
0
100
AcDbBlockBegin
  2
SE2
 70
     0
 10
0.0
 20
0.0
 30
0.0
  3
SE2
  1

  0
LINE
  5
23A
330
238
100
AcDbEntity
  8
490147031_RAHMEN
  6
Continuous
 62
     7
100
AcDbLine
 10
450.7822197325
 20
2122.7771352007
 30
0.0
 11
444.7831335616
 21
2122.7771352007
 31
0.0
  0
LINE
  5
23B
330
238
100
AcDbEntity
  8
490147031_RAHMEN
  6
Continuous
 62
     7
100
AcDbLine
 10
444.7831335616
 20
2122.7771352007
 30
0.0
 11
444.8879248777
 21
2128.780625682
 31
0.0
  0
LINE
  5
23C
330
238
100
AcDbEntity
  8
490147031_RAHMEN
  6
Continuous
 62
     7
100
AcDbLine
 10
594.7840473906
 20
2122.7771352007
 30
0.0
 11
450.7822197325
 21
2122.7771352007
 31
0.0
  0
LINE
  5
23D
330
238
100
AcDbEntity
  8
490147031_RAHMEN
  6
Continuous
 62
     7
100
AcDbLine
 10
600.7831335616
 20
2122.7771352007
 30
0.0
 11
594.7840473906
 21
2122.7771352007
 31
0.0
  0
LINE
  5
23E
330
238
100
AcDbEntity
  8
490147031_RAHMEN
  6
Continuous
 62
     7
100
AcDbLine
 10
445.0878944167
 20
2128.9771352007
 30
0.0
 11
450.8870110486
 21
2128.9771352007
 31
0.0
  0
LINE
  5
23F
330
238
100
AcDbEntity
  8
490147031_RAHMEN
  6
Continuous
 62
     7
100
AcDbLine
 10
594.6792560745
 20
2128.9771352007
 30
0.0
 11
600.4783727064
 21
2128.9771352007
 31
0.0
  0
LINE
  5
240
330
238
100
AcDbEntity
  8
490147031_RAHMEN
  6
Continuous
 62
     7
100
AcDbLine
 10
450.8870110486
 20
2128.9771352007
 30
0.0
 11
594.6792560745
 21
2128.9771352007
 31
0.0
  0
LINE
  5
241
330
238
100
AcDbEntity
  8
490147031_RAHMEN
  6
Continuous
 62
     7
100
AcDbLine
 10
600.6783422454
 20
2128.780625682
 30
0.0
 11
600.7831335616
 21
2122.7771352007
 31
0.0
  0
ARC
  5
242
330
238
100
AcDbEntity
  8
490147031_RAHMEN
  6
Continuous
 62
     7
100
AcDbCircle
 10
600.4783727064
 20
2128.7771352007
 30
0.0
 40
0.199999999999994
100
AcDbArc
 50
1.0
 51
90.0
  0
ARC
  5
243
330
238
100
AcDbEntity
  8
490147031_RAHMEN
  6
Continuous
 62
     7
100
AcDbCircle
 10
445.0878944167
 20
2128.7771352007
 30
0.0
 40
0.1999999999999997
100
AcDbArc
 50
90.0
 51
179.0
  0
LINE
  5
244
330
238
100
AcDbEntity
  8
490656XXX_VM_ABD
  6
Continuous
 62
     7
100
AcDbLine
 10
594.2331335616
 20
2131.3771352007
 30
0.0
 11
596.2331335616
 21
2131.3771352007
 31
0.0
  0
LINE
  5
245
330
238
100
AcDbEntity
  8
490656XXX_VM_ABD
  6
Continuous
 62
     7
100
AcDbLine
 10
594.2331335616
 20
2131.3771352007
 30
0.0
 11
451.3331335616
 21
2131.3771352007
 31
0.0
  0
LINE
  5
246
330
238
100
AcDbEntity
  8
490656XXX_VM_ABD
  6
Continuous
 62
     7
100
AcDbLine
 10
451.3331335616
 20
2131.3771352007
 30
0.0
 11
449.3331335616
 21
2131.3771352007
 31
0.0
  0
ARC
  5
247
330
238
100
AcDbEntity
  8
490656XXX_VM_ABD
  6
Continuous
 62
     7
100
AcDbCircle
 10
449.3331335616
 20
2128.8771352007
 30
0.0
 40
2.499999999999999
100
AcDbArc
 50
90.0
 51
177.707557224
  0
ARC
  5
248
330
238
100
AcDbEntity
  8
490656XXX_VM_ABD
  6
Continuous
 62
     7
100
AcDbCircle
 10
596.2331335616
 20
2128.8771352007
 30
0.0
 40
2.5
100
AcDbArc
 50
2.292442776
 51
90.0
  0
ENDBLK
  5
24A
330
238
100
AcDbEntity
  8
0
100
AcDbBlockEnd
  0
BLOCK
  5
3AD
330
24B
100
AcDbEntity
  8
0
100
AcDbBlockBegin
  2
SE3
 70
     0
 10
0.0
 20
0.0
 30
0.0
  3
SE3
  1

  0
LINE
  5
24D
330
24B
100
AcDbEntity
  8
$DDT_AUDIT_GENERATED_(D0)
  6
Continuous
 62
     7
100
AcDbLine
 10
218.1547569094
 20
1291.5506098768
 30
0.0
 11
218.1547569094
 21
1323.3612856245
 31
0.0
  0
ELLIPSE
  5
24E
330
24B
100
AcDbEntity
  8
$DDT_AUDIT_GENERATED_(D0)
  6
Continuous
 62
     7
100
AcDbEllipse
 10
217.1546045814
 20
1291.5509145096
 30
0.0
 11
-0.7073221891695811
 21
0.7073221891695809
 31
0.0
210
0.0
220
0.0
230
0.9999999999999999
 40
0.9996954599
 41
2.356346783439832
 42
3.926838523739697
  0
LINE
  5
24F
330
24B
100
AcDbEntity
  8
$DDT_AUDIT_GENERATED_(D0)
  6
Continuous
 62
     7
100
AcDbLine
 10
149.5546046046
 20
1290.5507621816
 30
0.0
 11
217.1549092143
 21
1290.5507621816
 31
0.0
  0
ELLIPSE
  5
250
330
24B
100
AcDbEntity
  8
$DDT_AUDIT_GENERATED_(D0)
  6
Continuous
 62
     7
100
AcDbEllipse
 10
149.5549092375
 20
1291.5509145096
 30
0.0
 11
0.7073221891695809
 21
0.7073221891695811
 31
0.0
210
0.0
220
0.0
230
0.9999999999999999
 40
0.9996954599
 41
2.356346783439889
 42
3.926838523739754
  0
LINE
  5
251
330
24B
100
AcDbEntity
  8
$DDT_AUDIT_GENERATED_(D0)
  6
Continuous
 62
     7
100
AcDbLine
 10
148.5547569094
 20
1359.1509144864
 30
0.0
 11
148.5547569094
 21
1291.5506098768
 31
0.0
  0
ELLIPSE
  5
252
330
24B
100
AcDbEntity
  8
$DDT_AUDIT_GENERATED_(D0)
  6
Continuous
 62
     7
100
AcDbEllipse
 10
149.5549092375
 20
1359.1506098536
 30
0.0
 11
0.7073221891695811
 21
-0.7073221891695809
 31
0.0
210
0.0
220
0.0
230
0.9999999999999999
 40
0.9996954599
 41
2.35634678343986
 42
3.92683852373947
  0
LINE
  5
253
330
24B
100
AcDbEntity
  8
$DDT_AUDIT_GENERATED_(D0)
  6
Continuous
 62
     7
100
AcDbLine
 10
217.1549092143
 20
1360.1507621816
 30
0.0
 11
149.5546046046
 21
1360.1507621816
 31
0.0
  0
ELLIPSE
  5
254
330
24B
100
AcDbEntity
  8
$DDT_AUDIT_GENERATED_(D0)
  6
Continuous
 62
     7
100
AcDbEllipse
 10
217.1546045814
 20
1359.1506098536
 30
0.0
 11
-0.7073221891695809
 21
-0.7073221891695811
 31
0.0
210
0.0
220
0.0
230
0.9999999999999999
 40
0.9996954599
 41
2.356346783440116
 42
3.926838523739725
  0
LINE
  5
255
330
24B
100
AcDbEntity
  8
$DDT_AUDIT_GENERATED_(D0)
  6
Continuous
 62
     7
100
AcDbLine
 10
218.1579436606
 20
1323.5605245641
 30
0.0
 11
218.2078827588
 21
1323.8108304196
 31
0.0
  0
ELLIPSE
  5
256
330
24B
100
AcDbEntity
  8
$DDT_AUDIT_GENERATED_(D0)
  6
Continuous
 62
     7
100
AcDbEllipse
 10
218.1582479224
 20
1323.3612856245
 30
0.0
 11
0.0
 21
0.1992391719402994
 31
0.0
210
0.0
220
0.0
230
1.0
 40
1.0
 41
0.001527119115373
 42
1.570796326794897
  0
LINE
  5
257
330
24B
100
AcDbEntity
  8
$DDT_AUDIT_GENERATED_(D0)
  6
Continuous
 62
     7
100
AcDbLine
 10
218.1547569094
 20
1327.3402387387
 30
0.0
 11
218.1547569094
 21
1359.1509144864
 31
0.0
  0
ELLIPSE
  5
258
330
24B
100
AcDbEntity
  8
$DDT_AUDIT_GENERATED_(D0)
  6
Continuous
 62
     7
100
AcDbEllipse
 10
218.1582479224
 20
1327.3402387387
 30
0.0
 11
2.301490536886630E-17
 21
-0.2000000000000003
 31
0.0
210
0.0
220
0.0
230
1.0
 40
0.0174550649
 41
4.71238898038469
 42
6.195918844572796
  0
LINE
  5
259
330
24B
100
AcDbEntity
  8
$DDT_AUDIT_GENERATED_(D0)
  6
Continuous
 62
     7
100
AcDbLine
 10
218.2158496367
 20
1324.3089277686
 30
0.0
 11
218.2158496367
 21
1326.3925965946
 31
0.0
  0
ELLIPSE
  5
25A
330
24B
100
AcDbEntity
  8
$DDT_AUDIT_GENERATED_(D0)
  6
Continuous
 62
     7
100
AcDbEllipse
 10
218.2071221042
 20
1324.3089277686
 30
0.0
 11
5.753726342216571E-17
 21
-0.5000000000000004
 31
0.0
210
0.0
220
0.0
230
1.0
 40
0.0174550649
 41
0.0872664625963458
 42
1.570796326794897
  0
LINE
  5
25B
330
24B
100
AcDbEntity
  8
$DDT_AUDIT_GENERATED_(D0)
  6
Continuous
 62
     7
100
AcDbLine
 10
218.2078827588
 20
1326.8906939436
 30
0.0
 11
218.1579436606
 21
1327.1409997991
 31
0.0
  0
ELLIPSE
  5
25C
330
24B
100
AcDbEntity
  8
$DDT_AUDIT_GENERATED_(D0)
  6
Continuous
 62
     7
100
AcDbEllipse
 10
218.2071221042
 20
1326.3925965946
 30
0.0
 11
-6.881356640485063E-15
 21
-0.4999999999999996
 31
0.0
210
0.0
220
0.0
230
1.0
 40
0.0174550649
 41
1.570796326794897
 42
3.05432619098825
  0
LINE
  5
25D
330
24B
100
AcDbEntity
  8
$DDT_AUDIT_GENERATED_(E1)
  6
Continuous
 62
     7
100
AcDbLine
 10
118.6047569094
 20
1359.1509144864
 30
0.0
 11
118.6047569094
 21
1327.3402387387
 31
0.0
  0
ELLIPSE
  5
25E
330
24B
100
AcDbEntity
  8
$DDT_AUDIT_GENERATED_(E1)
  6
Continuous
 62
     7
100
AcDbEllipse
 10
119.6049092375
 20
1359.1506098536
 30
0.0
 11
0.7073221891695811
 21
-0.7073221891695809
 31
0.0
210
0.0
220
0.0
230
0.9999999999999999
 40
0.9996954599
 41
2.356346783439832
 42
3.92683852373947
  0
LINE
  5
25F
330
24B
100
AcDbEntity
  8
$DDT_AUDIT_GENERATED_(E1)
  6
Continuous
 62
     7
100
AcDbLine
 10
119.6046046046
 20
1290.5507621816
 30
0.0
 11
146.9049092143
 21
1290.5507621816
 31
0.0
  0
ELLIPSE
  5
260
330
24B
100
AcDbEntity
  8
$DDT_AUDIT_GENERATED_(E1)
  6
Continuous
 62
     7
100
AcDbEllipse
 10
119.6049092375
 20
1291.5509145096
 30
0.0
 11
0.7073221891695809
 21
0.7073221891695811
 31
0.0
210
0.0
220
0.0
230
0.9999999999999999
 40
0.9996954599
 41
2.356346783439889
 42
3.926838523739725
  0
LINE
  5
261
330
24B
100
AcDbEntity
  8
$DDT_AUDIT_GENERATED_(E1)
  6
Continuous
 62
     7
100
AcDbLine
 10
147.9047569094
 20
1291.5506098768
 30
0.0
 11
147.9047569094
 21
1359.1509144864
 31
0.0
  0
ELLIPSE
  5
262
330
24B
100
AcDbEntity
  8
$DDT_AUDIT_GENERATED_(E1)
  6
Continuous
 62
     7
100
AcDbEllipse
 10
146.9046045814
 20
1291.5509145096
 30
0.0
 11
-0.7073221891695811
 21
0.7073221891695809
 31
0.0
210
0.0
220
0.0
230
0.9999999999999999
 40
0.9996954599
 41
2.35634678343986
 42
3.926838523739669
  0
LINE
  5
263
330
24B
100
AcDbEntity
  8
$DDT_AUDIT_GENERATED_(E1)
  6
Continuous
 62
     7
100
AcDbLine
 10
146.9049092143
 20
1360.1507621816
 30
0.0
 11
119.6046046046
 21
1360.1507621816
 31
0.0
  0
ELLIPSE
  5
264
330
24B
100
AcDbEntity
  8
$DDT_AUDIT_GENERATED_(E1)
  6
Continuous
 62
     7
100
AcDbEllipse
 10
146.9046045814
 20
1359.1506098536
 30
0.0
 11
-0.7073221891695809
 21
-0.7073221891695811
 31
0.0
210
0.0
220
0.0
230
0.9999999999999999
 40
0.9996954599
 41
2.356346783440116
 42
3.926838523739725
  0
LINE
  5
265
330
24B
100
AcDbEntity
  8
$DDT_AUDIT_GENERATED_(E1)
  6
Continuous
 62
     7
100
AcDbLine
 10
118.55163106
 20
1326.8906939436
 30
0.0
 11
118.6015701583
 21
1327.1409997991
 31
0.0
  0
ELLIPSE
  5
266
330
24B
100
AcDbEntity
  8
$DDT_AUDIT_GENERATED_(E1)
  6
Continuous
 62
     7
100
AcDbEllipse
 10
118.5523917146
 20
1326.3925965946
 30
0.0
 11
0.0
 21
0.4980979298509758
 31
0.0
210
0.0
220
0.0
230
1.0
 40
1.0
 41
0.0015271191152297
 42
1.570796326794897
  0
LINE
  5
267
330
24B
100
AcDbEntity
  8
$DDT_AUDIT_GENERATED_(E1)
  6
Continuous
 62
     7
100
AcDbLine
 10
118.5436641822
 20
1324.3089277686
 30
0.0
 11
118.5436641822
 21
1326.3925965946
 31
0.0
  0
ELLIPSE
  5
268
330
24B
100
AcDbEntity
  8
$DDT_AUDIT_GENERATED_(E1)
  6
Continuous
 62
     7
100
AcDbEllipse
 10
118.5523917146
 20
1324.3089277686
 30
0.0
 11
0.0
 21
0.008727532464092747
 31
0.0
210
0.0
220
0.0
230
1.0
 40
1.0
 41
1.570796326794897
 42
3.140065534474649
  0
ELLIPSE
  5
269
330
24B
100
AcDbEntity
  8
$DDT_AUDIT_GENERATED_(E1)
  6
Continuous
 62
     7
100
AcDbEllipse
 10
118.6012658964
 20
1327.3402387387
 30
0.0
 11
2.301490536886628E-17
 21
-0.2000000000000001
 31
0.0
210
0.0
220
0.0
230
1.0
 40
0.0174550649
 41
0.0872664626067759
 42
1.570796326794897
  0
LINE
  5
26A
330
24B
100
AcDbEntity
  8
$DDT_AUDIT_GENERATED_(E1)
  6
Continuous
 62
     7
100
AcDbLine
 10
118.6047569094
 20
1323.3612856245
 30
0.0
 11
118.6047569094
 21
1291.5506098768
 31
0.0
  0
LINE
  5
26B
330
24B
100
AcDbEntity
  8
$DDT_AUDIT_GENERATED_(E1)
  6
Continuous
 62
     7
100
AcDbLine
 10
118.6015701583
 20
1323.5605245641
 30
0.0
 11
118.55163106
 21
1323.8108304196
 31
0.0
  0
ELLIPSE
  5
26C
330
24B
100
AcDbEntity
  8
$DDT_AUDIT_GENERATED_(E1)
  6
Continuous
 62
     7
100
AcDbEllipse
 10
118.6012658964
 20
1323.3612856245
 30
0.0
 11
0.0
 21
0.003491012985648467
 31
0.0
210
0.0
220
0.0
230
1.0
 40
1.0
 41
-1.570796326794897
 42
-0.0015271191153017
  0
LINE
  5
26D
330
24B
100
AcDbEntity
  8
$DDT_AUDIT_GENERATED_(F2)
  6
Continuous
 62
     7
100
AcDbLine
 10
148.5547569094
 20
1356.7507621816
 30
0.0
 11
147.9047569094
 21
1356.7507621816
 31
0.0
  0
LINE
  5
26E
330
24B
100
AcDbEntity
  8
$DDT_AUDIT_GENERATED_(F2)
  6
Continuous
 62
     7
100
AcDbLine
 10
147.9047569094
 20
1352.9507621816
 30
0.0
 11
148.5547569094
 21
1352.9507621816
 31
0.0
  0
LINE
  5
26F
330
24B
100
AcDbEntity
  8
$DDT_AUDIT_GENERATED_(F2)
  6
Continuous
 62
     7
100
AcDbLine
 10
148.5547569094
 20
1293.9507621816
 30
0.0
 11
147.9047569094
 21
1293.9507621816
 31
0.0
  0
LINE
  5
270
330
24B
100
AcDbEntity
  8
$DDT_AUDIT_GENERATED_(F2)
  6
Continuous
 62
     7
100
AcDbLine
 10
147.9047569094
 20
1297.7507621816
 30
0.0
 11
148.5547569094
 21
1297.7507621816
 31
0.0
  0
LINE
  5
271
330
24B
100
AcDbEntity
  8
$DDT_AUDIT_GENERATED_(F2)
  6
Continuous
 62
     7
100
AcDbLine
 10
157.0372142614
 20
1360.7661660433
 30
0.0
 11
154.3525355096
 21
1360.8473320952
 31
0.0
  0
ELLIPSE
  5
272
330
24B
100
AcDbEntity
  8
$DDT_AUDIT_GENERATED_(F2)
  6
Continuous
 62
     7
100
AcDbEllipse
 10
118.1333351672
 20
1314.4257926472
 30
0.0
 11
0.1414644378339161
 21
0.1414644378339162
 31
0.0
210
0.0
220
0.0
230
1.0
 40
0.9996954599
 41
2.3563467834404
 42
3.926838523739256
  0
LINE
  5
273
330
24B
100
AcDbEntity
  8
$DDT_AUDIT_GENERATED_(F2)
  6
Continuous
 62
     7
100
AcDbLine
 10
117.9333047016
 20
1336.2757926426
 30
0.0
 11
117.9333047016
 21
1314.4257317206
 31
0.0
  0
LINE
  5
274
330
24B
100
AcDbEntity
  8
$DDT_AUDIT_GENERATED_(F2)
  6
Continuous
 62
     7
100
AcDbLine
 10
117.9211270192
 20
1336.4002515058
 30
0.0
 11
117.8898165281
 21
1338.1940283371
 31
0.0
  0
LINE
  5
275
330
24B
100
AcDbEntity
  8
$DDT_AUDIT_GENERATED_(F2)
  6
Continuous
 62
     7
100
AcDbLine
 10
117.8898165281
 20
1338.1940283371
 30
0.0
 11
117.8581869958
 21
1339.0390033169
 31
0.0
  0
ELLIPSE
  5
276
330
24B
100
AcDbEntity
  8
$DDT_AUDIT_GENERATED_(F2)
  6
Continuous
 62
     7
100
AcDbEllipse
 10
118.1333351672
 20
1336.275731716
 30
0.0
 11
0.1414644378339162
 21
-0.1414644378339162
 31
0.0
210
0.0
220
0.0
230
1.0
 40
0.9996954599
 41
2.356346783439193
 42
3.926838523740322
  0
LINE
  5
277
330
24B
100
AcDbEntity
  8
$DDT_AUDIT_GENERATED_(F2)
  6
Continuous
 62
     7
100
AcDbLine
 10
218.598167455
 20
1334.9031057459
 30
0.0
 11
218.598167455
 21
1315.7984186173
 31
0.0
  0
LINE
  5
278
330
24B
100
AcDbEntity
  8
$DDT_AUDIT_GENERATED_(F2)
  6
Continuous
 62
     7
100
AcDbLine
 10
218.6353204213
 20
1337.8310845626
 30
0.0
 11
218.6103451374
 21
1336.4002515058
 31
0.0
  0
ELLIPSE
  5
279
330
24B
100
AcDbEntity
  8
$DDT_AUDIT_GENERATED_(F2)
  6
Continuous
 62
     7
100
AcDbEllipse
 10
218.3981369894
 20
1336.275731716
 30
0.0
 11
-0.1414644378339161
 21
-0.1414644378339162
 31
0.0
210
0.0
220
0.0
230
1.0
 40
0.9996954599
 41
2.356346783439264
 42
3.02770046547289
  0
LINE
  5
27A
330
24B
100
AcDbEntity
  8
$DDT_AUDIT_GENERATED_(F2)
  6
Continuous
 62
     7
100
AcDbLine
 10
218.6103451374
 20
1314.3012728574
 30
0.0
 11
218.6353204213
 21
1312.8704398006
 31
0.0
  0
ELLIPSE
  5
27B
330
24B
100
AcDbEntity
  8
$DDT_AUDIT_GENERATED_(F2)
  6
Continuous
 62
     7
100
AcDbEllipse
 10
218.3981369894
 20
1314.4257926472
 30
0.0
 11
-0.1414644378339162
 21
0.1414644378339161
 31
0.0
210
0.0
220
0.0
230
1.0
 40
0.9996954599
 41
3.255484841699624
 42
3.926838523739185
  0
LINE
  5
27C
330
24B
100
AcDbEntity
  8
$DDT_AUDIT_GENERATED_(F2)
  6
Continuous
 62
     7
100
AcDbLine
 10
185.5865217953
 20
1290.107351636
 30
0.0
 11
181.1229920235
 21
1290.107351636
 31
0.0
  0
LINE
  5
27D
330
24B
100
AcDbEntity
  8
$DDT_AUDIT_GENERATED_(F2)
  6
Continuous
 62
     7
100
AcDbLine
 10
185.5865217953
 20
1360.5941727271
 30
0.0
 11
181.1229920235
 21
1360.5941727271
 31
0.0
  0
LINE
  5
27E
330
24B
100
AcDbEntity
  8
$DDT_AUDIT_GENERATED_(F2)
  6
Continuous
 62
     7
100
AcDbLine
 10
117.8581869958
 20
1311.6625210462
 30
0.0
 11
117.8898165281
 21
1312.5074960261
 31
0.0
  0
LINE
  5
27F
330
24B
100
AcDbEntity
  8
$DDT_AUDIT_GENERATED_(F2)
  6
Continuous
 62
     7
100
AcDbLine
 10
218.7547569094
 20
1293.3004880885
 30
0.0
 11
218.7547569094
 21
1307.3010362746
 31
0.0
  0
ELLIPSE
  5
280
330
24B
100
AcDbEntity
  8
$DDT_AUDIT_GENERATED_(F2)
  6
Continuous
 62
     7
100
AcDbEllipse
 10
218.9550313786
 20
1293.3010366508
 30
0.0
 11
0.1418092486870134
 21
0.1418092486870134
 31
0.0
210
0.0
220
0.0
230
1.0
 40
0.9972646886
 41
2.357564018061808
 42
3.386709506089077
  0
ELLIPSE
  5
281
330
24B
100
AcDbEntity
  8
$DDT_AUDIT_GENERATED_(F2)
  6
Continuous
 62
     7
100
AcDbEllipse
 10
218.9550313786
 20
1307.3004877124
 30
0.0
 11
0.1418092486870133
 21
-0.1418092486870134
 31
0.0
210
0.0
220
0.0
230
1.0
 40
0.9972646886
 41
2.898935184938944
 42
3.925621289117921
  0
LINE
  5
282
330
24B
100
AcDbEntity
  8
$DDT_AUDIT_GENERATED_(F2)
  6
Continuous
 62
     7
100
AcDbLine
 10
218.7547569094
 20
1343.4004880885
 30
0.0
 11
218.7547569094
 21
1357.4010362746
 31
0.0
  0
ELLIPSE
  5
283
330
24B
100
AcDbEntity
  8
$DDT_AUDIT_GENERATED_(F2)
  6
Continuous
 62
     7
100
AcDbEllipse
 10
218.9550313786
 20
1343.4010366508
 30
0.0
 11
0.1418092486870133
 21
0.1418092486870134
 31
0.0
210
0.0
220
0.0
230
1.0
 40
0.9972646886
 41
2.357564018061807
 42
3.384250122799078
  0
ELLIPSE
  5
284
330
24B
100
AcDbEntity
  8
$DDT_AUDIT_GENERATED_(F2)
  6
Continuous
 62
     7
100
AcDbEllipse
 10
218.9550313786
 20
1357.4004877124
 30
0.0
 11
0.1418092486870134
 21
-0.1418092486870134
 31
0.0
210
0.0
220
0.0
230
1.0
 40
0.9972646886
 41
2.896475801163602
 42
3.925621289116643
  0
ELLIPSE
  5
285
330
24B
100
AcDbEntity
  8
$DDT_AUDIT_GENERATED_(F2)
  6
Continuous
 62
     7
100
AcDbEllipse
 10
117.7544824402
 20
1293.3010366508
 30
0.0
 11
-0.1418092486870134
 21
0.1418092486870134
 31
0.0
210
0.0
220
0.0
230
1.0
 40
0.9972646886
 41
2.896475801967827
 42
3.92562128911785
  0
LINE
  5
286
330
24B
100
AcDbEntity
  8
$DDT_AUDIT_GENERATED_(F2)
  6
Continuous
 62
     7
100
AcDbLine
 10
117.9547569094
 20
1307.3010362746
 30
0.0
 11
117.9547569094
 21
1293.3004880885
 31
0.0
  0
ELLIPSE
  5
287
330
24B
100
AcDbEntity
  8
$DDT_AUDIT_GENERATED_(F2)
  6
Continuous
 62
     7
100
AcDbEllipse
 10
117.7544824402
 20
1307.3004877124
 30
0.0
 11
-0.1418092486870133
 21
-0.1418092486870134
 31
0.0
210
0.0
220
0.0
230
1.0
 40
0.9972646886
 41
2.357564018062872
 42
3.384250122571784
  0
ELLIPSE
  5
288
330
24B
100
AcDbEntity
  8
$DDT_AUDIT_GENERATED_(F2)
  6
Continuous
 62
     7
100
AcDbEllipse
 10
117.7544824402
 20
1343.4010366508
 30
0.0
 11
-0.1418092486870133
 21
0.1418092486870134
 31
0.0
210
0.0
220
0.0
230
1.0
 40
0.9972646886
 41
2.898935186039549
 42
3.92562128911785
  0
LINE
  5
289
330
24B
100
AcDbEntity
  8
$DDT_AUDIT_GENERATED_(F2)
  6
Continuous
 62
     7
100
AcDbLine
 10
117.9547569094
 20
1357.4010362746
 30
0.0
 11
117.9547569094
 21
1343.4004880885
 31
0.0
  0
ELLIPSE
  5
28A
330
24B
100
AcDbEntity
  8
$DDT_AUDIT_GENERATED_(F2)
  6
Continuous
 62
     7
100
AcDbEllipse
 10
117.7544824402
 20
1357.4004877124
 30
0.0
 11
-0.1418092486870134
 21
-0.1418092486870134
 31
0.0
210
0.0
220
0.0
230
1.0
 40
0.9972646886
 41
2.357564018062872
 42
3.38670950581756
  0
LINE
  5
28B
330
24B
100
AcDbEntity
  8
$DDT_AUDIT_GENERATED_(111)
  6
Continuous
 62
     7
100
AcDbLine
 10
148.5547569094
 20
1291.5506098768
 30
0.0
 11
148.5547569094
 21
1290.796395453
 31
0.0
  0
LINE
  5
28C
330
24B
100
AcDbEntity
  8
$DDT_AUDIT_GENERATED_(111)
  6
Continuous
 62
     7
100
AcDbLine
 10
180.0884710813
 20
1360.6007621816
 30
0.0
 11
173.8547569094
 21
1360.6007621816
 31
0.0
  0
LINE
  5
28D
330
24B
100
AcDbEntity
  8
$DDT_AUDIT_GENERATED_(111)
  6
Continuous
 62
     7
100
AcDbLine
 10
180.0884710813
 20
1360.6007621816
 30
0.0
 11
181.0846657794
 21
1360.6007621816
 31
0.0
  0
LINE
  5
28E
330
24B
100
AcDbEntity
  8
$DDT_AUDIT_GENERATED_(111)
  6
Continuous
 62
     7
100
AcDbLine
 10
185.6248480394
 20
1360.6007621816
 30
0.0
 11
185.5909763009
 21
1360.6007621816
 31
0.0
  0
LINE
  5
28F
330
24B
100
AcDbEntity
  8
$DDT_AUDIT_GENERATED_(111)
  6
Continuous
 62
     7
100
AcDbLine
 10
185.6248480394
 20
1360.6007621816
 30
0.0
 11
186.6210427375
 21
1360.6007621816
 31
0.0
  0
LINE
  5
290
330
24B
100
AcDbEntity
  8
$DDT_AUDIT_GENERATED_(111)
  6
Continuous
 62
     7
100
AcDbLine
 10
218.5547569094
 20
1328.6170480097
 30
0.0
 11
218.5547569094
 21
1334.8507621816
 31
0.0
  0
LINE
  5
291
330
24B
100
AcDbEntity
  8
$DDT_AUDIT_GENERATED_(111)
  6
Continuous
 62
     7
100
AcDbLine
 10
218.5547569094
 20
1328.6170480097
 30
0.0
 11
218.5547569094
 21
1327.6208533116
 31
0.0
  0
LINE
  5
292
330
24B
100
AcDbEntity
  8
$DDT_AUDIT_GENERATED_(111)
  6
Continuous
 62
     7
100
AcDbLine
 10
218.5547569094
 20
1323.0806710516
 30
0.0
 11
218.5547569094
 21
1323.1145427901
 31
0.0
  0
LINE
  5
293
330
24B
100
AcDbEntity
  8
$DDT_AUDIT_GENERATED_(111)
  6
Continuous
 62
     7
100
AcDbLine
 10
218.5547569094
 20
1323.0806710516
 30
0.0
 11
218.5547569094
 21
1322.0844763535
 31
0.0
  0
LINE
  5
294
330
24B
100
AcDbEntity
  8
$DDT_AUDIT_GENERATED_(111)
  6
Continuous
 62
     7
100
AcDbLine
 10
186.6210427375
 20
1290.1007621816
 30
0.0
 11
192.8547569094
 21
1290.1007621816
 31
0.0
  0
LINE
  5
295
330
24B
100
AcDbEntity
  8
$DDT_AUDIT_GENERATED_(111)
  6
Continuous
 62
     7
100
AcDbLine
 10
186.6210427375
 20
1290.1007621816
 30
0.0
 11
185.6248480394
 21
1290.1007621816
 31
0.0
  0
LINE
  5
296
330
24B
100
AcDbEntity
  8
$DDT_AUDIT_GENERATED_(111)
  6
Continuous
 62
     7
100
AcDbLine
 10
181.0846657794
 20
1290.1007621816
 30
0.0
 11
181.1185375179
 21
1290.1007621816
 31
0.0
  0
LINE
  5
297
330
24B
100
AcDbEntity
  8
$DDT_AUDIT_GENERATED_(111)
  6
Continuous
 62
     7
100
AcDbLine
 10
181.0846657794
 20
1290.1007621816
 30
0.0
 11
180.0884710813
 21
1290.1007621816
 31
0.0
  0
LINE
  5
298
330
24B
100
AcDbEntity
  8
$DDT_AUDIT_GENERATED_(111)
  6
Continuous
 62
     7
100
AcDbLine
 10
148.5547569094
 20
1353.8525227862
 30
0.0
 11
148.4547569094
 21
1353.8525227862
 31
0.0
  0
LINE
  5
299
330
24B
100
AcDbEntity
  8
$DDT_AUDIT_GENERATED_(111)
  6
Continuous
 62
     7
100
AcDbLine
 10
148.2547569094
 20
1354.0525151708
 30
0.0
 11
148.2547569094
 21
1355.6490091924
 31
0.0
  0
LINE
  5
29A
330
24B
100
AcDbEntity
  8
$DDT_AUDIT_GENERATED_(111)
  6
Continuous
 62
     7
100
AcDbLine
 10
148.4547569094
 20
1355.849001577
 30
0.0
 11
148.5547569094
 21
1355.849001577
 31
0.0
  0
ARC
  5
29B
330
24B
100
AcDbEntity
  8
$DDT_AUDIT_GENERATED_(111)
  6
Continuous
 62
     7
100
AcDbCircle
 10
148.4547569094
 20
1355.6490091924
 30
0.0
 40
0.1999923846128342
100
AcDbArc
 50
90.0
 51
180.0
  0
ARC
  5
29C
330
24B
100
AcDbEntity
  8
$DDT_AUDIT_GENERATED_(111)
  6
Continuous
 62
     7
100
AcDbCircle
 10
148.4547569094
 20
1354.0525151708
 30
0.0
 40
0.1999999999999988
100
AcDbArc
 50
180.0
 51
270.0
  0
LINE
  5
29D
330
24B
100
AcDbEntity
  8
$DDT_AUDIT_GENERATED_(111)
  6
Continuous
 62
     7
100
AcDbLine
 10
148.2547569094
 20
1295.0525151708
 30
0.0
 11
148.2547569094
 21
1296.6490091924
 31
0.0
  0
LINE
  5
29E
330
24B
100
AcDbEntity
  8
$DDT_AUDIT_GENERATED_(111)
  6
Continuous
 62
     7
100
AcDbLine
 10
148.4547569094
 20
1296.849001577
 30
0.0
 11
148.5547569094
 21
1296.849001577
 31
0.0
  0
LINE
  5
29F
330
24B
100
AcDbEntity
  8
$DDT_AUDIT_GENERATED_(111)
  6
Continuous
 62
     7
100
AcDbLine
 10
148.5547569094
 20
1294.8525227862
 30
0.0
 11
148.4547569094
 21
1294.8525227862
 31
0.0
  0
ARC
  5
2A0
330
24B
100
AcDbEntity
  8
$DDT_AUDIT_GENERATED_(111)
  6
Continuous
 62
     7
100
AcDbCircle
 10
148.4547569094
 20
1295.0525151708
 30
0.0
 40
0.1999999999999988
100
AcDbArc
 50
180.0
 51
270.0
  0
ARC
  5
2A1
330
24B
100
AcDbEntity
  8
$DDT_AUDIT_GENERATED_(111)
  6
Continuous
 62
     7
100
AcDbCircle
 10
148.4547569094
 20
1296.6490091924
 30
0.0
 40
0.1999999999999988
100
AcDbArc
 50
90.0
 51
180.0
  0
LINE
  5
2A2
330
24B
100
AcDbEntity
  8
$DDT_AUDIT_GENERATED_(111)
  6
Continuous
 62
     7
100
AcDbLine
 10
148.2547569094
 20
1311.5525151708
 30
0.0
 11
148.2547569094
 21
1313.1490091924
 31
0.0
  0
LINE
  5
2A3
330
24B
100
AcDbEntity
  8
$DDT_AUDIT_GENERATED_(111)
  6
Continuous
 62
     7
100
AcDbLine
 10
148.4547569094
 20
1313.349001577
 30
0.0
 11
148.5547569094
 21
1313.349001577
 31
0.0
  0
LINE
  5
2A4
330
24B
100
AcDbEntity
  8
$DDT_AUDIT_GENERATED_(111)
  6
Continuous
 62
     7
100
AcDbLine
 10
148.5547569094
 20
1311.3525227862
 30
0.0
 11
148.4547569094
 21
1311.3525227862
 31
0.0
  0
ARC
  5
2A5
330
24B
100
AcDbEntity
  8
$DDT_AUDIT_GENERATED_(111)
  6
Continuous
 62
     7
100
AcDbCircle
 10
148.4547569094
 20
1311.5525151708
 30
0.0
 40
0.1999999999999988
100
AcDbArc
 50
180.0
 51
270.0
  0
ARC
  5
2A6
330
24B
100
AcDbEntity
  8
$DDT_AUDIT_GENERATED_(111)
  6
Continuous
 62
     7
100
AcDbCircle
 10
148.4547569094
 20
1313.1490091924
 30
0.0
 40
0.1999999999999988
100
AcDbArc
 50
90.0
 51
180.0
  0
LINE
  5
2A7
330
24B
100
AcDbEntity
  8
$DDT_AUDIT_GENERATED_(111)
  6
Continuous
 62
     7
100
AcDbLine
 10
148.2547569094
 20
1337.5525151708
 30
0.0
 11
148.2547569094
 21
1339.1490091924
 31
0.0
  0
LINE
  5
2A8
330
24B
100
AcDbEntity
  8
$DDT_AUDIT_GENERATED_(111)
  6
Continuous
 62
     7
100
AcDbLine
 10
148.4547569094
 20
1339.349001577
 30
0.0
 11
148.5547569094
 21
1339.349001577
 31
0.0
  0
LINE
  5
2A9
330
24B
100
AcDbEntity
  8
$DDT_AUDIT_GENERATED_(111)
  6
Continuous
 62
     7
100
AcDbLine
 10
148.5547569094
 20
1337.3525227862
 30
0.0
 11
148.4547569094
 21
1337.3525227862
 31
0.0
  0
ARC
  5
2AA
330
24B
100
AcDbEntity
  8
$DDT_AUDIT_GENERATED_(111)
  6
Continuous
 62
     7
100
AcDbCircle
 10
148.4547569094
 20
1337.5525151708
 30
0.0
 40
0.1999999999999988
100
AcDbArc
 50
180.0
 51
270.0
  0
ARC
  5
2AB
330
24B
100
AcDbEntity
  8
$DDT_AUDIT_GENERATED_(111)
  6
Continuous
 62
     7
100
AcDbCircle
 10
148.4547569094
 20
1339.1490091924
 30
0.0
 40
0.1999999999999988
100
AcDbArc
 50
90.0
 51
180.0
  0
LINE
  5
2AC
330
24B
100
AcDbEntity
  8
$DDT_AUDIT_GENERATED_(111)
  6
Continuous
 62
     7
100
AcDbLine
 10
218.5547569094
 20
1313.3507621816
 30
0.0
 11
218.5547569094
 21
1314.3507621816
 31
0.0
  0
LINE
  5
2AD
330
24B
100
AcDbEntity
  8
$DDT_AUDIT_GENERATED_(111)
  6
Continuous
 62
     7
100
AcDbLine
 10
171.3547569094
 20
1290.1007621816
 30
0.0
 11
172.3547569094
 21
1290.1007621816
 31
0.0
  0
ARC
  5
2AE
330
24B
100
AcDbEntity
  8
$DDT_AUDIT_GENERATED_(111)
  6
Continuous
 62
     7
100
AcDbCircle
 10
215.8761685866
 20
1292.7793037558
 30
0.0
 40
2.499999999999998
100
AcDbArc
 50
335.7044631048
 51
359.5028690524
  0
ARC
  5
2AF
330
24B
100
AcDbEntity
  8
$DDT_AUDIT_GENERATED_(111)
  6
Continuous
 62
     7
100
AcDbCircle
 10
215.8761685866
 20
1292.7793037558
 30
0.0
 40
2.499999999999998
100
AcDbArc
 50
270.4982116126
 51
296.9481967487
  0
LINE
  5
2B0
330
24B
100
AcDbEntity
  8
$DDT_AUDIT_GENERATED_(111)
  6
Continuous
 62
     7
100
AcDbLine
 10
215.8979068951
 20
1290.2793982684
 30
0.0
 11
213.6047569094
 21
1290.2594578338
 31
0.0
  0
ARC
  5
2B1
330
24B
100
AcDbEntity
  8
$DDT_AUDIT_GENERATED_(111)
  6
Continuous
 62
     7
100
AcDbCircle
 10
149.0547569094
 20
1290.796395453
 30
0.0
 40
0.5000000000000026
100
AcDbArc
 50
180.0
 51
269.4974183333
  0
LINE
  5
2B2
330
24B
100
AcDbEntity
  8
$DDT_AUDIT_GENERATED_(111)
  6
Continuous
 62
     7
100
AcDbLine
 10
171.3547569094
 20
1290.1007621816
 30
0.0
 11
154.6047569094
 21
1290.2476920062
 31
0.0
  0
LINE
  5
2B3
330
24B
100
AcDbEntity
  8
$DDT_AUDIT_GENERATED_(111)
  6
Continuous
 62
     7
100
AcDbLine
 10
218.5547569094
 20
1313.3507621816
 30
0.0
 11
218.4094206838
 21
1296.6007621816
 31
0.0
  0
LINE
  5
2B4
330
24B
100
AcDbEntity
  8
$DDT_AUDIT_GENERATED_(111)
  6
Continuous
 62
     7
100
AcDbLine
 10
195.3547569094
 20
1360.6007621816
 30
0.0
 11
194.3547569094
 21
1360.6007621816
 31
0.0
  0
LINE
  5
2B5
330
24B
100
AcDbEntity
  8
$DDT_AUDIT_GENERATED_(111)
  6
Continuous
 62
     7
100
AcDbLine
 10
148.5547569094
 20
1359.9051289102
 30
0.0
 11
148.5547569094
 21
1359.1509144864
 31
0.0
  0
LINE
  5
2B6
330
24B
100
AcDbEntity
  8
$DDT_AUDIT_GENERATED_(111)
  6
Continuous
 62
     7
100
AcDbLine
 10
149.0503711132
 20
1360.4051096746
 30
0.0
 11
153.1047569094
 21
1360.4406744623
 31
0.0
  0
ARC
  5
2B7
330
24B
100
AcDbEntity
  8
$DDT_AUDIT_GENERATED_(111)
  6
Continuous
 62
     7
100
AcDbCircle
 10
215.8761685866
 20
1357.9222206074
 30
0.0
 40
2.499999999999999
100
AcDbArc
 50
63.0518032513
 51
89.5017883874
  0
ARC
  5
2B8
330
24B
100
AcDbEntity
  8
$DDT_AUDIT_GENERATED_(111)
  6
Continuous
 62
     7
100
AcDbCircle
 10
215.8761685866
 20
1357.9222206074
 30
0.0
 40
2.499999999999999
100
AcDbArc
 50
0.4971309476
 51
24.2955368952
  0
LINE
  5
2B9
330
24B
100
AcDbEntity
  8
$DDT_AUDIT_GENERATED_(111)
  6
Continuous
 62
     7
100
AcDbLine
 10
218.3760744835
 20
1357.9439117648
 30
0.0
 11
218.3964054994
 21
1355.6007621816
 31
0.0
  0
LINE
  5
2BA
330
24B
100
AcDbEntity
  8
$DDT_AUDIT_GENERATED_(111)
  6
Continuous
 62
     7
100
AcDbLine
 10
195.3547569094
 20
1360.6007621816
 30
0.0
 11
212.1047569094
 21
1360.4551100077
 31
0.0
  0
ARC
  5
2BB
330
24B
100
AcDbEntity
  8
$DDT_AUDIT_GENERATED_(111)
  6
Continuous
 62
     7
100
AcDbCircle
 10
149.0547569094
 20
1359.9051289102
 30
0.0
 40
0.5000000000000004
100
AcDbArc
 50
90.5025816667
 51
180.0
  0
ELLIPSE
  5
2BC
330
24B
100
AcDbEntity
  8
$DDT_AUDIT_GENERATED_(111)
  6
Continuous
 62
     7
100
AcDbEllipse
 10
181.1185375179
 20
1290.3007621816
 30
0.0
 11
2.301490536886613E-17
 21
-0.1999999999999988
 31
0.0
210
0.0
220
0.0
230
1.0
 40
0.0874886635
 41
0.0
 42
1.570796326794897
  0
ELLIPSE
  5
2BD
330
24B
100
AcDbEntity
  8
$DDT_AUDIT_GENERATED_(111)
  6
Continuous
 62
     7
100
AcDbEllipse
 10
185.5909763009
 20
1360.4007621816
 30
0.0
 11
0.0
 21
0.2000000000000455
 31
0.0
210
0.0
220
0.0
230
1.0
 40
1.0
 41
0.0
 42
1.570796326794897
  0
LINE
  5
2BE
330
24B
100
AcDbEntity
  8
$DDT_AUDIT_GENERATED_(111)
  6
Continuous
 62
     7
100
AcDbLine
 10
218.3547569094
 20
1327.5694838404
 30
0.0
 11
218.2106622542
 21
1327.5694838404
 31
0.0
  0
LINE
  5
2BF
330
24B
100
AcDbEntity
  8
$DDT_AUDIT_GENERATED_(111)
  6
Continuous
 62
     7
100
AcDbLine
 10
218.5547569094
 20
1327.5869815731
 30
0.0
 11
218.5547569094
 21
1327.6208533116
 31
0.0
  0
ELLIPSE
  5
2C0
330
24B
100
AcDbEntity
  8
$DDT_AUDIT_GENERATED_(111)
  6
Continuous
 62
     7
100
AcDbEllipse
 10
218.3547569094
 20
1327.5869815731
 30
0.0
 11
-0.1999999999999919
 21
-8.903766433572688E-16
 31
0.0
210
0.0
220
0.0
230
1.0
 40
0.0874886635
 41
1.570796326794754
 42
3.141592653589793
  0
ELLIPSE
  5
2C1
330
24B
100
AcDbEntity
  8
$DDT_AUDIT_GENERATED_(111)
  6
Continuous
 62
     7
100
AcDbEllipse
 10
218.3547569094
 20
1323.1145427901
 30
0.0
 11
0.1999999999999988
 21
2.301490536886613E-17
 31
0.0
210
0.0
220
0.0
230
1.0
 40
0.0874886635
 41
0.0
 42
1.570796326794897
  0
LINE
  5
2C2
330
24B
100
AcDbEntity
  8
$DDT_AUDIT_GENERATED_(111)
  6
Continuous
 62
     7
100
AcDbLine
 10
185.5734785682
 20
1290.3007621816
 30
0.0
 11
185.5734785682
 21
1290.5448568368
 31
0.0
  0
LINE
  5
2C3
330
24B
100
AcDbEntity
  8
$DDT_AUDIT_GENERATED_(111)
  6
Continuous
 62
     7
100
AcDbLine
 10
185.5909763009
 20
1290.1007621816
 30
0.0
 11
185.6248480394
 21
1290.1007621816
 31
0.0
  0
ELLIPSE
  5
2C4
330
24B
100
AcDbEntity
  8
$DDT_AUDIT_GENERATED_(111)
  6
Continuous
 62
     7
100
AcDbEllipse
 10
185.5909763009
 20
1290.3007621816
 30
0.0
 11
0.0
 21
0.01749773270518062
 31
0.0
210
0.0
220
0.0
230
1.0
 40
1.0
 41
1.570796326794897
 42
3.141592653589793
  0
LINE
  5
2C5
330
24B
100
AcDbEntity
  8
$DDT_AUDIT_GENERATED_(111)
  6
Continuous
 62
     7
100
AcDbLine
 10
181.1185375179
 20
1360.6007621816
 30
0.0
 11
181.0846657794
 21
1360.6007621816
 31
0.0
  0
LINE
  5
2C6
330
24B
100
AcDbEntity
  8
$DDT_AUDIT_GENERATED_(111)
  6
Continuous
 62
     7
100
AcDbLine
 10
181.1360352506
 20
1360.4007621816
 30
0.0
 11
181.1360352506
 21
1360.1566675264
 31
0.0
  0
ELLIPSE
  5
2C7
330
24B
100
AcDbEntity
  8
$DDT_AUDIT_GENERATED_(111)
  6
Continuous
 62
     7
100
AcDbEllipse
 10
181.1185375179
 20
1360.4007621816
 30
0.0
 11
2.301490536886613E-17
 21
-0.1999999999999988
 31
0.0
210
0.0
220
0.0
230
1.0
 40
0.0874886635
 41
1.570796326794897
 42
3.141592653589792
  0
LINE
  5
2C8
330
24B
100
AcDbEntity
  8
$DDT_AUDIT_GENERATED_(111)
  6
Continuous
 62
     7
100
AcDbLine
 10
181.1360352506
 20
1290.5448568368
 30
0.0
 11
181.1360352506
 21
1290.3007621816
 31
0.0
  0
LINE
  5
2C9
330
24B
100
AcDbEntity
  8
$DDT_AUDIT_GENERATED_(111)
  6
Continuous
 62
     7
100
AcDbLine
 10
185.5734785682
 20
1360.1566675264
 30
0.0
 11
185.5734785682
 21
1360.4007621816
 31
0.0
  0
ARC
  5
2CA
330
24B
100
AcDbEntity
  8
$DDT_AUDIT_GENERATED_(111)
  6
Continuous
 62
     7
100
AcDbCircle
 10
218.2305442811
 20
1323.8585944963
 30
0.0
 40
3.710942605191758
100
AcDbArc
 50
90.3069736723
 51
91.1847822732
  0
LINE
  5
2CB
330
24B
100
AcDbEntity
  8
$DDT_AUDIT_GENERATED_(111)
  6
Continuous
 62
     7
100
AcDbLine
 10
218.2106622542
 20
1323.1320405228
 30
0.0
 11
218.3547569094
 21
1323.1320405228
 31
0.0
  0
ARC
  5
2CC
330
24B
100
AcDbEntity
  8
$DDT_AUDIT_GENERATED_(111)
  6
Continuous
 62
     7
100
AcDbCircle
 10
218.2305442811
 20
1326.8429298669
 30
0.0
 40
3.710942605190819
100
AcDbArc
 50
268.8152177268
 51
269.6930263277
  0
LINE
  5
2CD
330
24B
100
AcDbEntity
  8
$DDT_AUDIT_GENERATED_(111)
  6
Continuous
 62
     7
100
AcDbLine
 10
194.3547569094
 20
1290.1007621816
 30
0.0
 11
195.3547569094
 21
1290.1007621816
 31
0.0
  0
LINE
  5
2CE
330
24B
100
AcDbEntity
  8
$DDT_AUDIT_GENERATED_(111)
  6
Continuous
 62
     7
100
AcDbLine
 10
212.1047569094
 20
1290.2464143555
 30
0.0
 11
195.3547569094
 21
1290.1007621816
 31
0.0
  0
LINE
  5
2CF
330
24B
100
AcDbEntity
  8
$DDT_AUDIT_GENERATED_(111)
  6
Continuous
 62
     7
100
AcDbLine
 10
193.0279619902
 20
1290.0007621816
 30
0.0
 11
194.1815518287
 21
1290.0007621816
 31
0.0
  0
ARC
  5
2D0
330
24B
100
AcDbEntity
  8
$DDT_AUDIT_GENERATED_(111)
  6
Continuous
 62
     7
100
AcDbCircle
 10
194.1815518287
 20
1290.2007621816
 30
0.0
 40
0.1999999999999988
100
AcDbArc
 50
270.0
 51
330.0
  0
ARC
  5
2D1
330
24B
100
AcDbEntity
  8
$DDT_AUDIT_GENERATED_(111)
  6
Continuous
 62
     7
100
AcDbCircle
 10
193.0279619902
 20
1290.2007621816
 30
0.0
 40
0.1999999999999999
100
AcDbArc
 50
210.0
 51
270.0
  0
LINE
  5
2D2
330
24B
100
AcDbEntity
  8
$DDT_AUDIT_GENERATED_(111)
  6
Continuous
 62
     7
100
AcDbLine
 10
212.1047569094
 20
1290.2007621816
 30
0.0
 11
212.1047569094
 21
1290.2464143555
 31
0.0
  0
LINE
  5
2D3
330
24B
100
AcDbEntity
  8
$DDT_AUDIT_GENERATED_(111)
  6
Continuous
 62
     7
100
AcDbLine
 10
212.3047569094
 20
1290.0007621816
 30
0.0
 11
213.4047569094
 21
1290.0007621816
 31
0.0
  0
LINE
  5
2D4
330
24B
100
AcDbEntity
  8
$DDT_AUDIT_GENERATED_(111)
  6
Continuous
 62
     7
100
AcDbLine
 10
213.6047569094
 20
1290.2007621816
 30
0.0
 11
213.6047569094
 21
1290.2594578338
 31
0.0
  0
ARC
  5
2D5
330
24B
100
AcDbEntity
  8
$DDT_AUDIT_GENERATED_(111)
  6
Continuous
 62
     7
100
AcDbCircle
 10
213.4047569094
 20
1290.2007621816
 30
0.0
 40
0.1999999999999988
100
AcDbArc
 50
270.0
 51
0.0
  0
ARC
  5
2D6
330
24B
100
AcDbEntity
  8
$DDT_AUDIT_GENERATED_(111)
  6
Continuous
 62
     7
100
AcDbCircle
 10
212.3047569094
 20
1290.2007621816
 30
0.0
 40
0.1999999999999988
100
AcDbArc
 50
180.0
 51
270.0
  0
LINE
  5
2D7
330
24B
100
AcDbEntity
  8
$DDT_AUDIT_GENERATED_(111)
  6
Continuous
 62
     7
100
AcDbLine
 10
173.8547569094
 20
1290.1007621816
 30
0.0
 11
180.0884710813
 21
1290.1007621816
 31
0.0
  0
LINE
  5
2D8
330
24B
100
AcDbEntity
  8
$DDT_AUDIT_GENERATED_(111)
  6
Continuous
 62
     7
100
AcDbLine
 10
153.1047569094
 20
1290.2608499009
 30
0.0
 11
149.0503711132
 21
1290.2964146886
 31
0.0
  0
LINE
  5
2D9
330
24B
100
AcDbEntity
  8
$DDT_AUDIT_GENERATED_(111)
  6
Continuous
 62
     7
100
AcDbLine
 10
172.5279619902
 20
1290.0007621816
 30
0.0
 11
173.6815518287
 21
1290.0007621816
 31
0.0
  0
ARC
  5
2DA
330
24B
100
AcDbEntity
  8
$DDT_AUDIT_GENERATED_(111)
  6
Continuous
 62
     7
100
AcDbCircle
 10
173.6815518287
 20
1290.2007621816
 30
0.0
 40
0.1999999999999988
100
AcDbArc
 50
270.0
 51
330.0
  0
ARC
  5
2DB
330
24B
100
AcDbEntity
  8
$DDT_AUDIT_GENERATED_(111)
  6
Continuous
 62
     7
100
AcDbCircle
 10
172.5279619902
 20
1290.2007621816
 30
0.0
 40
0.1999999999999994
100
AcDbArc
 50
210.0
 51
270.0
  0
LINE
  5
2DC
330
24B
100
AcDbEntity
  8
$DDT_AUDIT_GENERATED_(111)
  6
Continuous
 62
     7
100
AcDbLine
 10
153.1047569094
 20
1290.2007621816
 30
0.0
 11
153.1047569094
 21
1290.2608499009
 31
0.0
  0
LINE
  5
2DD
330
24B
100
AcDbEntity
  8
$DDT_AUDIT_GENERATED_(111)
  6
Continuous
 62
     7
100
AcDbLine
 10
153.3047569094
 20
1290.0007621816
 30
0.0
 11
154.4047569094
 21
1290.0007621816
 31
0.0
  0
LINE
  5
2DE
330
24B
100
AcDbEntity
  8
$DDT_AUDIT_GENERATED_(111)
  6
Continuous
 62
     7
100
AcDbLine
 10
154.6047569094
 20
1290.2007621816
 30
0.0
 11
154.6047569094
 21
1290.2476920062
 31
0.0
  0
ARC
  5
2DF
330
24B
100
AcDbEntity
  8
$DDT_AUDIT_GENERATED_(111)
  6
Continuous
 62
     7
100
AcDbCircle
 10
154.4047569094
 20
1290.2007621816
 30
0.0
 40
0.1999999999999988
100
AcDbArc
 50
270.0
 51
0.0
  0
ARC
  5
2E0
330
24B
100
AcDbEntity
  8
$DDT_AUDIT_GENERATED_(111)
  6
Continuous
 62
     7
100
AcDbCircle
 10
153.3047569094
 20
1290.2007621816
 30
0.0
 40
0.1999999999999988
100
AcDbArc
 50
180.0
 51
270.0
  0
LINE
  5
2E1
330
24B
100
AcDbEntity
  8
$DDT_AUDIT_GENERATED_(111)
  6
Continuous
 62
     7
100
AcDbLine
 10
192.8547569094
 20
1360.6007621816
 30
0.0
 11
186.6210427375
 21
1360.6007621816
 31
0.0
  0
LINE
  5
2E2
330
24B
100
AcDbEntity
  8
$DDT_AUDIT_GENERATED_(111)
  6
Continuous
 62
     7
100
AcDbLine
 10
213.6047569094
 20
1360.4420665294
 30
0.0
 11
215.8979068951
 21
1360.4221260948
 31
0.0
  0
LINE
  5
2E3
330
24B
100
AcDbEntity
  8
$DDT_AUDIT_GENERATED_(111)
  6
Continuous
 62
     7
100
AcDbLine
 10
194.1815518287
 20
1360.7007621816
 30
0.0
 11
193.0279619902
 21
1360.7007621816
 31
0.0
  0
ARC
  5
2E4
330
24B
100
AcDbEntity
  8
$DDT_AUDIT_GENERATED_(111)
  6
Continuous
 62
     7
100
AcDbCircle
 10
193.0279619902
 20
1360.5007621816
 30
0.0
 40
0.1999999999999988
100
AcDbArc
 50
90.0
 51
150.0
  0
ARC
  5
2E5
330
24B
100
AcDbEntity
  8
$DDT_AUDIT_GENERATED_(111)
  6
Continuous
 62
     7
100
AcDbCircle
 10
194.1815518287
 20
1360.5007621816
 30
0.0
 40
0.200000000000002
100
AcDbArc
 50
30.0
 51
90.0
  0
LINE
  5
2E6
330
24B
100
AcDbEntity
  8
$DDT_AUDIT_GENERATED_(111)
  6
Continuous
 62
     7
100
AcDbLine
 10
213.6047569094
 20
1360.5007621816
 30
0.0
 11
213.6047569094
 21
1360.4420665294
 31
0.0
  0
LINE
  5
2E7
330
24B
100
AcDbEntity
  8
$DDT_AUDIT_GENERATED_(111)
  6
Continuous
 62
     7
100
AcDbLine
 10
213.4047569094
 20
1360.7007621816
 30
0.0
 11
212.3047569094
 21
1360.7007621816
 31
0.0
  0
LINE
  5
2E8
330
24B
100
AcDbEntity
  8
$DDT_AUDIT_GENERATED_(111)
  6
Continuous
 62
     7
100
AcDbLine
 10
212.1047569094
 20
1360.5007621816
 30
0.0
 11
212.1047569094
 21
1360.4551100077
 31
0.0
  0
ARC
  5
2E9
330
24B
100
AcDbEntity
  8
$DDT_AUDIT_GENERATED_(111)
  6
Continuous
 62
     7
100
AcDbCircle
 10
212.3047569094
 20
1360.5007621816
 30
0.0
 40
0.1999999999999988
100
AcDbArc
 50
90.0
 51
180.0
  0
ARC
  5
2EA
330
24B
100
AcDbEntity
  8
$DDT_AUDIT_GENERATED_(111)
  6
Continuous
 62
     7
100
AcDbCircle
 10
213.4047569094
 20
1360.5007621816
 30
0.0
 40
0.1999999999999988
100
AcDbArc
 50
0.0
 51
90.0
  0
LINE
  5
2EB
330
24B
100
AcDbEntity
  8
$DDT_AUDIT_GENERATED_(111)
  6
Continuous
 62
     7
100
AcDbLine
 10
172.3547569094
 20
1360.6007621816
 30
0.0
 11
171.3547569094
 21
1360.6007621816
 31
0.0
  0
LINE
  5
2EC
330
24B
100
AcDbEntity
  8
$DDT_AUDIT_GENERATED_(111)
  6
Continuous
 62
     7
100
AcDbLine
 10
154.6047569094
 20
1360.453832357
 30
0.0
 11
171.3547569094
 21
1360.6007621816
 31
0.0
  0
LINE
  5
2ED
330
24B
100
AcDbEntity
  8
$DDT_AUDIT_GENERATED_(111)
  6
Continuous
 62
     7
100
AcDbLine
 10
173.6815518287
 20
1360.7007621816
 30
0.0
 11
172.5279619902
 21
1360.7007621816
 31
0.0
  0
ARC
  5
2EE
330
24B
100
AcDbEntity
  8
$DDT_AUDIT_GENERATED_(111)
  6
Continuous
 62
     7
100
AcDbCircle
 10
172.5279619902
 20
1360.5007621816
 30
0.0
 40
0.1999999999999988
100
AcDbArc
 50
90.0
 51
150.0
  0
ARC
  5
2EF
330
24B
100
AcDbEntity
  8
$DDT_AUDIT_GENERATED_(111)
  6
Continuous
 62
     7
100
AcDbCircle
 10
173.6815518287
 20
1360.5007621816
 30
0.0
 40
0.1999999999999994
100
AcDbArc
 50
30.0
 51
90.0
  0
LINE
  5
2F0
330
24B
100
AcDbEntity
  8
$DDT_AUDIT_GENERATED_(111)
  6
Continuous
 62
     7
100
AcDbLine
 10
154.6047569094
 20
1360.5007621816
 30
0.0
 11
154.6047569094
 21
1360.453832357
 31
0.0
  0
LINE
  5
2F1
330
24B
100
AcDbEntity
  8
$DDT_AUDIT_GENERATED_(111)
  6
Continuous
 62
     7
100
AcDbLine
 10
154.4047569094
 20
1360.7007621816
 30
0.0
 11
153.3047569094
 21
1360.7007621816
 31
0.0
  0
LINE
  5
2F2
330
24B
100
AcDbEntity
  8
$DDT_AUDIT_GENERATED_(111)
  6
Continuous
 62
     7
100
AcDbLine
 10
153.1047569094
 20
1360.5007621816
 30
0.0
 11
153.1047569094
 21
1360.4406744623
 31
0.0
  0
ARC
  5
2F3
330
24B
100
AcDbEntity
  8
$DDT_AUDIT_GENERATED_(111)
  6
Continuous
 62
     7
100
AcDbCircle
 10
153.3047569094
 20
1360.5007621816
 30
0.0
 40
0.1999999999999988
100
AcDbArc
 50
90.0
 51
180.0
  0
ARC
  5
2F4
330
24B
100
AcDbEntity
  8
$DDT_AUDIT_GENERATED_(111)
  6
Continuous
 62
     7
100
AcDbCircle
 10
154.4047569094
 20
1360.5007621816
 30
0.0
 40
0.1999999999999988
100
AcDbArc
 50
0.0
 51
90.0
  0
LINE
  5
2F5
330
24B
100
AcDbEntity
  8
$DDT_AUDIT_GENERATED_(111)
  6
Continuous
 62
     7
100
AcDbLine
 10
218.5547569094
 20
1336.3507621816
 30
0.0
 11
218.5547569094
 21
1337.3507621816
 31
0.0
  0
LINE
  5
2F6
330
24B
100
AcDbEntity
  8
$DDT_AUDIT_GENERATED_(111)
  6
Continuous
 62
     7
100
AcDbLine
 10
218.4094206838
 20
1354.1007621816
 30
0.0
 11
218.5547569094
 21
1337.3507621816
 31
0.0
  0
LINE
  5
2F7
330
24B
100
AcDbEntity
  8
$DDT_AUDIT_GENERATED_(111)
  6
Continuous
 62
     7
100
AcDbLine
 10
218.6247569094
 20
1335.0027490231
 30
0.0
 11
218.6247569094
 21
1336.1987753401
 31
0.0
  0
ARC
  5
2F8
330
24B
100
AcDbEntity
  8
$DDT_AUDIT_GENERATED_(111)
  6
Continuous
 62
     7
100
AcDbCircle
 10
218.4247569094
 20
1336.1987753401
 30
0.0
 40
0.1999999999999988
100
AcDbArc
 50
0.0
 51
49.4583981265
  0
ARC
  5
2F9
330
24B
100
AcDbEntity
  8
$DDT_AUDIT_GENERATED_(111)
  6
Continuous
 62
     7
100
AcDbCircle
 10
218.4247569094
 20
1335.0027490231
 30
0.0
 40
0.2000000000000006
100
AcDbArc
 50
310.5416018735
 51
0.0
  0
LINE
  5
2FA
330
24B
100
AcDbEntity
  8
$DDT_AUDIT_GENERATED_(111)
  6
Continuous
 62
     7
100
AcDbLine
 10
218.4247569094
 20
1354.1007621816
 30
0.0
 11
218.4094206838
 21
1354.1007621816
 31
0.0
  0
LINE
  5
2FB
330
24B
100
AcDbEntity
  8
$DDT_AUDIT_GENERATED_(111)
  6
Continuous
 62
     7
100
AcDbLine
 10
218.6247569094
 20
1354.3007621816
 30
0.0
 11
218.6247569094
 21
1355.4007621816
 31
0.0
  0
LINE
  5
2FC
330
24B
100
AcDbEntity
  8
$DDT_AUDIT_GENERATED_(111)
  6
Continuous
 62
     7
100
AcDbLine
 10
218.4247569094
 20
1355.6007621816
 30
0.0
 11
218.3964054994
 21
1355.6007621816
 31
0.0
  0
ARC
  5
2FD
330
24B
100
AcDbEntity
  8
$DDT_AUDIT_GENERATED_(111)
  6
Continuous
 62
     7
100
AcDbCircle
 10
218.4247569094
 20
1355.4007621816
 30
0.0
 40
0.1999999999999988
100
AcDbArc
 50
0.0
 51
90.0
  0
ARC
  5
2FE
330
24B
100
AcDbEntity
  8
$DDT_AUDIT_GENERATED_(111)
  6
Continuous
 62
     7
100
AcDbCircle
 10
218.4247569094
 20
1354.3007621816
 30
0.0
 40
0.1999999999999988
100
AcDbArc
 50
270.0
 51
0.0
  0
LINE
  5
2FF
330
24B
100
AcDbEntity
  8
$DDT_AUDIT_GENERATED_(111)
  6
Continuous
 62
     7
100
AcDbLine
 10
218.5547569094
 20
1315.8507621816
 30
0.0
 11
218.5547569094
 21
1322.0844763535
 31
0.0
  0
LINE
  5
300
330
24B
100
AcDbEntity
  8
$DDT_AUDIT_GENERATED_(111)
  6
Continuous
 62
     7
100
AcDbLine
 10
218.3964054994
 20
1295.1007621816
 30
0.0
 11
218.3760744835
 21
1292.7576125984
 31
0.0
  0
LINE
  5
301
330
24B
100
AcDbEntity
  8
$DDT_AUDIT_GENERATED_(111)
  6
Continuous
 62
     7
100
AcDbLine
 10
218.6247569094
 20
1314.5027490231
 30
0.0
 11
218.6247569094
 21
1315.6987753401
 31
0.0
  0
ARC
  5
302
330
24B
100
AcDbEntity
  8
$DDT_AUDIT_GENERATED_(111)
  6
Continuous
 62
     7
100
AcDbCircle
 10
218.4247569094
 20
1315.6987753401
 30
0.0
 40
0.1999999999999988
100
AcDbArc
 50
0.0
 51
49.4583981265
  0
ARC
  5
303
330
24B
100
AcDbEntity
  8
$DDT_AUDIT_GENERATED_(111)
  6
Continuous
 62
     7
100
AcDbCircle
 10
218.4247569094
 20
1314.5027490231
 30
0.0
 40
0.2
100
AcDbArc
 50
310.5416018735
 51
0.0
  0
LINE
  5
304
330
24B
100
AcDbEntity
  8
$DDT_AUDIT_GENERATED_(111)
  6
Continuous
 62
     7
100
AcDbLine
 10
218.4247569094
 20
1295.1007621816
 30
0.0
 11
218.3964054994
 21
1295.1007621816
 31
0.0
  0
LINE
  5
305
330
24B
100
AcDbEntity
  8
$DDT_AUDIT_GENERATED_(111)
  6
Continuous
 62
     7
100
AcDbLine
 10
218.6247569094
 20
1295.3007621816
 30
0.0
 11
218.6247569094
 21
1296.4007621816
 31
0.0
  0
LINE
  5
306
330
24B
100
AcDbEntity
  8
$DDT_AUDIT_GENERATED_(111)
  6
Continuous
 62
     7
100
AcDbLine
 10
218.4247569094
 20
1296.6007621816
 30
0.0
 11
218.4094206838
 21
1296.6007621816
 31
0.0
  0
ARC
  5
307
330
24B
100
AcDbEntity
  8
$DDT_AUDIT_GENERATED_(111)
  6
Continuous
 62
     7
100
AcDbCircle
 10
218.4247569094
 20
1296.4007621816
 30
0.0
 40
0.1999999999999988
100
AcDbArc
 50
0.0
 51
90.0
  0
ARC
  5
308
330
24B
100
AcDbEntity
  8
$DDT_AUDIT_GENERATED_(111)
  6
Continuous
 62
     7
100
AcDbCircle
 10
218.4247569094
 20
1295.3007621816
 30
0.0
 40
0.1999999999999988
100
AcDbArc
 50
270.0
 51
0.0
  0
LINE
  5
309
330
24B
100
AcDbEntity
  8
$DDT_AUDIT_GENERATED_(190)
  6
Continuous
 62
     7
100
AcDbLine
 10
120.6047569094
 20
1290.0707621816
 30
0.0
 11
126.3547569094
 21
1290.0707621816
 31
0.0
  0
ARC
  5
30A
330
24B
100
AcDbEntity
  8
$DDT_AUDIT_GENERATED_(190)
  6
Continuous
 62
     7
100
AcDbCircle
 10
120.6047569094
 20
1292.5707621816
 30
0.0
 40
2.500000000000002
100
AcDbArc
 50
180.0
 51
270.0
  0
LINE
  5
30B
330
24B
100
AcDbEntity
  8
$DDT_AUDIT_GENERATED_(190)
  6
Continuous
 62
     7
100
AcDbLine
 10
118.1047569094
 20
1358.1307621816
 30
0.0
 11
118.1047569094
 21
1336.3507621816
 31
0.0
  0
ARC
  5
30C
330
24B
100
AcDbEntity
  8
$DDT_AUDIT_GENERATED_(190)
  6
Continuous
 62
     7
100
AcDbCircle
 10
120.6047569094
 20
1358.1307621816
 30
0.0
 40
2.500000000000002
100
AcDbArc
 50
90.0
 51
180.0
  0
LINE
  5
30D
330
24B
100
AcDbEntity
  8
$DDT_AUDIT_GENERATED_(190)
  6
Continuous
 62
     7
100
AcDbLine
 10
147.4047569094
 20
1360.6307621816
 30
0.0
 11
143.1547569094
 21
1360.6307621816
 31
0.0
  0
ARC
  5
30E
330
24B
100
AcDbEntity
  8
$DDT_AUDIT_GENERATED_(190)
  6
Continuous
 62
     7
100
AcDbCircle
 10
147.4047569094
 20
1360.1307621816
 30
0.0
 40
0.5000000000000004
100
AcDbArc
 50
0.0
 51
90.0
  0
LINE
  5
30F
330
24B
100
AcDbEntity
  8
$DDT_AUDIT_GENERATED_(190)
  6
Continuous
 62
     7
100
AcDbLine
 10
147.9047569094
 20
1290.5707621816
 30
0.0
 11
147.9047569094
 21
1291.5506098768
 31
0.0
  0
ARC
  5
310
330
24B
100
AcDbEntity
  8
$DDT_AUDIT_GENERATED_(190)
  6
Continuous
 62
     7
100
AcDbCircle
 10
147.4047569094
 20
1290.5707621816
 30
0.0
 40
0.5000000000000004
100
AcDbArc
 50
270.0
 51
0.0
  0
LINE
  5
311
330
24B
100
AcDbEntity
  8
$DDT_AUDIT_GENERATED_(190)
  6
Continuous
 62
     7
100
AcDbLine
 10
147.9047569094
 20
1359.1509144864
 30
0.0
 11
147.9047569094
 21
1360.1307621816
 31
0.0
  0
LINE
  5
312
330
24B
100
AcDbEntity
  8
$DDT_AUDIT_GENERATED_(190)
  6
Continuous
 62
     7
100
AcDbLine
 10
118.1047569094
 20
1327.6208533116
 30
0.0
 11
118.1047569094
 21
1327.5869815731
 31
0.0
  0
LINE
  5
313
330
24B
100
AcDbEntity
  8
$DDT_AUDIT_GENERATED_(190)
  6
Continuous
 62
     7
100
AcDbLine
 10
118.1047569094
 20
1327.6208533116
 30
0.0
 11
118.1047569094
 21
1328.6170480097
 31
0.0
  0
LINE
  5
314
330
24B
100
AcDbEntity
  8
$DDT_AUDIT_GENERATED_(190)
  6
Continuous
 62
     7
100
AcDbLine
 10
118.1047569094
 20
1322.0844763535
 30
0.0
 11
118.1047569094
 21
1315.8507621816
 31
0.0
  0
LINE
  5
315
330
24B
100
AcDbEntity
  8
$DDT_AUDIT_GENERATED_(190)
  6
Continuous
 62
     7
100
AcDbLine
 10
118.1047569094
 20
1322.0844763535
 30
0.0
 11
118.1047569094
 21
1323.0806710516
 31
0.0
  0
LINE
  5
316
330
24B
100
AcDbEntity
  8
$DDT_AUDIT_GENERATED_(190)
  6
Continuous
 62
     7
100
AcDbLine
 10
118.3047569094
 20
1327.5694838404
 30
0.0
 11
118.5047569094
 21
1327.5694838404
 31
0.0
  0
ELLIPSE
  5
317
330
24B
100
AcDbEntity
  8
$DDT_AUDIT_GENERATED_(190)
  6
Continuous
 62
     7
100
AcDbEllipse
 10
118.3047569094
 20
1327.5869815731
 30
0.0
 11
-0.1999999999999988
 21
-2.301490536886613E-17
 31
0.0
210
0.0
220
0.0
230
1.0
 40
0.0874886635
 41
0.0
 42
1.570796326794897
  0
LINE
  5
318
330
24B
100
AcDbEntity
  8
$DDT_AUDIT_GENERATED_(190)
  6
Continuous
 62
     7
100
AcDbLine
 10
118.1047569094
 20
1323.1145427901
 30
0.0
 11
118.1047569094
 21
1323.0806710516
 31
0.0
  0
ELLIPSE
  5
319
330
24B
100
AcDbEntity
  8
$DDT_AUDIT_GENERATED_(190)
  6
Continuous
 62
     7
100
AcDbEllipse
 10
118.3047569094
 20
1323.1145427901
 30
0.0
 11
0.1999999999999988
 21
2.301490536886613E-17
 31
0.0
210
0.0
220
0.0
230
1.0
 40
0.0874886635
 41
1.570796326794897
 42
3.141592653589792
  0
LINE
  5
31A
330
24B
100
AcDbEntity
  8
$DDT_AUDIT_GENERATED_(190)
  6
Continuous
 62
     7
100
AcDbLine
 10
118.5047569094
 20
1323.1320405228
 30
0.0
 11
118.3047569094
 21
1323.1320405228
 31
0.0
  0
ELLIPSE
  5
31B
330
24B
100
AcDbEntity
  8
$DDT_AUDIT_GENERATED_(190)
  6
Continuous
 62
     7
100
AcDbEllipse
 10
118.5047569094
 20
1323.1495382555
 30
0.0
 11
0.2000000000000057
 21
-4.106659636253348E-16
 31
0.0
210
0.0
220
0.0
230
1.0
 40
0.0874886635
 41
4.71238898038469
 42
5.235987755983022
  0
ELLIPSE
  5
31C
330
24B
100
AcDbEntity
  8
$DDT_AUDIT_GENERATED_(190)
  6
Continuous
 62
     7
100
AcDbEllipse
 10
118.5047569094
 20
1327.5519861077
 30
0.0
 11
-0.1999999999999988
 21
-2.301490536886613E-17
 31
0.0
210
0.0
220
0.0
230
1.0
 40
0.0874886635
 41
4.188790204786338
 42
4.71238898038469
  0
LINE
  5
31D
330
24B
100
AcDbEntity
  8
$DDT_AUDIT_GENERATED_(190)
  6
Continuous
 62
     7
100
AcDbLine
 10
148.0082473907
 20
1294.8473320952
 30
0.0
 11
147.9047569094
 21
1294.8455256621
 31
0.0
  0
LINE
  5
31E
330
24B
100
AcDbEntity
  8
$DDT_AUDIT_GENERATED_(190)
  6
Continuous
 62
     7
100
AcDbLine
 10
147.9047569094
 20
1296.8559987011
 30
0.0
 11
148.0082473907
 21
1296.854192268
 31
0.0
  0
ARC
  5
31F
330
24B
100
AcDbEntity
  8
$DDT_AUDIT_GENERATED_(190)
  6
Continuous
 62
     7
100
AcDbCircle
 10
148.0047569094
 20
1295.0473016342
 30
0.0
 40
0.1999999999999988
100
AcDbArc
 50
271.0
 51
0.0
  0
ARC
  5
320
330
24B
100
AcDbEntity
  8
$DDT_AUDIT_GENERATED_(190)
  6
Continuous
 62
     7
100
AcDbCircle
 10
148.0047569094
 20
1296.654222729
 30
0.0
 40
0.2000000000000009
100
AcDbArc
 50
0.0
 51
89.0
  0
LINE
  5
321
330
24B
100
AcDbEntity
  8
$DDT_AUDIT_GENERATED_(190)
  6
Continuous
 62
     7
100
AcDbLine
 10
148.2047569094
 20
1296.654222729
 30
0.0
 11
148.2047569094
 21
1295.0473016342
 31
0.0
  0
LINE
  5
322
330
24B
100
AcDbEntity
  8
$DDT_AUDIT_GENERATED_(190)
  6
Continuous
 62
     7
100
AcDbLine
 10
147.9047569094
 20
1355.8559987011
 30
0.0
 11
148.0082473907
 21
1355.854192268
 31
0.0
  0
ARC
  5
323
330
24B
100
AcDbEntity
  8
$DDT_AUDIT_GENERATED_(190)
  6
Continuous
 62
     7
100
AcDbCircle
 10
148.0047569094
 20
1355.654222729
 30
0.0
 40
0.2000000000000009
100
AcDbArc
 50
0.0
 51
89.0
  0
LINE
  5
324
330
24B
100
AcDbEntity
  8
$DDT_AUDIT_GENERATED_(190)
  6
Continuous
 62
     7
100
AcDbLine
 10
148.2047569094
 20
1355.654222729
 30
0.0
 11
148.2047569094
 21
1354.0473016342
 31
0.0
  0
ARC
  5
325
330
24B
100
AcDbEntity
  8
$DDT_AUDIT_GENERATED_(190)
  6
Continuous
 62
     7
100
AcDbCircle
 10
148.0047569094
 20
1354.0473016342
 30
0.0
 40
0.1999999999999988
100
AcDbArc
 50
271.0
 51
0.0
  0
LINE
  5
326
330
24B
100
AcDbEntity
  8
$DDT_AUDIT_GENERATED_(190)
  6
Continuous
 62
     7
100
AcDbLine
 10
148.0082473907
 20
1353.8473320952
 30
0.0
 11
147.9047569094
 21
1353.8455256621
 31
0.0
  0
LINE
  5
327
330
24B
100
AcDbEntity
  8
$DDT_AUDIT_GENERATED_(190)
  6
Continuous
 62
     7
100
AcDbLine
 10
148.0082473907
 20
1337.3473320952
 30
0.0
 11
147.9047569094
 21
1337.3455256621
 31
0.0
  0
ARC
  5
328
330
24B
100
AcDbEntity
  8
$DDT_AUDIT_GENERATED_(190)
  6
Continuous
 62
     7
100
AcDbCircle
 10
148.0047569094
 20
1337.5473016342
 30
0.0
 40
0.1999999999999988
100
AcDbArc
 50
271.0
 51
0.0
  0
LINE
  5
329
330
24B
100
AcDbEntity
  8
$DDT_AUDIT_GENERATED_(190)
  6
Continuous
 62
     7
100
AcDbLine
 10
148.2047569094
 20
1339.154222729
 30
0.0
 11
148.2047569094
 21
1337.5473016342
 31
0.0
  0
ARC
  5
32A
330
24B
100
AcDbEntity
  8
$DDT_AUDIT_GENERATED_(190)
  6
Continuous
 62
     7
100
AcDbCircle
 10
148.0047569094
 20
1339.154222729
 30
0.0
 40
0.1999999999999992
100
AcDbArc
 50
0.0
 51
89.0
  0
LINE
  5
32B
330
24B
100
AcDbEntity
  8
$DDT_AUDIT_GENERATED_(190)
  6
Continuous
 62
     7
100
AcDbLine
 10
147.9047569094
 20
1339.3559987011
 30
0.0
 11
148.0082473907
 21
1339.354192268
 31
0.0
  0
LINE
  5
32C
330
24B
100
AcDbEntity
  8
$DDT_AUDIT_GENERATED_(190)
  6
Continuous
 62
     7
100
AcDbLine
 10
148.0082473907
 20
1311.3473320952
 30
0.0
 11
147.9047569094
 21
1311.3455256621
 31
0.0
  0
ARC
  5
32D
330
24B
100
AcDbEntity
  8
$DDT_AUDIT_GENERATED_(190)
  6
Continuous
 62
     7
100
AcDbCircle
 10
148.0047569094
 20
1311.5473016342
 30
0.0
 40
0.1999999999999988
100
AcDbArc
 50
271.0
 51
0.0
  0
LINE
  5
32E
330
24B
100
AcDbEntity
  8
$DDT_AUDIT_GENERATED_(190)
  6
Continuous
 62
     7
100
AcDbLine
 10
148.2047569094
 20
1313.154222729
 30
0.0
 11
148.2047569094
 21
1311.5473016342
 31
0.0
  0
ARC
  5
32F
330
24B
100
AcDbEntity
  8
$DDT_AUDIT_GENERATED_(190)
  6
Continuous
 62
     7
100
AcDbCircle
 10
148.0047569094
 20
1313.154222729
 30
0.0
 40
0.1999999999999992
100
AcDbArc
 50
0.0
 51
89.0
  0
LINE
  5
330
330
24B
100
AcDbEntity
  8
$DDT_AUDIT_GENERATED_(190)
  6
Continuous
 62
     7
100
AcDbLine
 10
147.9047569094
 20
1313.3559987011
 30
0.0
 11
148.0082473907
 21
1313.354192268
 31
0.0
  0
LINE
  5
331
330
24B
100
AcDbEntity
  8
$DDT_AUDIT_GENERATED_(190)
  6
Continuous
 62
     7
100
AcDbLine
 10
142.0547569094
 20
1360.6307621816
 30
0.0
 11
127.4547569094
 21
1360.6307621816
 31
0.0
  0
LINE
  5
332
330
24B
100
AcDbEntity
  8
$DDT_AUDIT_GENERATED_(190)
  6
Continuous
 62
     7
100
AcDbLine
 10
126.3547569094
 20
1360.6307621816
 30
0.0
 11
120.6047569094
 21
1360.6307621816
 31
0.0
  0
LINE
  5
333
330
24B
100
AcDbEntity
  8
$DDT_AUDIT_GENERATED_(190)
  6
Continuous
 62
     7
100
AcDbLine
 10
127.3027700679
 20
1360.7007621816
 30
0.0
 11
126.5067437509
 21
1360.7007621816
 31
0.0
  0
ARC
  5
334
330
24B
100
AcDbEntity
  8
$DDT_AUDIT_GENERATED_(190)
  6
Continuous
 62
     7
100
AcDbCircle
 10
126.5067437509
 20
1360.5007621816
 30
0.0
 40
0.1999999999999988
100
AcDbArc
 50
90.0
 51
139.4583981265
  0
ARC
  5
335
330
24B
100
AcDbEntity
  8
$DDT_AUDIT_GENERATED_(190)
  6
Continuous
 62
     7
100
AcDbCircle
 10
127.3027700679
 20
1360.5007621816
 30
0.0
 40
0.2000000000000006
100
AcDbArc
 50
40.5416018735
 51
90.0
  0
LINE
  5
336
330
24B
100
AcDbEntity
  8
$DDT_AUDIT_GENERATED_(190)
  6
Continuous
 62
     7
100
AcDbLine
 10
143.0027700679
 20
1360.7007621816
 30
0.0
 11
142.2067437509
 21
1360.7007621816
 31
0.0
  0
ARC
  5
337
330
24B
100
AcDbEntity
  8
$DDT_AUDIT_GENERATED_(190)
  6
Continuous
 62
     7
100
AcDbCircle
 10
142.2067437509
 20
1360.5007621816
 30
0.0
 40
0.1999999999999988
100
AcDbArc
 50
90.0
 51
139.4583981265
  0
ARC
  5
338
330
24B
100
AcDbEntity
  8
$DDT_AUDIT_GENERATED_(190)
  6
Continuous
 62
     7
100
AcDbCircle
 10
143.0027700679
 20
1360.5007621816
 30
0.0
 40
0.2000000000000006
100
AcDbArc
 50
40.5416018735
 51
90.0
  0
LINE
  5
339
330
24B
100
AcDbEntity
  8
$DDT_AUDIT_GENERATED_(190)
  6
Continuous
 62
     7
100
AcDbLine
 10
143.1547569094
 20
1290.0707621816
 30
0.0
 11
147.4047569094
 21
1290.0707621816
 31
0.0
  0
LINE
  5
33A
330
24B
100
AcDbEntity
  8
$DDT_AUDIT_GENERATED_(190)
  6
Continuous
 62
     7
100
AcDbLine
 10
127.4547569094
 20
1290.0707621816
 30
0.0
 11
142.0547569094
 21
1290.0707621816
 31
0.0
  0
LINE
  5
33B
330
24B
100
AcDbEntity
  8
$DDT_AUDIT_GENERATED_(190)
  6
Continuous
 62
     7
100
AcDbLine
 10
126.5067437509
 20
1290.0007621816
 30
0.0
 11
127.3027700679
 21
1290.0007621816
 31
0.0
  0
ARC
  5
33C
330
24B
100
AcDbEntity
  8
$DDT_AUDIT_GENERATED_(190)
  6
Continuous
 62
     7
100
AcDbCircle
 10
127.3027700679
 20
1290.2007621816
 30
0.0
 40
0.2000000000000057
100
AcDbArc
 50
270.0
 51
319.4583981265
  0
ARC
  5
33D
330
24B
100
AcDbEntity
  8
$DDT_AUDIT_GENERATED_(190)
  6
Continuous
 62
     7
100
AcDbCircle
 10
126.5067437509
 20
1290.2007621816
 30
0.0
 40
0.2000000000000013
100
AcDbArc
 50
220.5416018735
 51
270.0
  0
LINE
  5
33E
330
24B
100
AcDbEntity
  8
$DDT_AUDIT_GENERATED_(190)
  6
Continuous
 62
     7
100
AcDbLine
 10
142.2067437509
 20
1290.0007621816
 30
0.0
 11
143.0027700679
 21
1290.0007621816
 31
0.0
  0
ARC
  5
33F
330
24B
100
AcDbEntity
  8
$DDT_AUDIT_GENERATED_(190)
  6
Continuous
 62
     7
100
AcDbCircle
 10
143.0027700679
 20
1290.2007621816
 30
0.0
 40
0.1999999999999988
100
AcDbArc
 50
270.0
 51
319.4583981265
  0
ARC
  5
340
330
24B
100
AcDbEntity
  8
$DDT_AUDIT_GENERATED_(190)
  6
Continuous
 62
     7
100
AcDbCircle
 10
142.2067437509
 20
1290.2007621816
 30
0.0
 40
0.2000000000000006
100
AcDbArc
 50
220.5416018735
 51
270.0
  0
LINE
  5
341
330
24B
100
AcDbEntity
  8
$DDT_AUDIT_GENERATED_(190)
  6
Continuous
 62
     7
100
AcDbLine
 10
118.1047569094
 20
1314.3507621816
 30
0.0
 11
118.1047569094
 21
1292.5707621816
 31
0.0
  0
LINE
  5
342
330
24B
100
AcDbEntity
  8
$DDT_AUDIT_GENERATED_(190)
  6
Continuous
 62
     7
100
AcDbLine
 10
118.0347569094
 20
1315.6987753401
 30
0.0
 11
118.0347569094
 21
1314.5027490231
 31
0.0
  0
ARC
  5
343
330
24B
100
AcDbEntity
  8
$DDT_AUDIT_GENERATED_(190)
  6
Continuous
 62
     7
100
AcDbCircle
 10
118.2347569094
 20
1314.5027490231
 30
0.0
 40
0.2000000000000057
100
AcDbArc
 50
180.0
 51
229.4583981265
  0
ARC
  5
344
330
24B
100
AcDbEntity
  8
$DDT_AUDIT_GENERATED_(190)
  6
Continuous
 62
     7
100
AcDbCircle
 10
118.2347569094
 20
1315.6987753401
 30
0.0
 40
0.2000000000000019
100
AcDbArc
 50
130.5416018735
 51
180.0
  0
LINE
  5
345
330
24B
100
AcDbEntity
  8
$DDT_AUDIT_GENERATED_(190)
  6
Continuous
 62
     7
100
AcDbLine
 10
118.1047569094
 20
1334.8507621816
 30
0.0
 11
118.1047569094
 21
1328.6170480097
 31
0.0
  0
LINE
  5
346
330
24B
100
AcDbEntity
  8
$DDT_AUDIT_GENERATED_(190)
  6
Continuous
 62
     7
100
AcDbLine
 10
118.0347569094
 20
1336.1987753401
 30
0.0
 11
118.0347569094
 21
1335.0027490231
 31
0.0
  0
ARC
  5
347
330
24B
100
AcDbEntity
  8
$DDT_AUDIT_GENERATED_(190)
  6
Continuous
 62
     7
100
AcDbCircle
 10
118.2347569094
 20
1336.1987753401
 30
0.0
 40
0.2000000000000006
100
AcDbArc
 50
130.5416018735
 51
180.0
  0
ARC
  5
348
330
24B
100
AcDbEntity
  8
$DDT_AUDIT_GENERATED_(190)
  6
Continuous
 62
     7
100
AcDbCircle
 10
118.2347569094
 20
1335.0027490231
 30
0.0
 40
0.2000000000000057
100
AcDbArc
 50
180.0
 51
229.4583981265
  0
ARC
  5
349
330
24B
100
AcDbEntity
  8
$DDT_AUDIT_GENERATED_(1D1)
  6
Continuous
 62
     7
100
AcDbCircle
 10
149.5613788829
 20
1317.7905482515
 30
0.0
 40
2.000000000000001
100
AcDbArc
 50
237.638246322
 51
239.7807040472
  0
ARC
  5
34A
330
24B
100
AcDbEntity
  8
$DDT_AUDIT_GENERATED_(1D1)
  6
Continuous
 62
     7
100
AcDbCircle
 10
149.5613788829
 20
1332.9109761117
 30
0.0
 40
1.999999999999998
100
AcDbArc
 50
120.2192959524
 51
122.3617536777
  0
ARC
  5
34B
330
24B
100
AcDbEntity
  8
$DDT_AUDIT_GENERATED_(1D1)
  6
Continuous
 62
     7
100
AcDbCircle
 10
138.3547569094
 20
1325.3507621816
 30
0.0
 40
13.75000000000002
100
AcDbArc
 50
313.9910068718
 51
317.6397375278
  0
ARC
  5
34C
330
24B
100
AcDbEntity
  8
$DDT_AUDIT_GENERATED_(1D1)
  6
Continuous
 62
     7
100
AcDbCircle
 10
138.3547569094
 20
1325.3507621816
 30
0.0
 40
13.72207189611486
100
AcDbArc
 50
314.1036897453
 51
317.618323372
  0
ARC
  5
34D
330
24B
100
AcDbEntity
  8
$DDT_AUDIT_GENERATED_(1D1)
  6
Continuous
 62
     7
100
AcDbCircle
 10
138.3547569094
 20
1325.3507621816
 30
0.0
 40
13.75
100
AcDbArc
 50
42.3602624722
 51
46.0089931282
  0
ARC
  5
34E
330
24B
100
AcDbEntity
  8
$DDT_AUDIT_GENERATED_(1D1)
  6
Continuous
 62
     7
100
AcDbCircle
 10
138.3547569094
 20
1325.3507621816
 30
0.0
 40
13.72207189611485
100
AcDbArc
 50
42.381676628
 51
45.8963102547
  0
ARC
  5
34F
330
24B
100
AcDbEntity
  8
$DDT_AUDIT_GENERATED_(1D1)
  6
Continuous
 62
     7
100
AcDbCircle
 10
138.3547569094
 20
1325.3507621816
 30
0.0
 40
12.79999999999998
100
AcDbArc
 50
37.1672854613
 51
41.7468700231
  0
ARC
  5
350
330
24B
100
AcDbEntity
  8
$DDT_AUDIT_GENERATED_(1D1)
  6
Continuous
 62
     7
100
AcDbCircle
 10
138.3547569094
 20
1325.3507621816
 30
0.0
 40
12.79999999999998
100
AcDbArc
 50
318.2531299769
 51
322.8327145387
  0
LINE
  5
351
330
24B
100
AcDbEntity
  8
490147031_RAHMEN
  6
Continuous
 62
     7
100
AcDbLine
 10
75.8538430803
 20
1403.3507621816
 30
0.0
 11
260.8556707385
 21
1403.3507621816
 31
0.0
  0
ELLIPSE
  5
352
330
24B
100
AcDbEntity
  8
490147031_RAHMEN
  6
Continuous
 62
     7
100
AcDbEllipse
 10
75.8556708777
 20
1397.3498482133
 30
0.0
 11
4.243933135017486
 21
-4.243933135017484
 31
0.0
210
0.0
220
0.0
230
1.0
 40
0.9996954599
 41
2.356346783439927
 42
3.926838523739687
  0
LINE
  5
353
330
24B
100
AcDbEntity
  8
490147031_RAHMEN
  6
Continuous
 62
     7
100
AcDbLine
 10
266.8547569094
 20
1397.3516760107
 30
0.0
 11
266.8547569094
 21
1253.3498483525
 31
0.0
  0
ELLIPSE
  5
354
330
24B
100
AcDbEntity
  8
490147031_RAHMEN
  6
Continuous
 62
     7
100
AcDbEllipse
 10
260.8538429411
 20
1397.3498482133
 30
0.0
 11
-4.243933135017484
 21
-4.243933135017487
 31
0.0
210
0.0
220
0.0
230
1.0
 40
0.9996954599
 41
2.356346783439898
 42
3.926838523739649
  0
LINE
  5
355
330
24B
100
AcDbEntity
  8
490147031_RAHMEN
  6
Continuous
 62
     7
100
AcDbLine
 10
260.8556707385
 20
1247.3507621816
 30
0.0
 11
75.8538430803
 21
1247.3507621816
 31
0.0
  0
ELLIPSE
  5
356
330
24B
100
AcDbEntity
  8
490147031_RAHMEN
  6
Continuous
 62
     7
100
AcDbEllipse
 10
260.8538429411
 20
1253.3516761499
 30
0.0
 11
-4.243933135017487
 21
4.243933135017484
 31
0.0
210
0.0
220
0.0
230
1.0
 40
0.9996954599
 41
2.356346783439936
 42
3.926838523739678
  0
LINE
  5
357
330
24B
100
AcDbEntity
  8
490147031_RAHMEN
  6
Continuous
 62
     7
100
AcDbLine
 10
69.8547569094
 20
1253.3498483525
 30
0.0
 11
69.8547569094
 21
1397.3516760107
 31
0.0
  0
ELLIPSE
  5
358
330
24B
100
AcDbEntity
  8
490147031_RAHMEN
  6
Continuous
 62
     7
100
AcDbEllipse
 10
75.8556708777
 20
1253.3516761499
 30
0.0
 11
4.243933135017484
 21
4.243933135017486
 31
0.0
210
0.0
220
0.0
230
1.0
 40
0.9996954599
 41
2.356346783439899
 42
3.926838523739659
  0
LINE
  5
359
330
24B
100
AcDbEntity
  8
490147031_RAHMEN
  6
Continuous
 62
     7
100
AcDbLine
 10
157.3635854428
 20
1289.8507621569
 30
0.0
 11
171.3459283761
 21
1289.8507621569
 31
0.0
  0
LINE
  5
35A
330
24B
100
AcDbEntity
  8
490147031_RAHMEN
  6
Continuous
 62
     7
100
AcDbLine
 10
171.3459283761
 20
1289.8507621569
 30
0.0
 11
171.3525795715
 21
1289.8506836424
 31
0.0
  0
LINE
  5
35B
330
24B
100
AcDbEntity
  8
490147031_RAHMEN
  6
Continuous
 62
     7
100
AcDbLine
 10
157.3569342473
 20
1289.8506836424
 30
0.0
 11
157.3635854428
 21
1289.8507621569
 31
0.0
  0
ELLIPSE
  5
35C
330
24B
100
AcDbEntity
  8
490147031_RAHMEN
  6
Continuous
 62
     7
100
AcDbEllipse
 10
171.8376012968
 20
1289.8551103597
 30
0.0
 11
-0.7000000000000057
 21
-8.055216879103258E-17
 31
0.0
210
0.0
220
0.0
230
1.0
 40
0.0087268678
 41
0.7920468062636097
 42
1.570796326794897
  0
LINE
  5
35D
330
24B
100
AcDbEntity
  8
490147031_RAHMEN
  6
Continuous
 62
     7
100
AcDbLine
 10
217.5467860594
 20
1289.8490015523
 30
0.0
 11
171.8376012968
 21
1289.8490015523
 31
0.0
  0
LINE
  5
35E
330
24B
100
AcDbEntity
  8
490147031_RAHMEN
  6
Continuous
 62
     7
100
AcDbLine
 10
156.871912522
 20
1289.8490015523
 30
0.0
 11
119.1627277594
 21
1289.8490015523
 31
0.0
  0
ELLIPSE
  5
35F
330
24B
100
AcDbEntity
  8
490147031_RAHMEN
  6
Continuous
 62
     7
100
AcDbEllipse
 10
156.871912522
 20
1289.8551103597
 30
0.0
 11
0.6999999999999905
 21
8.055216879103083E-17
 31
0.0
210
0.0
220
0.0
230
1.0
 40
0.0087268678
 41
4.712388980384649
 42
5.491138500915998
  0
ARC
  5
360
330
24B
100
AcDbEntity
  8
490147031_RAHMEN
  6
Continuous
 62
     7
100
AcDbCircle
 10
119.1627277594
 20
1291.1544076316
 30
0.0
 40
1.305406079330391
100
AcDbArc
 50
180.0
 51
270.0
  0
LINE
  5
361
330
24B
100
AcDbEntity
  8
490147031_RAHMEN
  6
Continuous
 62
     7
100
AcDbLine
 10
117.8784628128
 20
1357.0236594457
 30
0.0
 11
117.8784628128
 21
1343.6778649175
 31
0.0
  0
LINE
  5
362
330
24B
100
AcDbEntity
  8
490147031_RAHMEN
  6
Continuous
 62
     7
100
AcDbLine
 10
117.8784628128
 20
1293.6778649175
 30
0.0
 11
117.8784628128
 21
1307.0236594457
 31
0.0
  0
LINE
  5
363
330
24B
100
AcDbEntity
  8
490147031_RAHMEN
  6
Continuous
 62
     7
100
AcDbLine
 10
117.8573216801
 20
1357.825244465
 30
0.0
 11
117.8573216801
 21
1359.5471167316
 31
0.0
  0
ELLIPSE
  5
364
330
24B
100
AcDbEntity
  8
490147031_RAHMEN
  6
Continuous
 62
     7
100
AcDbEllipse
 10
117.8634304875
 20
1357.825244465
 30
0.0
 11
8.055216879103184E-17
 21
-0.6999999999999993
 31
0.0
210
0.0
220
0.0
230
1.0
 40
0.0087268678
 41
4.71238898038469
 42
6.23082542962018
  0
ELLIPSE
  5
365
330
24B
100
AcDbEntity
  8
490147031_RAHMEN
  6
Continuous
 62
     7
100
AcDbEllipse
 10
117.8634304875
 20
1342.8762798982
 30
0.0
 11
7.019446072698260E-15
 21
-0.6999999999999993
 31
0.0
210
0.0
220
0.0
230
1.0
 40
0.0087268678
 41
3.193952531149199
 42
4.71238898038469
  0
LINE
  5
366
330
24B
100
AcDbEntity
  8
490147031_RAHMEN
  6
Continuous
 62
     7
100
AcDbLine
 10
117.8573216801
 20
1307.825244465
 30
0.0
 11
117.8573216801
 21
1342.8762798982
 31
0.0
  0
ELLIPSE
  5
367
330
24B
100
AcDbEntity
  8
490147031_RAHMEN
  6
Continuous
 62
     7
100
AcDbEllipse
 10
117.8634304875
 20
1307.825244465
 30
0.0
 11
8.055216879103184E-17
 21
-0.6999999999999993
 31
0.0
210
0.0
220
0.0
230
1.0
 40
0.0087268678
 41
4.71238898038469
 42
6.230825429613973
  0
ELLIPSE
  5
368
330
24B
100
AcDbEntity
  8
490147031_RAHMEN
  6
Continuous
 62
     7
100
AcDbEllipse
 10
117.8634304875
 20
1292.8762798982
 30
0.0
 11
0.0
 21
0.6990407474386544
 31
0.0
210
0.0
220
0.0
230
1.0
 40
1.0
 41
0.0004573557291814
 42
1.570796326794897
  0
LINE
  5
369
330
24B
100
AcDbEntity
  8
490147031_RAHMEN
  6
Continuous
 62
     7
100
AcDbLine
 10
117.8573216801
 20
1291.1544076316
 30
0.0
 11
117.8573216801
 21
1292.8762798982
 31
0.0
  0
ARC
  5
36A
330
24B
100
AcDbEntity
  8
490147031_RAHMEN
  6
Continuous
 62
     7
100
AcDbCircle
 10
217.5467860594
 20
1291.1544076316
 30
0.0
 40
1.305406079330391
100
AcDbArc
 50
270.0
 51
0.0
  0
LINE
  5
36B
330
24B
100
AcDbEntity
  8
490147031_RAHMEN
  6
Continuous
 62
     7
100
AcDbLine
 10
218.831051006
 20
1293.6778649175
 30
0.0
 11
218.831051006
 21
1307.0236594457
 31
0.0
  0
LINE
  5
36C
330
24B
100
AcDbEntity
  8
490147031_RAHMEN
  6
Continuous
 62
     7
100
AcDbLine
 10
218.831051006
 20
1357.0236594457
 30
0.0
 11
218.831051006
 21
1343.6778649175
 31
0.0
  0
LINE
  5
36D
330
24B
100
AcDbEntity
  8
490147031_RAHMEN
  6
Continuous
 62
     7
100
AcDbLine
 10
218.8521921387
 20
1359.5471167316
 30
0.0
 11
218.8521921387
 21
1357.825244465
 31
0.0
  0
ELLIPSE
  5
36E
330
24B
100
AcDbEntity
  8
490147031_RAHMEN
  6
Continuous
 62
     7
100
AcDbEllipse
 10
218.8460833313
 20
1357.825244465
 30
0.0
 11
8.055216879103184E-17
 21
-0.6999999999999993
 31
0.0
210
0.0
220
0.0
230
1.0
 40
0.0087268678
 41
0.0523598775594064
 42
1.570796326794897
  0
ELLIPSE
  5
36F
330
24B
100
AcDbEntity
  8
490147031_RAHMEN
  6
Continuous
 62
     7
100
AcDbEllipse
 10
218.8460833313
 20
1342.8762798982
 30
0.0
 11
0.0
 21
0.006108807453529153
 31
0.0
210
0.0
220
0.0
230
1.0
 40
1.0
 41
-1.570796326794897
 42
-0.0004573557290999
  0
LINE
  5
370
330
24B
100
AcDbEntity
  8
490147031_RAHMEN
  6
Continuous
 62
     7
100
AcDbLine
 10
218.8521921387
 20
1342.8762798982
 30
0.0
 11
218.8521921387
 21
1307.825244465
 31
0.0
  0
ELLIPSE
  5
371
330
24B
100
AcDbEntity
  8
490147031_RAHMEN
  6
Continuous
 62
     7
100
AcDbEllipse
 10
218.8460833313
 20
1307.825244465
 30
0.0
 11
0.0
 21
0.6990407474386544
 31
0.0
210
0.0
220
0.0
230
1.0
 40
1.0
 41
3.142050009318974
 42
4.71238898038469
  0
ELLIPSE
  5
372
330
24B
100
AcDbEntity
  8
490147031_RAHMEN
  6
Continuous
 62
     7
100
AcDbEllipse
 10
218.8460833313
 20
1292.8762798982
 30
0.0
 11
0.0
 21
0.006108807453529153
 31
0.0
210
0.0
220
0.0
230
1.0
 40
1.0
 41
-1.570796326794897
 42
-0.0004573557291814
  0
LINE
  5
373
330
24B
100
AcDbEntity
  8
490147031_RAHMEN
  6
Continuous
 62
     7
100
AcDbLine
 10
218.8521921387
 20
1292.8762798982
 30
0.0
 11
218.8521921387
 21
1291.1544076316
 31
0.0
  0
ARC
  5
374
330
24B
100
AcDbEntity
  8
490147031_RAHMEN
  6
Continuous
 62
     7
100
AcDbCircle
 10
119.1627277594
 20
1359.5471167316
 30
0.0
 40
1.305406079330391
100
AcDbArc
 50
90.0
 51
180.0
  0
LINE
  5
375
330
24B
100
AcDbEntity
  8
490147031_RAHMEN
  6
Continuous
 62
     7
100
AcDbLine
 10
157.3635854428
 20
1360.8507622063
 30
0.0
 11
171.3459283761
 21
1360.8507622063
 31
0.0
  0
LINE
  5
376
330
24B
100
AcDbEntity
  8
490147031_RAHMEN
  6
Continuous
 62
     7
100
AcDbLine
 10
171.8376012968
 20
1360.8525228109
 30
0.0
 11
217.5467860594
 21
1360.8525228109
 31
0.0
  0
ELLIPSE
  5
377
330
24B
100
AcDbEntity
  8
490147031_RAHMEN
  6
Continuous
 62
     7
100
AcDbEllipse
 10
171.8376012968
 20
1360.8464140035
 30
0.0
 11
-0.6999999999999932
 21
-8.055216879103113E-17
 31
0.0
210
0.0
220
0.0
230
1.0
 40
0.0087268678
 41
4.71238898038469
 42
5.491138500918561
  0
ELLIPSE
  5
378
330
24B
100
AcDbEntity
  8
490147031_RAHMEN
  6
Continuous
 62
     7
100
AcDbEllipse
 10
156.871912522
 20
1360.8464140035
 30
0.0
 11
0.6999999999999957
 21
-1.379723563902343E-14
 31
0.0
210
0.0
220
0.0
230
1.0
 40
0.0087268678
 41
0.7920468062618844
 42
1.570796326794897
  0
LINE
  5
379
330
24B
100
AcDbEntity
  8
490147031_RAHMEN
  6
Continuous
 62
     7
100
AcDbLine
 10
119.1627277594
 20
1360.8525228109
 30
0.0
 11
156.871912522
 21
1360.8525228109
 31
0.0
  0
LINE
  5
37A
330
24B
100
AcDbEntity
  8
490147031_RAHMEN
  6
Continuous
 62
     7
100
AcDbLine
 10
171.3525795715
 20
1360.8508407208
 30
0.0
 11
171.3459283761
 21
1360.8507622063
 31
0.0
  0
LINE
  5
37B
330
24B
100
AcDbEntity
  8
490147031_RAHMEN
  6
Continuous
 62
     7
100
AcDbLine
 10
157.3635854428
 20
1360.8507622063
 30
0.0
 11
157.3569342473
 21
1360.8508407208
 31
0.0
  0
ARC
  5
37C
330
24B
100
AcDbEntity
  8
490147031_RAHMEN
  6
Continuous
 62
     7
100
AcDbCircle
 10
217.5467860594
 20
1359.5471167316
 30
0.0
 40
1.305406079330385
100
AcDbArc
 50
0.0
 51
90.0
  0
LINE
  5
37D
330
24B
100
AcDbEntity
  8
490147031_RAHMEN
  6
Continuous
 62
     7
100
AcDbLine
 10
117.8784651523
 20
1293.6675287645
 30
0.0
 11
117.8784628128
 21
1293.6778649175
 31
0.0
  0
LINE
  5
37E
330
24B
100
AcDbEntity
  8
490147031_RAHMEN
  6
Continuous
 62
     7
100
AcDbLine
 10
218.831051006
 20
1293.6778649175
 30
0.0
 11
218.8310486665
 21
1293.6675287645
 31
0.0
  0
LINE
  5
37F
330
24B
100
AcDbEntity
  8
490147031_RAHMEN
  6
Continuous
 62
     7
100
AcDbLine
 10
117.8784628128
 20
1307.0236594457
 30
0.0
 11
117.8784651523
 21
1307.0339955987
 31
0.0
  0
LINE
  5
380
330
24B
100
AcDbEntity
  8
490147031_RAHMEN
  6
Continuous
 62
     7
100
AcDbLine
 10
218.8310486665
 20
1307.0339955987
 30
0.0
 11
218.831051006
 21
1307.0236594457
 31
0.0
  0
LINE
  5
381
330
24B
100
AcDbEntity
  8
490147031_RAHMEN
  6
Continuous
 62
     7
100
AcDbLine
 10
117.8784651523
 20
1343.6675287645
 30
0.0
 11
117.8784628128
 21
1343.6778649175
 31
0.0
  0
LINE
  5
382
330
24B
100
AcDbEntity
  8
490147031_RAHMEN
  6
Continuous
 62
     7
100
AcDbLine
 10
218.831051006
 20
1343.6778649175
 30
0.0
 11
218.8310486665
 21
1343.6675287645
 31
0.0
  0
LINE
  5
383
330
24B
100
AcDbEntity
  8
490147031_RAHMEN
  6
Continuous
 62
     7
100
AcDbLine
 10
117.8784628128
 20
1357.0236594457
 30
0.0
 11
117.8784651523
 21
1357.0339955987
 31
0.0
  0
LINE
  5
384
330
24B
100
AcDbEntity
  8
490147031_RAHMEN
  6
Continuous
 62
     7
100
AcDbLine
 10
218.8310486665
 20
1357.0339955987
 30
0.0
 11
218.831051006
 21
1357.0236594457
 31
0.0
  0
ELLIPSE
  5
385
330
24B
100
AcDbEntity
  8
490147031_RAHMEN
  6
Continuous
 62
     7
100
AcDbEllipse
 10
219.0463954262
 20
1357.1262037906
 30
0.0
 11
0.1972835210251322
 21
-0.0328513672763833
 31
0.0
210
0.0
220
0.0
230
1.0
 40
0.9985916141
 41
3.194835332848813
 42
3.306825729051593
  0
ELLIPSE
  5
386
330
24B
100
AcDbEntity
  8
490147031_RAHMEN
  6
Continuous
 62
     7
100
AcDbEllipse
 10
117.6631183926
 20
1357.1262037906
 30
0.0
 11
-0.1972835210255139
 21
-0.03285136727406576
 31
0.0
210
0.0
220
0.0
230
1.0
 40
0.9985916141
 41
2.976359578140556
 42
3.088349974287729
  0
ELLIPSE
  5
387
330
24B
100
AcDbEntity
  8
490147031_RAHMEN
  6
Continuous
 62
     7
100
AcDbEllipse
 10
219.0463954262
 20
1343.5753205726
 30
0.0
 11
0.1972835210252294
 21
0.03285136727576579
 31
0.0
210
0.0
220
0.0
230
0.9999999999999997
 40
0.9985916141
 41
2.976359578131565
 42
3.088349968244368
  0
ELLIPSE
  5
388
330
24B
100
AcDbEntity
  8
490147031_RAHMEN
  6
Continuous
 62
     7
100
AcDbEllipse
 10
219.0463954262
 20
1307.1262037906
 30
0.0
 11
0.1972835210252294
 21
-0.03285136727576574
 31
0.0
210
0.0
220
0.0
230
1.0
 40
0.9985916141
 41
3.19483533891857
 42
3.306825729048019
  0
ELLIPSE
  5
389
330
24B
100
AcDbEntity
  8
490147031_RAHMEN
  6
Continuous
 62
     7
100
AcDbEllipse
 10
117.6631183926
 20
1343.5753205726
 30
0.0
 11
-0.1972835210255555
 21
0.03285136727377428
 31
0.0
210
0.0
220
0.0
230
1.0
 40
0.9985916141
 41
3.194835347239674
 42
3.306825729037783
  0
ELLIPSE
  5
38A
330
24B
100
AcDbEntity
  8
490147031_RAHMEN
  6
Continuous
 62
     7
100
AcDbEllipse
 10
117.6631183926
 20
1307.1262037906
 30
0.0
 11
-0.1972835210255555
 21
-0.03285136727377433
 31
0.0
210
0.0
220
0.0
230
0.9999999999999997
 40
0.9985916141
 41
2.976359578141803
 42
3.088349959923281
  0
ELLIPSE
  5
38B
330
24B
100
AcDbEntity
  8
490147031_RAHMEN
  6
Continuous
 62
     7
100
AcDbEllipse
 10
219.0463954262
 20
1293.5753205726
 30
0.0
 11
0.1972835210251322
 21
0.03285136727640416
 31
0.0
210
0.0
220
0.0
230
1.0
 40
0.9985916141
 41
2.976359578128071
 42
3.088349974336481
  0
ELLIPSE
  5
38C
330
24B
100
AcDbEntity
  8
490147031_RAHMEN
  6
Continuous
 62
     7
100
AcDbEllipse
 10
117.6631183926
 20
1293.5753205726
 30
0.0
 11
-0.1972835210254167
 21
0.03285136727461389
 31
0.0
210
0.0
220
0.0
230
1.0
 40
0.9985916141
 41
3.194835332907235
 42
3.306825729042062
  0
LINE
  5
38D
330
24B
100
AcDbEntity
  8
490147031_RAHMEN
  6
Continuous
 62
     7
100
AcDbLine
 10
218.8477146032
 20
1357.1506638891
 30
0.0
 11
218.8337319883
 21
1357.0666935789
 31
0.0
  0
LINE
  5
38E
330
24B
100
AcDbEntity
  8
490147031_RAHMEN
  6
Continuous
 62
     7
100
AcDbLine
 10
218.8492043508
 20
1357.22349839
 30
0.0
 11
218.7547569094
 21
1357.2239314397
 31
0.0
  0
LINE
  5
38F
330
24B
100
AcDbEntity
  8
490147031_RAHMEN
  6
Continuous
 62
     7
100
AcDbLine
 10
117.8757818305
 20
1357.0666935789
 30
0.0
 11
117.8617992156
 21
1357.1506638891
 31
0.0
  0
LINE
  5
390
330
24B
100
AcDbEntity
  8
490147031_RAHMEN
  6
Continuous
 62
     7
100
AcDbLine
 10
117.9547569094
 20
1357.2239314397
 30
0.0
 11
117.860309468
 21
1357.22349839
 31
0.0
  0
LINE
  5
391
330
24B
100
AcDbEntity
  8
490147031_RAHMEN
  6
Continuous
 62
     7
100
AcDbLine
 10
218.7547569094
 20
1343.4775929235
 30
0.0
 11
218.8492043508
 21
1343.4780259731
 31
0.0
  0
LINE
  5
392
330
24B
100
AcDbEntity
  8
490147031_RAHMEN
  6
Continuous
 62
     7
100
AcDbLine
 10
218.8337319883
 20
1343.6348307843
 30
0.0
 11
218.8477146032
 21
1343.5508604741
 31
0.0
  0
LINE
  5
393
330
24B
100
AcDbEntity
  8
490147031_RAHMEN
  6
Continuous
 62
     7
100
AcDbLine
 10
117.860309468
 20
1343.4780259731
 30
0.0
 11
117.9547569094
 21
1343.4775929235
 31
0.0
  0
LINE
  5
394
330
24B
100
AcDbEntity
  8
490147031_RAHMEN
  6
Continuous
 62
     7
100
AcDbLine
 10
218.8477146032
 20
1307.1506638891
 30
0.0
 11
218.8337319883
 21
1307.0666935789
 31
0.0
  0
LINE
  5
395
330
24B
100
AcDbEntity
  8
490147031_RAHMEN
  6
Continuous
 62
     7
100
AcDbLine
 10
117.8617992156
 20
1343.5508604741
 30
0.0
 11
117.8757818305
 21
1343.6348307843
 31
0.0
  0
LINE
  5
396
330
24B
100
AcDbEntity
  8
490147031_RAHMEN
  6
Continuous
 62
     7
100
AcDbLine
 10
218.8492043508
 20
1307.22349839
 30
0.0
 11
218.7547569094
 21
1307.2239314397
 31
0.0
  0
LINE
  5
397
330
24B
100
AcDbEntity
  8
490147031_RAHMEN
  6
Continuous
 62
     7
100
AcDbLine
 10
117.8757818305
 20
1307.0666935789
 30
0.0
 11
117.8617992156
 21
1307.1506638891
 31
0.0
  0
LINE
  5
398
330
24B
100
AcDbEntity
  8
490147031_RAHMEN
  6
Continuous
 62
     7
100
AcDbLine
 10
117.9547569094
 20
1307.2239314397
 30
0.0
 11
117.860309468
 21
1307.22349839
 31
0.0
  0
LINE
  5
399
330
24B
100
AcDbEntity
  8
490147031_RAHMEN
  6
Continuous
 62
     7
100
AcDbLine
 10
218.7547569094
 20
1293.4775929235
 30
0.0
 11
218.8492043508
 21
1293.4780259731
 31
0.0
  0
LINE
  5
39A
330
24B
100
AcDbEntity
  8
490147031_RAHMEN
  6
Continuous
 62
     7
100
AcDbLine
 10
218.8337319883
 20
1293.6348307843
 30
0.0
 11
218.8477146032
 21
1293.5508604741
 31
0.0
  0
LINE
  5
39B
330
24B
100
AcDbEntity
  8
490147031_RAHMEN
  6
Continuous
 62
     7
100
AcDbLine
 10
117.860309468
 20
1293.4780259731
 30
0.0
 11
117.9547569094
 21
1293.4775929235
 31
0.0
  0
LINE
  5
39C
330
24B
100
AcDbEntity
  8
490147031_RAHMEN
  6
Continuous
 62
     7
100
AcDbLine
 10
117.8617992156
 20
1293.5508604741
 30
0.0
 11
117.8757818305
 21
1293.6348307843
 31
0.0
  0
LINE
  5
39D
330
24B
100
AcDbEntity
  8
490656XXX_VM_ABD
  6
Continuous
 62
     7
100
AcDbLine
 10
76.4047569094
 20
1401.3007621816
 30
0.0
 11
260.3047569094
 21
1401.3007621816
 31
0.0
  0
ARC
  5
39E
330
24B
100
AcDbEntity
  8
490656XXX_VM_ABD
  6
Continuous
 62
     7
100
AcDbCircle
 10
260.3047569094
 20
1396.8007621816
 30
0.0
 40
4.49999999999999
100
AcDbArc
 50
0.0
 51
90.0
  0
LINE
  5
39F
330
24B
100
AcDbEntity
  8
490656XXX_VM_ABD
  6
Continuous
 62
     7
100
AcDbLine
 10
264.8047569094
 20
1396.8007621816
 30
0.0
 11
264.8047569094
 21
1253.9007621816
 31
0.0
  0
LINE
  5
3A0
330
24B
100
AcDbEntity
  8
490656XXX_VM_ABD
  6
Continuous
 62
     7
100
AcDbLine
 10
217.8547569094
 20
1366.8507621816
 30
0.0
 11
118.8547569094
 21
1366.8507621816
 31
0.0
  0
ARC
  5
3A1
330
24B
100
AcDbEntity
  8
490656XXX_VM_ABD
  6
Continuous
 62
     7
100
AcDbCircle
 10
217.8547569094
 20
1359.8507621816
 30
0.0
 40
6.999999999999999
100
AcDbArc
 50
0.0
 51
90.0
  0
LINE
  5
3A2
330
24B
100
AcDbEntity
  8
490656XXX_VM_ABD
  6
Continuous
 62
     7
100
AcDbLine
 10
224.8547569094
 20
1290.8507621816
 30
0.0
 11
224.8547569094
 21
1359.8507621816
 31
0.0
  0
ARC
  5
3A3
330
24B
100
AcDbEntity
  8
490656XXX_VM_ABD
  6
Continuous
 62
     7
100
AcDbCircle
 10
260.3047569094
 20
1253.9007621816
 30
0.0
 40
4.49999999999999
100
AcDbArc
 50
270.0
 51
0.0
  0
LINE
  5
3A4
330
24B
100
AcDbEntity
  8
490656XXX_VM_ABD
  6
Continuous
 62
     7
100
AcDbLine
 10
76.4047569094
 20
1249.4007621816
 30
0.0
 11
260.3047569094
 21
1249.4007621816
 31
0.0
  0
ARC
  5
3A5
330
24B
100
AcDbEntity
  8
490656XXX_VM_ABD
  6
Continuous
 62
     7
100
AcDbCircle
 10
217.8547569094
 20
1290.8507621816
 30
0.0
 40
6.999999999999999
100
AcDbArc
 50
270.0
 51
0.0
  0
LINE
  5
3A6
330
24B
100
AcDbEntity
  8
490656XXX_VM_ABD
  6
Continuous
 62
     7
100
AcDbLine
 10
217.8547569094
 20
1283.8507621816
 30
0.0
 11
118.8547569094
 21
1283.8507621816
 31
0.0
  0
LINE
  5
3A7
330
24B
100
AcDbEntity
  8
490656XXX_VM_ABD
  6
Continuous
 62
     7
100
AcDbLine
 10
71.9047569094
 20
1396.8007621816
 30
0.0
 11
71.9047569094
 21
1253.9007621816
 31
0.0
  0
ARC
  5
3A8
330
24B
100
AcDbEntity
  8
490656XXX_VM_ABD
  6
Continuous
 62
     7
100
AcDbCircle
 10
76.4047569094
 20
1396.8007621816
 30
0.0
 40
4.49999999999999
100
AcDbArc
 50
90.0
 51
180.0
  0
LINE
  5
3A9
330
24B
100
AcDbEntity
  8
490656XXX_VM_ABD
  6
Continuous
 62
     7
100
AcDbLine
 10
111.8547569094
 20
1290.8507621816
 30
0.0
 11
111.8547569094
 21
1359.8507621816
 31
0.0
  0
ARC
  5
3AA
330
24B
100
AcDbEntity
  8
490656XXX_VM_ABD
  6
Continuous
 62
     7
100
AcDbCircle
 10
118.8547569094
 20
1359.8507621816
 30
0.0
 40
6.999999999999999
100
AcDbArc
 50
90.0
 51
180.0
  0
ARC
  5
3AB
330
24B
100
AcDbEntity
  8
490656XXX_VM_ABD
  6
Continuous
 62
     7
100
AcDbCircle
 10
76.4047569094
 20
1253.9007621816
 30
0.0
 40
4.49999999999999
100
AcDbArc
 50
180.0
 51
270.0
  0
ARC
  5
3AC
330
24B
100
AcDbEntity
  8
490656XXX_VM_ABD
  6
Continuous
 62
     7
100
AcDbCircle
 10
118.8547569094
 20
1290.8507621816
 30
0.0
 40
6.999999999999999
100
AcDbArc
 50
180.0
 51
270.0
  0
ENDBLK
  5
3AE
330
24B
100
AcDbEntity
  8
0
100
AcDbBlockEnd
  0
BLOCK
  5
3C1
330
3AF
100
AcDbEntity
  8
0
100
AcDbBlockBegin
  2
SE4
 70
     0
 10
0.0
 20
0.0
 30
0.0
  3
SE4
  1

  0
LINE
  5
3B1
330
3AF
100
AcDbEntity
  8
490147031_RAHMEN
  6
Continuous
 62
     7
100
AcDbLine
 10
75.8538430803
 20
1029.1508335637
 30
0.0
 11
260.8556707385
 21
1029.1508335637
 31
0.0
  0
LINE
  5
3B2
330
3AF
100
AcDbEntity
  8
490147031_RAHMEN
  6
Continuous
 62
     7
100
AcDbLine
 10
69.8547569094
 20
1029.1508335637
 30
0.0
 11
75.8538430803
 21
1029.1508335637
 31
0.0
  0
LINE
  5
3B3
330
3AF
100
AcDbEntity
  8
490147031_RAHMEN
  6
Continuous
 62
     7
100
AcDbLine
 10
260.8556707385
 20
1029.1508335637
 30
0.0
 11
266.8547569094
 21
1029.1508335637
 31
0.0
  0
LINE
  5
3B4
330
3AF
100
AcDbEntity
  8
490147031_RAHMEN
  6
Continuous
 62
     7
100
AcDbLine
 10
266.8547569094
 20
1029.1508335637
 30
0.0
 11
266.7499655933
 21
1023.1473430824
 31
0.0
  0
LINE
  5
3B5
330
3AF
100
AcDbEntity
  8
490147031_RAHMEN
  6
Continuous
 62
     7
100
AcDbLine
 10
69.9595482256
 20
1023.1473430824
 30
0.0
 11
69.8547569094
 21
1029.1508335637
 31
0.0
  0
LINE
  5
3B6
330
3AF
100
AcDbEntity
  8
490147031_RAHMEN
  6
Continuous
 62
     7
100
AcDbLine
 10
266.5499960542
 20
1022.9508335637
 30
0.0
 11
260.7508794223
 21
1022.9508335637
 31
0.0
  0
LINE
  5
3B7
330
3AF
100
AcDbEntity
  8
490147031_RAHMEN
  6
Continuous
 62
     7
100
AcDbLine
 10
260.7508794223
 20
1022.9508335637
 30
0.0
 11
75.9586343965
 21
1022.9508335637
 31
0.0
  0
LINE
  5
3B8
330
3AF
100
AcDbEntity
  8
490147031_RAHMEN
  6
Continuous
 62
     7
100
AcDbLine
 10
75.9586343965
 20
1022.9508335637
 30
0.0
 11
70.1595177646
 21
1022.9508335637
 31
0.0
  0
ARC
  5
3B9
330
3AF
100
AcDbEntity
  8
490147031_RAHMEN
  6
Continuous
 62
     7
100
AcDbCircle
 10
266.5499960542
 20
1023.1508335637
 30
0.0
 40
0.1999999999999997
100
AcDbArc
 50
270.0
 51
359.0
  0
ARC
  5
3BA
330
3AF
100
AcDbEntity
  8
490147031_RAHMEN
  6
Continuous
 62
     7
100
AcDbCircle
 10
70.1595177646
 20
1023.1508335637
 30
0.0
 40
0.1999999999999997
100
AcDbArc
 50
181.0
 51
270.0
  0
ARC
  5
3BB
330
3AF
100
AcDbEntity
  8
490147031_RAHMEN
  6
Continuous
 62
     7
100
AcDbCircle
 10
255.051296362
 20
1029.3508335637
 30
0.0
 40
0.2000000000000079
100
AcDbArc
 50
181.0
 51
270.0
  0
LINE
  5
3BC
330
3AF
100
AcDbEntity
  8
490656XXX_VM_ABD
  6
Continuous
 62
     7
100
AcDbLine
 10
262.3047569094
 20
1020.5508335637
 30
0.0
 11
260.3047569094
 21
1020.5508335637
 31
0.0
  0
LINE
  5
3BD
330
3AF
100
AcDbEntity
  8
490656XXX_VM_ABD
  6
Continuous
 62
     7
100
AcDbLine
 10
260.3047569094
 20
1020.5508335637
 30
0.0
 11
76.4047569094
 21
1020.5508335637
 31
0.0
  0
ARC
  5
3BE
330
3AF
100
AcDbEntity
  8
490656XXX_VM_ABD
  6
Continuous
 62
     7
100
AcDbCircle
 10
262.3047569094
 20
1023.0508335637
 30
0.0
 40
2.5
100
AcDbArc
 50
270.0
 51
357.707557224
  0
ARC
  5
3BF
330
3AF
100
AcDbEntity
  8
490656XXX_VM_ABD
  6
Continuous
 62
     7
100
AcDbCircle
 10
74.4047569094
 20
1023.0508335637
 30
0.0
 40
2.5
100
AcDbArc
 50
182.292442776
 51
270.0
  0
LINE
  5
3C0
330
3AF
100
AcDbEntity
  8
490656XXX_VM_ABD
  6
Continuous
 62
     7
100
AcDbLine
 10
74.4047569094
 20
1020.5508335637
 30
0.0
 11
76.4047569094
 21
1020.5508335637
 31
0.0
  0
ENDBLK
  5
3C2
330
3AF
100
AcDbEntity
  8
0
100
AcDbBlockEnd
  0
BLOCK
  5
3D5
330
3C3
100
AcDbEntity
  8
0
100
AcDbBlockBegin
  2
SE5
 70
     0
 10
0.0
 20
0.0
 30
0.0
  3
SE5
  1

  0
LINE
  5
3C5
330
3C3
100
AcDbEntity
  8
490147031_RAHMEN
  6
Continuous
 62
     7
100
AcDbLine
 10
478.716075044
 20
1397.3516760107
 30
0.0
 11
478.716075044
 21
1403.3507621816
 31
0.0
  0
LINE
  5
3C6
330
3C3
100
AcDbEntity
  8
490147031_RAHMEN
  6
Continuous
 62
     7
100
AcDbLine
 10
478.716075044
 20
1403.3507621816
 30
0.0
 11
484.7195655253
 21
1403.2459708654
 31
0.0
  0
LINE
  5
3C7
330
3C3
100
AcDbEntity
  8
490147031_RAHMEN
  6
Continuous
 62
     7
100
AcDbLine
 10
478.716075044
 20
1253.3498483525
 30
0.0
 11
478.716075044
 21
1397.3516760107
 31
0.0
  0
LINE
  5
3C8
330
3C3
100
AcDbEntity
  8
490147031_RAHMEN
  6
Continuous
 62
     7
100
AcDbLine
 10
478.716075044
 20
1247.3507621816
 30
0.0
 11
478.716075044
 21
1253.3498483525
 31
0.0
  0
ARC
  5
3C9
330
3C3
100
AcDbEntity
  8
490147031_RAHMEN
  6
Continuous
 62
     7
100
AcDbCircle
 10
478.516075044
 20
1367.1674959468
 30
0.0
 40
0.1999999999999967
100
AcDbArc
 50
0.0
 51
85.0
  0
LINE
  5
3CA
330
3C3
100
AcDbEntity
  8
490147031_RAHMEN
  6
Continuous
 62
     7
100
AcDbLine
 10
484.916075044
 20
1403.0460013264
 30
0.0
 11
484.916075044
 21
1397.2468846945
 31
0.0
  0
LINE
  5
3CB
330
3C3
100
AcDbEntity
  8
490147031_RAHMEN
  6
Continuous
 62
     7
100
AcDbLine
 10
484.916075044
 20
1253.4546396687
 30
0.0
 11
484.916075044
 21
1247.6555230368
 31
0.0
  0
LINE
  5
3CC
330
3C3
100
AcDbEntity
  8
490147031_RAHMEN
  6
Continuous
 62
     7
100
AcDbLine
 10
484.916075044
 20
1397.2468846945
 30
0.0
 11
484.916075044
 21
1253.4546396687
 31
0.0
  0
LINE
  5
3CD
330
3C3
100
AcDbEntity
  8
490147031_RAHMEN
  6
Continuous
 62
     7
100
AcDbLine
 10
484.7195655253
 20
1247.4555534977
 30
0.0
 11
478.716075044
 21
1247.3507621816
 31
0.0
  0
ARC
  5
3CE
330
3C3
100
AcDbEntity
  8
490147031_RAHMEN
  6
Continuous
 62
     7
100
AcDbCircle
 10
484.716075044
 20
1247.6555230368
 30
0.0
 40
0.199999999999994
100
AcDbArc
 50
271.0
 51
0.0
  0
ARC
  5
3CF
330
3C3
100
AcDbEntity
  8
490147031_RAHMEN
  6
Continuous
 62
     7
100
AcDbCircle
 10
484.716075044
 20
1403.0460013264
 30
0.0
 40
0.1999999999999997
100
AcDbArc
 50
0.0
 51
89.0
  0
LINE
  5
3D0
330
3C3
100
AcDbEntity
  8
490656XXX_VM_ABD
  6
Continuous
 62
     7
100
AcDbLine
 10
487.316075044
 20
1253.9007621816
 30
0.0
 11
487.316075044
 21
1251.9007621816
 31
0.0
  0
LINE
  5
3D1
330
3C3
100
AcDbEntity
  8
490656XXX_VM_ABD
  6
Continuous
 62
     7
100
AcDbLine
 10
487.316075044
 20
1253.9007621816
 30
0.0
 11
487.316075044
 21
1396.8007621816
 31
0.0
  0
LINE
  5
3D2
330
3C3
100
AcDbEntity
  8
490656XXX_VM_ABD
  6
Continuous
 62
     7
100
AcDbLine
 10
487.316075044
 20
1396.8007621816
 30
0.0
 11
487.316075044
 21
1398.8007621816
 31
0.0
  0
ARC
  5
3D3
330
3C3
100
AcDbEntity
  8
490656XXX_VM_ABD
  6
Continuous
 62
     7
100
AcDbCircle
 10
484.816075044
 20
1398.8007621816
 30
0.0
 40
2.499999999999999
100
AcDbArc
 50
0.0
 51
87.707557224
  0
ARC
  5
3D4
330
3C3
100
AcDbEntity
  8
490656XXX_VM_ABD
  6
Continuous
 62
     7
100
AcDbCircle
 10
484.816075044
 20
1251.9007621816
 30
0.0
 40
2.5
100
AcDbArc
 50
272.292442776
 51
0.0
  0
ENDBLK
  5
3D6
330
3C3
100
AcDbEntity
  8
0
100
AcDbBlockEnd
  0
BLOCK
  5
539
330
3D7
100
AcDbEntity
  8
0
100
AcDbBlockBegin
  2
SE6
 70
     0
 10
0.0
 20
0.0
 30
0.0
  3
SE6
  1

  0
LINE
  5
3D9
330
3D7
100
AcDbEntity
  8
$DDT_AUDIT_GENERATED_(D0)
  6
Continuous
 62
     7
100
AcDbLine
 10
111.2202367903
 20
505.3313300343
 30
0.0
 11
143.030912538
 21
505.3313300343
 31
0.0
  0
ELLIPSE
  5
3DA
330
3D7
100
AcDbEntity
  8
$DDT_AUDIT_GENERATED_(D0)
  6
Continuous
 62
     7
100
AcDbEllipse
 10
111.2205414232
 20
506.3314823624
 30
0.0
 11
0.7073221891695809
 21
0.7073221891695811
 31
0.0
210
0.0
220
0.0
230
0.9999999999999999
 40
0.9996954599
 41
2.356346783439889
 42
3.926838523739612
  0
LINE
  5
3DB
330
3D7
100
AcDbEntity
  8
$DDT_AUDIT_GENERATED_(D0)
  6
Continuous
 62
     7
100
AcDbLine
 10
110.2203890952
 20
573.9314823392
 30
0.0
 11
110.2203890952
 21
506.3311777295
 31
0.0
  0
ELLIPSE
  5
3DC
330
3D7
100
AcDbEntity
  8
$DDT_AUDIT_GENERATED_(D0)
  6
Continuous
 62
     7
100
AcDbEllipse
 10
111.2205414232
 20
573.9311777063
 30
0.0
 11
0.7073221891695811
 21
-0.7073221891695809
 31
0.0
210
0.0
220
0.0
230
0.9999999999999999
 40
0.9996954599
 41
2.35634678343986
 42
3.926838523739583
  0
LINE
  5
3DD
330
3D7
100
AcDbEntity
  8
$DDT_AUDIT_GENERATED_(D0)
  6
Continuous
 62
     7
100
AcDbLine
 10
178.8205414
 20
574.9313300343
 30
0.0
 11
111.2202367903
 21
574.9313300343
 31
0.0
  0
ELLIPSE
  5
3DE
330
3D7
100
AcDbEntity
  8
$DDT_AUDIT_GENERATED_(D0)
  6
Continuous
 62
     7
100
AcDbEllipse
 10
178.8202367671
 20
573.9311777063
 30
0.0
 11
-0.7073221891695809
 21
-0.7073221891695811
 31
0.0
210
0.0
220
0.0
230
0.9999999999999999
 40
0.9996954599
 41
2.356346783440002
 42
3.926838523739725
  0
LINE
  5
3DF
330
3D7
100
AcDbEntity
  8
$DDT_AUDIT_GENERATED_(D0)
  6
Continuous
 62
     7
100
AcDbLine
 10
179.8203890952
 20
506.3311777295
 30
0.0
 11
179.8203890952
 21
573.9314823392
 31
0.0
  0
ELLIPSE
  5
3E0
330
3D7
100
AcDbEntity
  8
$DDT_AUDIT_GENERATED_(D0)
  6
Continuous
 62
     7
100
AcDbEllipse
 10
178.8202367671
 20
506.3314823624
 30
0.0
 11
-0.7073221891695811
 21
0.7073221891695809
 31
0.0
210
0.0
220
0.0
230
0.9999999999999999
 40
0.9996954599
 41
2.356346783439946
 42
3.926838523739669
  0
LINE
  5
3E1
330
3D7
100
AcDbEntity
  8
$DDT_AUDIT_GENERATED_(D0)
  6
Continuous
 62
     7
100
AcDbLine
 10
143.2301514777
 20
505.3281432832
 30
0.0
 11
143.4804573332
 21
505.278204185
 31
0.0
  0
ELLIPSE
  5
3E2
330
3D7
100
AcDbEntity
  8
$DDT_AUDIT_GENERATED_(D0)
  6
Continuous
 62
     7
100
AcDbEllipse
 10
143.030912538
 20
505.3278390214
 30
0.0
 11
0.2000000000000001
 21
3.522281169496055E-17
 31
0.0
210
0.0
220
0.0
230
1.0
 40
0.0174550649
 41
0.0872664626002539
 42
1.570796326794897
  0
LINE
  5
3E3
330
3D7
100
AcDbEntity
  8
$DDT_AUDIT_GENERATED_(D0)
  6
Continuous
 62
     7
100
AcDbLine
 10
147.0098656523
 20
505.3313300343
 30
0.0
 11
178.8205414
 21
505.3313300343
 31
0.0
  0
ELLIPSE
  5
3E4
330
3D7
100
AcDbEntity
  8
$DDT_AUDIT_GENERATED_(D0)
  6
Continuous
 62
     7
100
AcDbEllipse
 10
147.0098656523
 20
505.3278390214
 30
0.0
 11
-0.2000000000000001
 21
-3.522281169496055E-17
 31
0.0
210
0.0
220
0.0
230
1.0
 40
0.0174550649
 41
4.71238898038469
 42
6.195918844580963
  0
LINE
  5
3E5
330
3D7
100
AcDbEntity
  8
$DDT_AUDIT_GENERATED_(D0)
  6
Continuous
 62
     7
100
AcDbLine
 10
143.9785546822
 20
505.2702373071
 30
0.0
 11
146.0622235082
 21
505.2702373071
 31
0.0
  0
ELLIPSE
  5
3E6
330
3D7
100
AcDbEntity
  8
$DDT_AUDIT_GENERATED_(D0)
  6
Continuous
 62
     7
100
AcDbEllipse
 10
143.9785546822
 20
505.2789648396
 30
0.0
 11
-0.5000000000000004
 21
-7.026950933144630E-15
 31
0.0
210
0.0
220
0.0
230
1.0
 40
0.0174550649
 41
0.0872664625996068
 42
1.570796326794839
  0
LINE
  5
3E7
330
3D7
100
AcDbEntity
  8
$DDT_AUDIT_GENERATED_(D0)
  6
Continuous
 62
     7
100
AcDbLine
 10
146.5603208572
 20
505.278204185
 30
0.0
 11
146.8106267127
 21
505.3281432832
 31
0.0
  0
ELLIPSE
  5
3E8
330
3D7
100
AcDbEntity
  8
$DDT_AUDIT_GENERATED_(D0)
  6
Continuous
 62
     7
100
AcDbEllipse
 10
146.0622235082
 20
505.2789648396
 30
0.0
 11
-0.4999999999999998
 21
-8.805702923740131E-17
 31
0.0
210
0.0
220
0.0
230
1.0
 40
0.0174550649
 41
1.570796326794897
 42
3.05432619098955
  0
LINE
  5
3E9
330
3D7
100
AcDbEntity
  8
$DDT_AUDIT_GENERATED_(E1)
  6
Continuous
 62
     7
100
AcDbLine
 10
178.8205414
 20
604.8813300343
 30
0.0
 11
147.0098656523
 21
604.8813300343
 31
0.0
  0
ELLIPSE
  5
3EA
330
3D7
100
AcDbEntity
  8
$DDT_AUDIT_GENERATED_(E1)
  6
Continuous
 62
     7
100
AcDbEllipse
 10
178.8202367671
 20
603.8811777063
 30
0.0
 11
-0.7073221891695809
 21
-0.7073221891695811
 31
0.0
210
0.0
220
0.0
230
0.9999999999999999
 40
0.9996954599
 41
2.356346783439889
 42
3.926838523739725
  0
LINE
  5
3EB
330
3D7
100
AcDbEntity
  8
$DDT_AUDIT_GENERATED_(E1)
  6
Continuous
 62
     7
100
AcDbLine
 10
110.2203890952
 20
603.8814823392
 30
0.0
 11
110.2203890952
 21
576.5811777295
 31
0.0
  0
ELLIPSE
  5
3EC
330
3D7
100
AcDbEntity
  8
$DDT_AUDIT_GENERATED_(E1)
  6
Continuous
 62
     7
100
AcDbEllipse
 10
111.2205414232
 20
603.8811777063
 30
0.0
 11
0.7073221891695811
 21
-0.7073221891695809
 31
0.0
210
0.0
220
0.0
230
0.9999999999999999
 40
0.9996954599
 41
2.356346783439832
 42
3.926838523739697
  0
LINE
  5
3ED
330
3D7
100
AcDbEntity
  8
$DDT_AUDIT_GENERATED_(E1)
  6
Continuous
 62
     7
100
AcDbLine
 10
111.2202367903
 20
575.5813300343
 30
0.0
 11
178.8205414
 21
575.5813300343
 31
0.0
  0
ELLIPSE
  5
3EE
330
3D7
100
AcDbEntity
  8
$DDT_AUDIT_GENERATED_(E1)
  6
Continuous
 62
     7
100
AcDbEllipse
 10
111.2205414232
 20
576.5814823624
 30
0.0
 11
0.7073221891695809
 21
0.7073221891695811
 31
0.0
210
0.0
220
0.0
230
0.9999999999999999
 40
0.9996954599
 41
2.356346783439889
 42
3.926838523739626
  0
LINE
  5
3EF
330
3D7
100
AcDbEntity
  8
$DDT_AUDIT_GENERATED_(E1)
  6
Continuous
 62
     7
100
AcDbLine
 10
179.8203890952
 20
576.5811777295
 30
0.0
 11
179.8203890952
 21
603.8814823392
 31
0.0
  0
ELLIPSE
  5
3F0
330
3D7
100
AcDbEntity
  8
$DDT_AUDIT_GENERATED_(E1)
  6
Continuous
 62
     7
100
AcDbEllipse
 10
178.8202367671
 20
576.5814823624
 30
0.0
 11
-0.7073221891695811
 21
0.7073221891695809
 31
0.0
210
0.0
220
0.0
230
0.9999999999999999
 40
0.9996954599
 41
2.356346783439974
 42
3.926838523739697
  0
LINE
  5
3F1
330
3D7
100
AcDbEntity
  8
$DDT_AUDIT_GENERATED_(E1)
  6
Continuous
 62
     7
100
AcDbLine
 10
146.5603208572
 20
604.9344558837
 30
0.0
 11
146.8106267127
 21
604.8845167855
 31
0.0
  0
ELLIPSE
  5
3F2
330
3D7
100
AcDbEntity
  8
$DDT_AUDIT_GENERATED_(E1)
  6
Continuous
 62
     7
100
AcDbEllipse
 10
146.0622235082
 20
604.9336952291
 30
0.0
 11
0.4999999999999996
 21
-6.850836874669827E-15
 31
0.0
210
0.0
220
0.0
230
1.0
 40
0.0174550649
 41
0.0872664625995864
 42
1.570796326794897
  0
LINE
  5
3F3
330
3D7
100
AcDbEntity
  8
$DDT_AUDIT_GENERATED_(E1)
  6
Continuous
 62
     7
100
AcDbLine
 10
143.9785546822
 20
604.9424227616
 30
0.0
 11
146.0622235082
 21
604.9424227616
 31
0.0
  0
ELLIPSE
  5
3F4
330
3D7
100
AcDbEntity
  8
$DDT_AUDIT_GENERATED_(E1)
  6
Continuous
 62
     7
100
AcDbEllipse
 10
143.9785546822
 20
604.9336952291
 30
0.0
 11
-0.5000000000000007
 21
-8.805702923740146E-17
 31
0.0
210
0.0
220
0.0
230
1.0
 40
0.0174550649
 41
4.71238898038469
 42
6.195918844579322
  0
ELLIPSE
  5
3F5
330
3D7
100
AcDbEntity
  8
$DDT_AUDIT_GENERATED_(E1)
  6
Continuous
 62
     7
100
AcDbEllipse
 10
147.0098656523
 20
604.8848210473
 30
0.0
 11
-0.2000000000000003
 21
-3.522281169496059E-17
 31
0.0
210
0.0
220
0.0
230
1.0
 40
0.0174550649
 41
0.0872664625970056
 42
1.570796326794897
  0
LINE
  5
3F6
330
3D7
100
AcDbEntity
  8
$DDT_AUDIT_GENERATED_(E1)
  6
Continuous
 62
     7
100
AcDbLine
 10
143.030912538
 20
604.8813300343
 30
0.0
 11
111.2202367903
 21
604.8813300343
 31
0.0
  0
LINE
  5
3F7
330
3D7
100
AcDbEntity
  8
$DDT_AUDIT_GENERATED_(E1)
  6
Continuous
 62
     7
100
AcDbLine
 10
143.2301514777
 20
604.8845167855
 30
0.0
 11
143.4804573332
 21
604.9344558837
 31
0.0
  0
ELLIPSE
  5
3F8
330
3D7
100
AcDbEntity
  8
$DDT_AUDIT_GENERATED_(E1)
  6
Continuous
 62
     7
100
AcDbEllipse
 10
143.030912538
 20
604.8848210473
 30
0.0
 11
0.2000000000000001
 21
3.522281169496055E-17
 31
0.0
210
0.0
220
0.0
230
1.0
 40
0.0174550649
 41
4.71238898038469
 42
6.195918844580963
  0
LINE
  5
3F9
330
3D7
100
AcDbEntity
  8
$DDT_AUDIT_GENERATED_(F2)
  6
Continuous
 62
     7
100
AcDbLine
 10
176.4203890952
 20
574.9313300343
 30
0.0
 11
176.4203890952
 21
575.5813300343
 31
0.0
  0
LINE
  5
3FA
330
3D7
100
AcDbEntity
  8
$DDT_AUDIT_GENERATED_(F2)
  6
Continuous
 62
     7
100
AcDbLine
 10
172.6203890952
 20
575.5813300343
 30
0.0
 11
172.6203890952
 21
574.9313300343
 31
0.0
  0
LINE
  5
3FB
330
3D7
100
AcDbEntity
  8
$DDT_AUDIT_GENERATED_(F2)
  6
Continuous
 62
     7
100
AcDbLine
 10
113.6203890952
 20
574.9313300343
 30
0.0
 11
113.6203890952
 21
575.5813300343
 31
0.0
  0
LINE
  5
3FC
330
3D7
100
AcDbEntity
  8
$DDT_AUDIT_GENERATED_(F2)
  6
Continuous
 62
     7
100
AcDbLine
 10
117.4203890952
 20
575.5813300343
 30
0.0
 11
117.4203890952
 21
574.9313300343
 31
0.0
  0
LINE
  5
3FD
330
3D7
100
AcDbEntity
  8
$DDT_AUDIT_GENERATED_(F2)
  6
Continuous
 62
     7
100
AcDbLine
 10
180.4357929569
 20
566.4488726824
 30
0.0
 11
180.5169590088
 21
569.1335514341
 31
0.0
  0
ELLIPSE
  5
3FE
330
3D7
100
AcDbEntity
  8
$DDT_AUDIT_GENERATED_(F2)
  6
Continuous
 62
     7
100
AcDbEllipse
 10
134.0954195608
 20
605.3527517766
 30
0.0
 11
0.1414644378339162
 21
-0.1414644378339161
 31
0.0
210
0.0
220
0.0
230
1.0
 40
0.9996954599
 41
2.356346783440258
 42
3.926838523739753
  0
LINE
  5
3FF
330
3D7
100
AcDbEntity
  8
$DDT_AUDIT_GENERATED_(F2)
  6
Continuous
 62
     7
100
AcDbLine
 10
155.9454195562
 20
605.5527822422
 30
0.0
 11
134.0953586342
 21
605.5527822422
 31
0.0
  0
LINE
  5
400
330
3D7
100
AcDbEntity
  8
$DDT_AUDIT_GENERATED_(F2)
  6
Continuous
 62
     7
100
AcDbLine
 10
156.0698784194
 20
605.5649599246
 30
0.0
 11
157.8636552507
 21
605.5962704156
 31
0.0
  0
LINE
  5
401
330
3D7
100
AcDbEntity
  8
$DDT_AUDIT_GENERATED_(F2)
  6
Continuous
 62
     7
100
AcDbLine
 10
157.8636552507
 20
605.5962704156
 30
0.0
 11
158.7086302305
 21
605.6278999479
 31
0.0
  0
ELLIPSE
  5
402
330
3D7
100
AcDbEntity
  8
$DDT_AUDIT_GENERATED_(F2)
  6
Continuous
 62
     7
100
AcDbEllipse
 10
155.9453586296
 20
605.3527517766
 30
0.0
 11
-0.1414644378339162
 21
-0.1414644378339162
 31
0.0
210
0.0
220
0.0
230
1.0
 40
0.9996954599
 41
2.356346783439832
 42
3.926838523739328
  0
LINE
  5
403
330
3D7
100
AcDbEntity
  8
$DDT_AUDIT_GENERATED_(F2)
  6
Continuous
 62
     7
100
AcDbLine
 10
154.5727326595
 20
504.8879194888
 30
0.0
 11
135.4680455309
 21
504.8879194888
 31
0.0
  0
LINE
  5
404
330
3D7
100
AcDbEntity
  8
$DDT_AUDIT_GENERATED_(F2)
  6
Continuous
 62
     7
100
AcDbLine
 10
157.5007114762
 20
504.8507665225
 30
0.0
 11
156.0698784194
 21
504.8757418064
 31
0.0
  0
ELLIPSE
  5
405
330
3D7
100
AcDbEntity
  8
$DDT_AUDIT_GENERATED_(F2)
  6
Continuous
 62
     7
100
AcDbEllipse
 10
155.9453586296
 20
505.0879499544
 30
0.0
 11
-0.1414644378339162
 21
0.1414644378339161
 31
0.0
210
0.0
220
0.0
230
1.0
 40
0.9996954599
 41
2.356346783439406
 42
3.027700465472005
  0
LINE
  5
406
330
3D7
100
AcDbEntity
  8
$DDT_AUDIT_GENERATED_(F2)
  6
Continuous
 62
     7
100
AcDbLine
 10
133.970899771
 20
504.8757418064
 30
0.0
 11
132.5400667141
 21
504.8507665225
 31
0.0
  0
ELLIPSE
  5
407
330
3D7
100
AcDbEntity
  8
$DDT_AUDIT_GENERATED_(F2)
  6
Continuous
 62
     7
100
AcDbEllipse
 10
134.0954195608
 20
505.0879499544
 30
0.0
 11
0.1414644378339161
 21
0.1414644378339162
 31
0.0
210
0.0
220
0.0
230
1.0
 40
0.9996954599
 41
3.255484841705811
 42
3.926838523740038
  0
LINE
  5
408
330
3D7
100
AcDbEntity
  8
$DDT_AUDIT_GENERATED_(F2)
  6
Continuous
 62
     7
100
AcDbLine
 10
109.7769785496
 20
537.8995651484
 30
0.0
 11
109.7769785496
 21
542.3630949202
 31
0.0
  0
LINE
  5
409
330
3D7
100
AcDbEntity
  8
$DDT_AUDIT_GENERATED_(F2)
  6
Continuous
 62
     7
100
AcDbLine
 10
180.2637996407
 20
537.8995651484
 30
0.0
 11
180.2637996407
 21
542.3630949202
 31
0.0
  0
LINE
  5
40A
330
3D7
100
AcDbEntity
  8
$DDT_AUDIT_GENERATED_(F2)
  6
Continuous
 62
     7
100
AcDbLine
 10
131.3321479598
 20
605.6278999479
 30
0.0
 11
132.1771229397
 21
605.5962704156
 31
0.0
  0
LINE
  5
40B
330
3D7
100
AcDbEntity
  8
$DDT_AUDIT_GENERATED_(F2)
  6
Continuous
 62
     7
100
AcDbLine
 10
112.9701150021
 20
504.7313300343
 30
0.0
 11
126.9706631882
 21
504.7313300343
 31
0.0
  0
ELLIPSE
  5
40C
330
3D7
100
AcDbEntity
  8
$DDT_AUDIT_GENERATED_(F2)
  6
Continuous
 62
     7
100
AcDbEllipse
 10
112.9706635644
 20
504.5310555651
 30
0.0
 11
0.1418092486870134
 21
-0.1418092486870134
 31
0.0
210
0.0
220
0.0
230
1.0
 40
0.9972646886
 41
2.357564018063014
 42
3.386709506088664
  0
ELLIPSE
  5
40D
330
3D7
100
AcDbEntity
  8
$DDT_AUDIT_GENERATED_(F2)
  6
Continuous
 62
     7
100
AcDbEllipse
 10
126.970114626
 20
504.5310555651
 30
0.0
 11
-0.1418092486870134
 21
-0.1418092486870133
 31
0.0
210
0.0
220
0.0
230
1.0
 40
0.9972646886
 41
2.898935184941446
 42
3.92562128911714
  0
LINE
  5
40E
330
3D7
100
AcDbEntity
  8
$DDT_AUDIT_GENERATED_(F2)
  6
Continuous
 62
     7
100
AcDbLine
 10
163.0701150021
 20
504.7313300343
 30
0.0
 11
177.0706631882
 21
504.7313300343
 31
0.0
  0
ELLIPSE
  5
40F
330
3D7
100
AcDbEntity
  8
$DDT_AUDIT_GENERATED_(F2)
  6
Continuous
 62
     7
100
AcDbEllipse
 10
163.0706635644
 20
504.5310555651
 30
0.0
 11
0.1418092486870134
 21
-0.1418092486870133
 31
0.0
210
0.0
220
0.0
230
1.0
 40
0.9972646886
 41
2.357564018062516
 42
3.384250122798244
  0
ELLIPSE
  5
410
330
3D7
100
AcDbEntity
  8
$DDT_AUDIT_GENERATED_(F2)
  6
Continuous
 62
     7
100
AcDbEllipse
 10
177.070114626
 20
504.5310555651
 30
0.0
 11
-0.1418092486870134
 21
-0.1418092486870134
 31
0.0
210
0.0
220
0.0
230
1.0
 40
0.9972646886
 41
2.896475801159473
 42
3.925621289116501
  0
ELLIPSE
  5
411
330
3D7
100
AcDbEntity
  8
$DDT_AUDIT_GENERATED_(F2)
  6
Continuous
 62
     7
100
AcDbEllipse
 10
112.9706635644
 20
605.7316045035
 30
0.0
 11
0.1418092486870134
 21
0.1418092486870134
 31
0.0
210
0.0
220
0.0
230
1.0
 40
0.9972646886
 41
2.896475801970511
 42
3.925621289116856
  0
LINE
  5
412
330
3D7
100
AcDbEntity
  8
$DDT_AUDIT_GENERATED_(F2)
  6
Continuous
 62
     7
100
AcDbLine
 10
126.9706631882
 20
605.5313300343
 30
0.0
 11
112.9701150021
 21
605.5313300343
 31
0.0
  0
ELLIPSE
  5
413
330
3D7
100
AcDbEntity
  8
$DDT_AUDIT_GENERATED_(F2)
  6
Continuous
 62
     7
100
AcDbEllipse
 10
126.970114626
 20
605.7316045035
 30
0.0
 11
-0.1418092486870134
 21
0.1418092486870133
 31
0.0
210
0.0
220
0.0
230
1.0
 40
0.9972646886
 41
2.357564018063297
 42
3.384250122574911
  0
ELLIPSE
  5
414
330
3D7
100
AcDbEntity
  8
$DDT_AUDIT_GENERATED_(F2)
  6
Continuous
 62
     7
100
AcDbEllipse
 10
163.0706635644
 20
605.7316045035
 30
0.0
 11
0.1418092486870134
 21
0.1418092486870133
 31
0.0
210
0.0
220
0.0
230
1.0
 40
0.9972646886
 41
2.898935186049976
 42
3.925621289116786
  0
LINE
  5
415
330
3D7
100
AcDbEntity
  8
$DDT_AUDIT_GENERATED_(F2)
  6
Continuous
 62
     7
100
AcDbLine
 10
177.0706631882
 20
605.5313300343
 30
0.0
 11
163.0701150021
 21
605.5313300343
 31
0.0
  0
ELLIPSE
  5
416
330
3D7
100
AcDbEntity
  8
$DDT_AUDIT_GENERATED_(F2)
  6
Continuous
 62
     7
100
AcDbEllipse
 10
177.070114626
 20
605.7316045035
 30
0.0
 11
-0.1418092486870134
 21
0.1418092486870134
 31
0.0
210
0.0
220
0.0
230
1.0
 40
0.9972646886
 41
2.357564018062801
 42
3.386709505815702
  0
LINE
  5
417
330
3D7
100
AcDbEntity
  8
$DDT_AUDIT_GENERATED_(111)
  6
Continuous
 62
     7
100
AcDbLine
 10
111.2202367903
 20
574.9313300343
 30
0.0
 11
110.4660223666
 21
574.9313300343
 31
0.0
  0
LINE
  5
418
330
3D7
100
AcDbEntity
  8
$DDT_AUDIT_GENERATED_(111)
  6
Continuous
 62
     7
100
AcDbLine
 10
180.2703890952
 20
543.3976158625
 30
0.0
 11
180.2703890952
 21
549.6313300343
 31
0.0
  0
LINE
  5
419
330
3D7
100
AcDbEntity
  8
$DDT_AUDIT_GENERATED_(111)
  6
Continuous
 62
     7
100
AcDbLine
 10
180.2703890952
 20
543.3976158625
 30
0.0
 11
180.2703890952
 21
542.4014211644
 31
0.0
  0
LINE
  5
41A
330
3D7
100
AcDbEntity
  8
$DDT_AUDIT_GENERATED_(111)
  6
Continuous
 62
     7
100
AcDbLine
 10
180.2703890952
 20
537.8612389043
 30
0.0
 11
180.2703890952
 21
537.8951106428
 31
0.0
  0
LINE
  5
41B
330
3D7
100
AcDbEntity
  8
$DDT_AUDIT_GENERATED_(111)
  6
Continuous
 62
     7
100
AcDbLine
 10
180.2703890952
 20
537.8612389043
 30
0.0
 11
180.2703890952
 21
536.8650442062
 31
0.0
  0
LINE
  5
41C
330
3D7
100
AcDbEntity
  8
$DDT_AUDIT_GENERATED_(111)
  6
Continuous
 62
     7
100
AcDbLine
 10
148.2866749233
 20
504.9313300343
 30
0.0
 11
154.5203890952
 21
504.9313300343
 31
0.0
  0
LINE
  5
41D
330
3D7
100
AcDbEntity
  8
$DDT_AUDIT_GENERATED_(111)
  6
Continuous
 62
     7
100
AcDbLine
 10
148.2866749233
 20
504.9313300343
 30
0.0
 11
147.2904802252
 21
504.9313300343
 31
0.0
  0
LINE
  5
41E
330
3D7
100
AcDbEntity
  8
$DDT_AUDIT_GENERATED_(111)
  6
Continuous
 62
     7
100
AcDbLine
 10
142.7502979652
 20
504.9313300343
 30
0.0
 11
142.7841697037
 21
504.9313300343
 31
0.0
  0
LINE
  5
41F
330
3D7
100
AcDbEntity
  8
$DDT_AUDIT_GENERATED_(111)
  6
Continuous
 62
     7
100
AcDbLine
 10
142.7502979652
 20
504.9313300343
 30
0.0
 11
141.7541032671
 21
504.9313300343
 31
0.0
  0
LINE
  5
420
330
3D7
100
AcDbEntity
  8
$DDT_AUDIT_GENERATED_(111)
  6
Continuous
 62
     7
100
AcDbLine
 10
109.7703890952
 20
536.8650442062
 30
0.0
 11
109.7703890952
 21
530.6313300343
 31
0.0
  0
LINE
  5
421
330
3D7
100
AcDbEntity
  8
$DDT_AUDIT_GENERATED_(111)
  6
Continuous
 62
     7
100
AcDbLine
 10
109.7703890952
 20
536.8650442062
 30
0.0
 11
109.7703890952
 21
537.8612389043
 31
0.0
  0
LINE
  5
422
330
3D7
100
AcDbEntity
  8
$DDT_AUDIT_GENERATED_(111)
  6
Continuous
 62
     7
100
AcDbLine
 10
109.7703890952
 20
542.4014211644
 30
0.0
 11
109.7703890952
 21
542.3675494259
 31
0.0
  0
LINE
  5
423
330
3D7
100
AcDbEntity
  8
$DDT_AUDIT_GENERATED_(111)
  6
Continuous
 62
     7
100
AcDbLine
 10
109.7703890952
 20
542.4014211644
 30
0.0
 11
109.7703890952
 21
543.3976158625
 31
0.0
  0
LINE
  5
424
330
3D7
100
AcDbEntity
  8
$DDT_AUDIT_GENERATED_(111)
  6
Continuous
 62
     7
100
AcDbLine
 10
173.5221496998
 20
574.9313300343
 30
0.0
 11
173.5221496998
 21
575.0313300343
 31
0.0
  0
LINE
  5
425
330
3D7
100
AcDbEntity
  8
$DDT_AUDIT_GENERATED_(111)
  6
Continuous
 62
     7
100
AcDbLine
 10
173.7221420844
 20
575.2313300343
 30
0.0
 11
175.318636106
 21
575.2313300343
 31
0.0
  0
LINE
  5
426
330
3D7
100
AcDbEntity
  8
$DDT_AUDIT_GENERATED_(111)
  6
Continuous
 62
     7
100
AcDbLine
 10
175.5186284906
 20
575.0313300343
 30
0.0
 11
175.5186284906
 21
574.9313300343
 31
0.0
  0
ARC
  5
427
330
3D7
100
AcDbEntity
  8
$DDT_AUDIT_GENERATED_(111)
  6
Continuous
 62
     7
100
AcDbCircle
 10
175.318636106
 20
575.0313300343
 30
0.0
 40
0.1999923846128342
100
AcDbArc
 50
0.0
 51
90.0
  0
ARC
  5
428
330
3D7
100
AcDbEntity
  8
$DDT_AUDIT_GENERATED_(111)
  6
Continuous
 62
     7
100
AcDbCircle
 10
173.7221420844
 20
575.0313300343
 30
0.0
 40
0.1999999999999988
100
AcDbArc
 50
90.0
 51
180.0
  0
LINE
  5
429
330
3D7
100
AcDbEntity
  8
$DDT_AUDIT_GENERATED_(111)
  6
Continuous
 62
     7
100
AcDbLine
 10
114.7221420844
 20
575.2313300343
 30
0.0
 11
116.318636106
 21
575.2313300343
 31
0.0
  0
LINE
  5
42A
330
3D7
100
AcDbEntity
  8
$DDT_AUDIT_GENERATED_(111)
  6
Continuous
 62
     7
100
AcDbLine
 10
116.5186284906
 20
575.0313300343
 30
0.0
 11
116.5186284906
 21
574.9313300343
 31
0.0
  0
LINE
  5
42B
330
3D7
100
AcDbEntity
  8
$DDT_AUDIT_GENERATED_(111)
  6
Continuous
 62
     7
100
AcDbLine
 10
114.5221496998
 20
574.9313300343
 30
0.0
 11
114.5221496998
 21
575.0313300343
 31
0.0
  0
ARC
  5
42C
330
3D7
100
AcDbEntity
  8
$DDT_AUDIT_GENERATED_(111)
  6
Continuous
 62
     7
100
AcDbCircle
 10
114.7221420844
 20
575.0313300343
 30
0.0
 40
0.1999999999999953
100
AcDbArc
 50
90.0
 51
180.0
  0
ARC
  5
42D
330
3D7
100
AcDbEntity
  8
$DDT_AUDIT_GENERATED_(111)
  6
Continuous
 62
     7
100
AcDbCircle
 10
116.318636106
 20
575.0313300343
 30
0.0
 40
0.2000000000000023
100
AcDbArc
 50
0.0
 51
90.0
  0
LINE
  5
42E
330
3D7
100
AcDbEntity
  8
$DDT_AUDIT_GENERATED_(111)
  6
Continuous
 62
     7
100
AcDbLine
 10
131.2221420844
 20
575.2313300343
 30
0.0
 11
132.818636106
 21
575.2313300343
 31
0.0
  0
LINE
  5
42F
330
3D7
100
AcDbEntity
  8
$DDT_AUDIT_GENERATED_(111)
  6
Continuous
 62
     7
100
AcDbLine
 10
133.0186284906
 20
575.0313300343
 30
0.0
 11
133.0186284906
 21
574.9313300343
 31
0.0
  0
LINE
  5
430
330
3D7
100
AcDbEntity
  8
$DDT_AUDIT_GENERATED_(111)
  6
Continuous
 62
     7
100
AcDbLine
 10
131.0221496998
 20
574.9313300343
 30
0.0
 11
131.0221496998
 21
575.0313300343
 31
0.0
  0
ARC
  5
431
330
3D7
100
AcDbEntity
  8
$DDT_AUDIT_GENERATED_(111)
  6
Continuous
 62
     7
100
AcDbCircle
 10
131.2221420844
 20
575.0313300343
 30
0.0
 40
0.1999999999999988
100
AcDbArc
 50
90.0
 51
180.0
  0
ARC
  5
432
330
3D7
100
AcDbEntity
  8
$DDT_AUDIT_GENERATED_(111)
  6
Continuous
 62
     7
100
AcDbCircle
 10
132.818636106
 20
575.0313300343
 30
0.0
 40
0.1999999999999988
100
AcDbArc
 50
0.0
 51
90.0
  0
LINE
  5
433
330
3D7
100
AcDbEntity
  8
$DDT_AUDIT_GENERATED_(111)
  6
Continuous
 62
     7
100
AcDbLine
 10
157.2221420844
 20
575.2313300343
 30
0.0
 11
158.818636106
 21
575.2313300343
 31
0.0
  0
LINE
  5
434
330
3D7
100
AcDbEntity
  8
$DDT_AUDIT_GENERATED_(111)
  6
Continuous
 62
     7
100
AcDbLine
 10
159.0186284906
 20
575.0313300343
 30
0.0
 11
159.0186284906
 21
574.9313300343
 31
0.0
  0
LINE
  5
435
330
3D7
100
AcDbEntity
  8
$DDT_AUDIT_GENERATED_(111)
  6
Continuous
 62
     7
100
AcDbLine
 10
157.0221496998
 20
574.9313300343
 30
0.0
 11
157.0221496998
 21
575.0313300343
 31
0.0
  0
ARC
  5
436
330
3D7
100
AcDbEntity
  8
$DDT_AUDIT_GENERATED_(111)
  6
Continuous
 62
     7
100
AcDbCircle
 10
157.2221420844
 20
575.0313300343
 30
0.0
 40
0.1999999999999988
100
AcDbArc
 50
90.0
 51
180.0
  0
ARC
  5
437
330
3D7
100
AcDbEntity
  8
$DDT_AUDIT_GENERATED_(111)
  6
Continuous
 62
     7
100
AcDbCircle
 10
158.818636106
 20
575.0313300343
 30
0.0
 40
0.1999999999999988
100
AcDbArc
 50
0.0
 51
90.0
  0
LINE
  5
438
330
3D7
100
AcDbEntity
  8
$DDT_AUDIT_GENERATED_(111)
  6
Continuous
 62
     7
100
AcDbLine
 10
133.0203890952
 20
504.9313300343
 30
0.0
 11
134.0203890952
 21
504.9313300343
 31
0.0
  0
LINE
  5
439
330
3D7
100
AcDbEntity
  8
$DDT_AUDIT_GENERATED_(111)
  6
Continuous
 62
     7
100
AcDbLine
 10
109.7703890952
 20
552.1313300343
 30
0.0
 11
109.7703890952
 21
551.1313300343
 31
0.0
  0
ARC
  5
43A
330
3D7
100
AcDbEntity
  8
$DDT_AUDIT_GENERATED_(111)
  6
Continuous
 62
     7
100
AcDbCircle
 10
112.4489306694
 20
507.6099183572
 30
0.0
 40
2.499999999999998
100
AcDbArc
 50
245.7044631048
 51
269.5028690524
  0
ARC
  5
43B
330
3D7
100
AcDbEntity
  8
$DDT_AUDIT_GENERATED_(111)
  6
Continuous
 62
     7
100
AcDbCircle
 10
112.4489306694
 20
507.6099183572
 30
0.0
 40
2.499999999999998
100
AcDbArc
 50
180.4982116126
 51
206.9481967487
  0
LINE
  5
43C
330
3D7
100
AcDbEntity
  8
$DDT_AUDIT_GENERATED_(111)
  6
Continuous
 62
     7
100
AcDbLine
 10
109.949025182
 20
507.5881800486
 30
0.0
 11
109.9290847474
 21
509.8813300343
 31
0.0
  0
ARC
  5
43D
330
3D7
100
AcDbEntity
  8
$DDT_AUDIT_GENERATED_(111)
  6
Continuous
 62
     7
100
AcDbCircle
 10
110.4660223666
 20
574.4313300343
 30
0.0
 40
0.5000000000000026
100
AcDbArc
 50
90.0
 51
179.4974183333
  0
LINE
  5
43E
330
3D7
100
AcDbEntity
  8
$DDT_AUDIT_GENERATED_(111)
  6
Continuous
 62
     7
100
AcDbLine
 10
109.7703890952
 20
552.1313300343
 30
0.0
 11
109.9173189198
 21
568.8813300343
 31
0.0
  0
LINE
  5
43F
330
3D7
100
AcDbEntity
  8
$DDT_AUDIT_GENERATED_(111)
  6
Continuous
 62
     7
100
AcDbLine
 10
133.0203890952
 20
504.9313300343
 30
0.0
 11
116.2703890952
 21
505.0766662599
 31
0.0
  0
LINE
  5
440
330
3D7
100
AcDbEntity
  8
$DDT_AUDIT_GENERATED_(111)
  6
Continuous
 62
     7
100
AcDbLine
 10
180.2703890952
 20
528.1313300343
 30
0.0
 11
180.2703890952
 21
529.1313300343
 31
0.0
  0
LINE
  5
441
330
3D7
100
AcDbEntity
  8
$DDT_AUDIT_GENERATED_(111)
  6
Continuous
 62
     7
100
AcDbLine
 10
179.5747558238
 20
574.9313300343
 30
0.0
 11
178.8205414
 21
574.9313300343
 31
0.0
  0
LINE
  5
442
330
3D7
100
AcDbEntity
  8
$DDT_AUDIT_GENERATED_(111)
  6
Continuous
 62
     7
100
AcDbLine
 10
180.0747365882
 20
574.4357158305
 30
0.0
 11
180.1103013759
 21
570.3813300343
 31
0.0
  0
ARC
  5
443
330
3D7
100
AcDbEntity
  8
$DDT_AUDIT_GENERATED_(111)
  6
Continuous
 62
     7
100
AcDbCircle
 10
177.591847521
 20
507.6099183572
 30
0.0
 40
2.499999999999999
100
AcDbArc
 50
333.0518032513
 51
359.5017883874
  0
ARC
  5
444
330
3D7
100
AcDbEntity
  8
$DDT_AUDIT_GENERATED_(111)
  6
Continuous
 62
     7
100
AcDbCircle
 10
177.591847521
 20
507.6099183572
 30
0.0
 40
2.499999999999999
100
AcDbArc
 50
270.4971309476
 51
294.2955368952
  0
LINE
  5
445
330
3D7
100
AcDbEntity
  8
$DDT_AUDIT_GENERATED_(111)
  6
Continuous
 62
     7
100
AcDbLine
 10
177.6135386784
 20
505.1100124602
 30
0.0
 11
175.2703890952
 21
505.0896814443
 31
0.0
  0
LINE
  5
446
330
3D7
100
AcDbEntity
  8
$DDT_AUDIT_GENERATED_(111)
  6
Continuous
 62
     7
100
AcDbLine
 10
180.2703890952
 20
528.1313300343
 30
0.0
 11
180.1247369213
 21
511.3813300343
 31
0.0
  0
ARC
  5
447
330
3D7
100
AcDbEntity
  8
$DDT_AUDIT_GENERATED_(111)
  6
Continuous
 62
     7
100
AcDbCircle
 10
179.5747558238
 20
574.4313300343
 30
0.0
 40
0.5000000000000004
100
AcDbArc
 50
0.5025816667
 51
90.0
  0
ELLIPSE
  5
448
330
3D7
100
AcDbEntity
  8
$DDT_AUDIT_GENERATED_(111)
  6
Continuous
 62
     7
100
AcDbEllipse
 10
109.9703890952
 20
542.3675494259
 30
0.0
 11
-0.1999999999999988
 21
-1.769946287671768E-15
 31
0.0
210
0.0
220
0.0
230
1.0
 40
0.0874886635
 41
0.0
 42
1.570796326794896
  0
ELLIPSE
  5
449
330
3D7
100
AcDbEntity
  8
$DDT_AUDIT_GENERATED_(111)
  6
Continuous
 62
     7
100
AcDbEllipse
 10
180.0703890952
 20
537.8951106428
 30
0.0
 11
0.1999999999999988
 21
3.522281169496032E-17
 31
0.0
210
0.0
220
0.0
230
1.0
 40
0.0874886635
 41
0.0
 42
1.570796326794897
  0
LINE
  5
44A
330
3D7
100
AcDbEntity
  8
$DDT_AUDIT_GENERATED_(111)
  6
Continuous
 62
     7
100
AcDbLine
 10
147.239110754
 20
505.1313300343
 30
0.0
 11
147.239110754
 21
505.2754246895
 31
0.0
  0
LINE
  5
44B
330
3D7
100
AcDbEntity
  8
$DDT_AUDIT_GENERATED_(111)
  6
Continuous
 62
     7
100
AcDbLine
 10
147.2566084867
 20
504.9313300343
 30
0.0
 11
147.2904802252
 21
504.9313300343
 31
0.0
  0
ELLIPSE
  5
44C
330
3D7
100
AcDbEntity
  8
$DDT_AUDIT_GENERATED_(111)
  6
Continuous
 62
     7
100
AcDbEllipse
 10
147.2566084867
 20
505.1313300343
 30
0.0
 11
0.0
 21
0.01749773270518062
 31
0.0
210
0.0
220
0.0
230
1.0
 40
1.0
 41
1.570796326794897
 42
3.141592653589793
  0
ELLIPSE
  5
44D
330
3D7
100
AcDbEntity
  8
$DDT_AUDIT_GENERATED_(111)
  6
Continuous
 62
     7
100
AcDbEllipse
 10
142.7841697037
 20
505.1313300343
 30
0.0
 11
9.025845496833652E-16
 21
-0.2000000000000057
 31
0.0
210
0.0
220
0.0
230
1.0
 40
0.0874886635
 41
0.0
 42
1.570796326794896
  0
LINE
  5
44E
330
3D7
100
AcDbEntity
  8
$DDT_AUDIT_GENERATED_(111)
  6
Continuous
 62
     7
100
AcDbLine
 10
109.9703890952
 20
537.9126083755
 30
0.0
 11
110.2144837504
 21
537.9126083755
 31
0.0
  0
LINE
  5
44F
330
3D7
100
AcDbEntity
  8
$DDT_AUDIT_GENERATED_(111)
  6
Continuous
 62
     7
100
AcDbLine
 10
109.7703890952
 20
537.8951106428
 30
0.0
 11
109.7703890952
 21
537.8612389043
 31
0.0
  0
ELLIPSE
  5
450
330
3D7
100
AcDbEntity
  8
$DDT_AUDIT_GENERATED_(111)
  6
Continuous
 62
     7
100
AcDbEllipse
 10
109.9703890952
 20
537.8951106428
 30
0.0
 11
0.1999999999999988
 21
3.522281169496032E-17
 31
0.0
210
0.0
220
0.0
230
1.0
 40
0.0874886635
 41
1.570796326794897
 42
3.141592653589791
  0
LINE
  5
451
330
3D7
100
AcDbEntity
  8
$DDT_AUDIT_GENERATED_(111)
  6
Continuous
 62
     7
100
AcDbLine
 10
180.2703890952
 20
542.3675494259
 30
0.0
 11
180.2703890952
 21
542.4014211644
 31
0.0
  0
LINE
  5
452
330
3D7
100
AcDbEntity
  8
$DDT_AUDIT_GENERATED_(111)
  6
Continuous
 62
     7
100
AcDbLine
 10
180.0703890952
 20
542.3500516932
 30
0.0
 11
179.82629444
 21
542.3500516932
 31
0.0
  0
ELLIPSE
  5
453
330
3D7
100
AcDbEntity
  8
$DDT_AUDIT_GENERATED_(111)
  6
Continuous
 62
     7
100
AcDbEllipse
 10
180.0703890952
 20
542.3675494259
 30
0.0
 11
-0.1999999999999988
 21
1.699500664281847E-15
 31
0.0
210
0.0
220
0.0
230
1.0
 40
0.0874886635
 41
1.570796326794897
 42
3.14159265358989
  0
LINE
  5
454
330
3D7
100
AcDbEntity
  8
$DDT_AUDIT_GENERATED_(111)
  6
Continuous
 62
     7
100
AcDbLine
 10
110.2144837504
 20
542.3500516932
 30
0.0
 11
109.9703890952
 21
542.3500516932
 31
0.0
  0
LINE
  5
455
330
3D7
100
AcDbEntity
  8
$DDT_AUDIT_GENERATED_(111)
  6
Continuous
 62
     7
100
AcDbLine
 10
179.82629444
 20
537.9126083755
 30
0.0
 11
180.0703890952
 21
537.9126083755
 31
0.0
  0
ARC
  5
456
330
3D7
100
AcDbEntity
  8
$DDT_AUDIT_GENERATED_(111)
  6
Continuous
 62
     7
100
AcDbCircle
 10
143.5282214099
 20
505.2555426626
 30
0.0
 40
3.710942605191546
100
AcDbArc
 50
0.3069736723
 51
1.1847822732
  0
LINE
  5
457
330
3D7
100
AcDbEntity
  8
$DDT_AUDIT_GENERATED_(111)
  6
Continuous
 62
     7
100
AcDbLine
 10
142.8016674364
 20
505.2754246895
 30
0.0
 11
142.8016674364
 21
505.1313300343
 31
0.0
  0
ARC
  5
458
330
3D7
100
AcDbEntity
  8
$DDT_AUDIT_GENERATED_(111)
  6
Continuous
 62
     7
100
AcDbCircle
 10
146.5125567805
 20
505.2555426626
 30
0.0
 40
3.710942605191031
100
AcDbArc
 50
178.8152177268
 51
179.6930263277
  0
LINE
  5
459
330
3D7
100
AcDbEntity
  8
$DDT_AUDIT_GENERATED_(111)
  6
Continuous
 62
     7
100
AcDbLine
 10
109.7703890952
 20
529.1313300343
 30
0.0
 11
109.7703890952
 21
528.1313300343
 31
0.0
  0
LINE
  5
45A
330
3D7
100
AcDbEntity
  8
$DDT_AUDIT_GENERATED_(111)
  6
Continuous
 62
     7
100
AcDbLine
 10
109.9160412691
 20
511.3813300343
 30
0.0
 11
109.7703890952
 21
528.1313300343
 31
0.0
  0
LINE
  5
45B
330
3D7
100
AcDbEntity
  8
$DDT_AUDIT_GENERATED_(111)
  6
Continuous
 62
     7
100
AcDbLine
 10
109.6703890952
 20
530.4581249536
 30
0.0
 11
109.6703890952
 21
529.3045351151
 31
0.0
  0
ARC
  5
45C
330
3D7
100
AcDbEntity
  8
$DDT_AUDIT_GENERATED_(111)
  6
Continuous
 62
     7
100
AcDbCircle
 10
109.8703890952
 20
529.3045351151
 30
0.0
 40
0.1999999999999988
100
AcDbArc
 50
180.0
 51
240.0
  0
ARC
  5
45D
330
3D7
100
AcDbEntity
  8
$DDT_AUDIT_GENERATED_(111)
  6
Continuous
 62
     7
100
AcDbCircle
 10
109.8703890952
 20
530.4581249536
 30
0.0
 40
0.1999999999999999
100
AcDbArc
 50
120.0
 51
180.0
  0
LINE
  5
45E
330
3D7
100
AcDbEntity
  8
$DDT_AUDIT_GENERATED_(111)
  6
Continuous
 62
     7
100
AcDbLine
 10
109.8703890952
 20
511.3813300343
 30
0.0
 11
109.9160412691
 21
511.3813300343
 31
0.0
  0
LINE
  5
45F
330
3D7
100
AcDbEntity
  8
$DDT_AUDIT_GENERATED_(111)
  6
Continuous
 62
     7
100
AcDbLine
 10
109.6703890952
 20
511.1813300343
 30
0.0
 11
109.6703890952
 21
510.0813300343
 31
0.0
  0
LINE
  5
460
330
3D7
100
AcDbEntity
  8
$DDT_AUDIT_GENERATED_(111)
  6
Continuous
 62
     7
100
AcDbLine
 10
109.8703890952
 20
509.8813300343
 30
0.0
 11
109.9290847474
 21
509.8813300343
 31
0.0
  0
ARC
  5
461
330
3D7
100
AcDbEntity
  8
$DDT_AUDIT_GENERATED_(111)
  6
Continuous
 62
     7
100
AcDbCircle
 10
109.8703890952
 20
510.0813300343
 30
0.0
 40
0.1999999999999988
100
AcDbArc
 50
180.0
 51
270.0
  0
ARC
  5
462
330
3D7
100
AcDbEntity
  8
$DDT_AUDIT_GENERATED_(111)
  6
Continuous
 62
     7
100
AcDbCircle
 10
109.8703890952
 20
511.1813300343
 30
0.0
 40
0.1999999999999988
100
AcDbArc
 50
90.0
 51
180.0
  0
LINE
  5
463
330
3D7
100
AcDbEntity
  8
$DDT_AUDIT_GENERATED_(111)
  6
Continuous
 62
     7
100
AcDbLine
 10
109.7703890952
 20
549.6313300343
 30
0.0
 11
109.7703890952
 21
543.3976158625
 31
0.0
  0
LINE
  5
464
330
3D7
100
AcDbEntity
  8
$DDT_AUDIT_GENERATED_(111)
  6
Continuous
 62
     7
100
AcDbLine
 10
109.9304768145
 20
570.3813300343
 30
0.0
 11
109.9660416022
 21
574.4357158305
 31
0.0
  0
LINE
  5
465
330
3D7
100
AcDbEntity
  8
$DDT_AUDIT_GENERATED_(111)
  6
Continuous
 62
     7
100
AcDbLine
 10
109.6703890952
 20
550.9581249536
 30
0.0
 11
109.6703890952
 21
549.8045351151
 31
0.0
  0
ARC
  5
466
330
3D7
100
AcDbEntity
  8
$DDT_AUDIT_GENERATED_(111)
  6
Continuous
 62
     7
100
AcDbCircle
 10
109.8703890952
 20
549.8045351151
 30
0.0
 40
0.1999999999999988
100
AcDbArc
 50
180.0
 51
240.0
  0
ARC
  5
467
330
3D7
100
AcDbEntity
  8
$DDT_AUDIT_GENERATED_(111)
  6
Continuous
 62
     7
100
AcDbCircle
 10
109.8703890952
 20
550.9581249536
 30
0.0
 40
0.1999999999999994
100
AcDbArc
 50
120.0
 51
180.0
  0
LINE
  5
468
330
3D7
100
AcDbEntity
  8
$DDT_AUDIT_GENERATED_(111)
  6
Continuous
 62
     7
100
AcDbLine
 10
109.8703890952
 20
570.3813300343
 30
0.0
 11
109.9304768145
 21
570.3813300343
 31
0.0
  0
LINE
  5
469
330
3D7
100
AcDbEntity
  8
$DDT_AUDIT_GENERATED_(111)
  6
Continuous
 62
     7
100
AcDbLine
 10
109.6703890952
 20
570.1813300343
 30
0.0
 11
109.6703890952
 21
569.0813300343
 31
0.0
  0
LINE
  5
46A
330
3D7
100
AcDbEntity
  8
$DDT_AUDIT_GENERATED_(111)
  6
Continuous
 62
     7
100
AcDbLine
 10
109.8703890952
 20
568.8813300343
 30
0.0
 11
109.9173189198
 21
568.8813300343
 31
0.0
  0
ARC
  5
46B
330
3D7
100
AcDbEntity
  8
$DDT_AUDIT_GENERATED_(111)
  6
Continuous
 62
     7
100
AcDbCircle
 10
109.8703890952
 20
569.0813300343
 30
0.0
 40
0.1999999999999988
100
AcDbArc
 50
180.0
 51
270.0
  0
ARC
  5
46C
330
3D7
100
AcDbEntity
  8
$DDT_AUDIT_GENERATED_(111)
  6
Continuous
 62
     7
100
AcDbCircle
 10
109.8703890952
 20
570.1813300343
 30
0.0
 40
0.1999999999999988
100
AcDbArc
 50
90.0
 51
180.0
  0
LINE
  5
46D
330
3D7
100
AcDbEntity
  8
$DDT_AUDIT_GENERATED_(111)
  6
Continuous
 62
     7
100
AcDbLine
 10
180.2703890952
 20
530.6313300343
 30
0.0
 11
180.2703890952
 21
536.8650442062
 31
0.0
  0
LINE
  5
46E
330
3D7
100
AcDbEntity
  8
$DDT_AUDIT_GENERATED_(111)
  6
Continuous
 62
     7
100
AcDbLine
 10
180.111693443
 20
509.8813300343
 30
0.0
 11
180.0917530084
 21
507.5881800486
 31
0.0
  0
LINE
  5
46F
330
3D7
100
AcDbEntity
  8
$DDT_AUDIT_GENERATED_(111)
  6
Continuous
 62
     7
100
AcDbLine
 10
180.3703890952
 20
529.3045351151
 30
0.0
 11
180.3703890952
 21
530.4581249536
 31
0.0
  0
ARC
  5
470
330
3D7
100
AcDbEntity
  8
$DDT_AUDIT_GENERATED_(111)
  6
Continuous
 62
     7
100
AcDbCircle
 10
180.1703890952
 20
530.4581249536
 30
0.0
 40
0.1999999999999988
100
AcDbArc
 50
0.0
 51
60.0
  0
ARC
  5
471
330
3D7
100
AcDbEntity
  8
$DDT_AUDIT_GENERATED_(111)
  6
Continuous
 62
     7
100
AcDbCircle
 10
180.1703890952
 20
529.3045351151
 30
0.0
 40
0.200000000000002
100
AcDbArc
 50
300.0
 51
0.0
  0
LINE
  5
472
330
3D7
100
AcDbEntity
  8
$DDT_AUDIT_GENERATED_(111)
  6
Continuous
 62
     7
100
AcDbLine
 10
180.1703890952
 20
509.8813300343
 30
0.0
 11
180.111693443
 21
509.8813300343
 31
0.0
  0
LINE
  5
473
330
3D7
100
AcDbEntity
  8
$DDT_AUDIT_GENERATED_(111)
  6
Continuous
 62
     7
100
AcDbLine
 10
180.3703890952
 20
510.0813300343
 30
0.0
 11
180.3703890952
 21
511.1813300343
 31
0.0
  0
LINE
  5
474
330
3D7
100
AcDbEntity
  8
$DDT_AUDIT_GENERATED_(111)
  6
Continuous
 62
     7
100
AcDbLine
 10
180.1703890952
 20
511.3813300343
 30
0.0
 11
180.1247369213
 21
511.3813300343
 31
0.0
  0
ARC
  5
475
330
3D7
100
AcDbEntity
  8
$DDT_AUDIT_GENERATED_(111)
  6
Continuous
 62
     7
100
AcDbCircle
 10
180.1703890952
 20
511.1813300343
 30
0.0
 40
0.1999999999999988
100
AcDbArc
 50
0.0
 51
90.0
  0
ARC
  5
476
330
3D7
100
AcDbEntity
  8
$DDT_AUDIT_GENERATED_(111)
  6
Continuous
 62
     7
100
AcDbCircle
 10
180.1703890952
 20
510.0813300343
 30
0.0
 40
0.1999999999999988
100
AcDbArc
 50
270.0
 51
0.0
  0
LINE
  5
477
330
3D7
100
AcDbEntity
  8
$DDT_AUDIT_GENERATED_(111)
  6
Continuous
 62
     7
100
AcDbLine
 10
180.2703890952
 20
551.1313300343
 30
0.0
 11
180.2703890952
 21
552.1313300343
 31
0.0
  0
LINE
  5
478
330
3D7
100
AcDbEntity
  8
$DDT_AUDIT_GENERATED_(111)
  6
Continuous
 62
     7
100
AcDbLine
 10
180.1234592706
 20
568.8813300343
 30
0.0
 11
180.2703890952
 21
552.1313300343
 31
0.0
  0
LINE
  5
479
330
3D7
100
AcDbEntity
  8
$DDT_AUDIT_GENERATED_(111)
  6
Continuous
 62
     7
100
AcDbLine
 10
180.3703890952
 20
549.8045351151
 30
0.0
 11
180.3703890952
 21
550.9581249536
 31
0.0
  0
ARC
  5
47A
330
3D7
100
AcDbEntity
  8
$DDT_AUDIT_GENERATED_(111)
  6
Continuous
 62
     7
100
AcDbCircle
 10
180.1703890952
 20
550.9581249536
 30
0.0
 40
0.1999999999999988
100
AcDbArc
 50
0.0
 51
60.0
  0
ARC
  5
47B
330
3D7
100
AcDbEntity
  8
$DDT_AUDIT_GENERATED_(111)
  6
Continuous
 62
     7
100
AcDbCircle
 10
180.1703890952
 20
549.8045351151
 30
0.0
 40
0.1999999999999994
100
AcDbArc
 50
300.0
 51
0.0
  0
LINE
  5
47C
330
3D7
100
AcDbEntity
  8
$DDT_AUDIT_GENERATED_(111)
  6
Continuous
 62
     7
100
AcDbLine
 10
180.1703890952
 20
568.8813300343
 30
0.0
 11
180.1234592706
 21
568.8813300343
 31
0.0
  0
LINE
  5
47D
330
3D7
100
AcDbEntity
  8
$DDT_AUDIT_GENERATED_(111)
  6
Continuous
 62
     7
100
AcDbLine
 10
180.3703890952
 20
569.0813300343
 30
0.0
 11
180.3703890952
 21
570.1813300343
 31
0.0
  0
LINE
  5
47E
330
3D7
100
AcDbEntity
  8
$DDT_AUDIT_GENERATED_(111)
  6
Continuous
 62
     7
100
AcDbLine
 10
180.1703890952
 20
570.3813300343
 30
0.0
 11
180.1103013759
 21
570.3813300343
 31
0.0
  0
ARC
  5
47F
330
3D7
100
AcDbEntity
  8
$DDT_AUDIT_GENERATED_(111)
  6
Continuous
 62
     7
100
AcDbCircle
 10
180.1703890952
 20
570.1813300343
 30
0.0
 40
0.1999999999999988
100
AcDbArc
 50
0.0
 51
90.0
  0
ARC
  5
480
330
3D7
100
AcDbEntity
  8
$DDT_AUDIT_GENERATED_(111)
  6
Continuous
 62
     7
100
AcDbCircle
 10
180.1703890952
 20
569.0813300343
 30
0.0
 40
0.1999999999999988
100
AcDbArc
 50
270.0
 51
0.0
  0
LINE
  5
481
330
3D7
100
AcDbEntity
  8
$DDT_AUDIT_GENERATED_(111)
  6
Continuous
 62
     7
100
AcDbLine
 10
156.0203890952
 20
504.9313300343
 30
0.0
 11
157.0203890952
 21
504.9313300343
 31
0.0
  0
LINE
  5
482
330
3D7
100
AcDbEntity
  8
$DDT_AUDIT_GENERATED_(111)
  6
Continuous
 62
     7
100
AcDbLine
 10
173.7703890952
 20
505.0766662599
 30
0.0
 11
157.0203890952
 21
504.9313300343
 31
0.0
  0
LINE
  5
483
330
3D7
100
AcDbEntity
  8
$DDT_AUDIT_GENERATED_(111)
  6
Continuous
 62
     7
100
AcDbLine
 10
154.6723759367
 20
504.8613300343
 30
0.0
 11
155.8684022537
 21
504.8613300343
 31
0.0
  0
ARC
  5
484
330
3D7
100
AcDbEntity
  8
$DDT_AUDIT_GENERATED_(111)
  6
Continuous
 62
     7
100
AcDbCircle
 10
155.8684022537
 20
505.0613300343
 30
0.0
 40
0.1999999999999988
100
AcDbArc
 50
270.0
 51
319.4583981265
  0
ARC
  5
485
330
3D7
100
AcDbEntity
  8
$DDT_AUDIT_GENERATED_(111)
  6
Continuous
 62
     7
100
AcDbCircle
 10
154.6723759367
 20
505.0613300343
 30
0.0
 40
0.2000000000000006
100
AcDbArc
 50
220.5416018735
 51
270.0
  0
LINE
  5
486
330
3D7
100
AcDbEntity
  8
$DDT_AUDIT_GENERATED_(111)
  6
Continuous
 62
     7
100
AcDbLine
 10
173.7703890952
 20
505.0613300343
 30
0.0
 11
173.7703890952
 21
505.0766662599
 31
0.0
  0
LINE
  5
487
330
3D7
100
AcDbEntity
  8
$DDT_AUDIT_GENERATED_(111)
  6
Continuous
 62
     7
100
AcDbLine
 10
173.9703890952
 20
504.8613300343
 30
0.0
 11
175.0703890952
 21
504.8613300343
 31
0.0
  0
LINE
  5
488
330
3D7
100
AcDbEntity
  8
$DDT_AUDIT_GENERATED_(111)
  6
Continuous
 62
     7
100
AcDbLine
 10
175.2703890952
 20
505.0613300343
 30
0.0
 11
175.2703890952
 21
505.0896814443
 31
0.0
  0
ARC
  5
489
330
3D7
100
AcDbEntity
  8
$DDT_AUDIT_GENERATED_(111)
  6
Continuous
 62
     7
100
AcDbCircle
 10
175.0703890952
 20
505.0613300343
 30
0.0
 40
0.1999999999999988
100
AcDbArc
 50
270.0
 51
0.0
  0
ARC
  5
48A
330
3D7
100
AcDbEntity
  8
$DDT_AUDIT_GENERATED_(111)
  6
Continuous
 62
     7
100
AcDbCircle
 10
173.9703890952
 20
505.0613300343
 30
0.0
 40
0.1999999999999988
100
AcDbArc
 50
180.0
 51
270.0
  0
LINE
  5
48B
330
3D7
100
AcDbEntity
  8
$DDT_AUDIT_GENERATED_(111)
  6
Continuous
 62
     7
100
AcDbLine
 10
135.5203890952
 20
504.9313300343
 30
0.0
 11
141.7541032671
 21
504.9313300343
 31
0.0
  0
LINE
  5
48C
330
3D7
100
AcDbEntity
  8
$DDT_AUDIT_GENERATED_(111)
  6
Continuous
 62
     7
100
AcDbLine
 10
114.7703890952
 20
505.0896814443
 30
0.0
 11
112.427239512
 21
505.1100124602
 31
0.0
  0
LINE
  5
48D
330
3D7
100
AcDbEntity
  8
$DDT_AUDIT_GENERATED_(111)
  6
Continuous
 62
     7
100
AcDbLine
 10
134.1723759367
 20
504.8613300343
 30
0.0
 11
135.3684022537
 21
504.8613300343
 31
0.0
  0
ARC
  5
48E
330
3D7
100
AcDbEntity
  8
$DDT_AUDIT_GENERATED_(111)
  6
Continuous
 62
     7
100
AcDbCircle
 10
135.3684022537
 20
505.0613300343
 30
0.0
 40
0.1999999999999988
100
AcDbArc
 50
270.0
 51
319.4583981265
  0
ARC
  5
48F
330
3D7
100
AcDbEntity
  8
$DDT_AUDIT_GENERATED_(111)
  6
Continuous
 62
     7
100
AcDbCircle
 10
134.1723759367
 20
505.0613300343
 30
0.0
 40
0.2
100
AcDbArc
 50
220.5416018735
 51
270.0
  0
LINE
  5
490
330
3D7
100
AcDbEntity
  8
$DDT_AUDIT_GENERATED_(111)
  6
Continuous
 62
     7
100
AcDbLine
 10
114.7703890952
 20
505.0613300343
 30
0.0
 11
114.7703890952
 21
505.0896814443
 31
0.0
  0
LINE
  5
491
330
3D7
100
AcDbEntity
  8
$DDT_AUDIT_GENERATED_(111)
  6
Continuous
 62
     7
100
AcDbLine
 10
114.9703890952
 20
504.8613300343
 30
0.0
 11
116.0703890952
 21
504.8613300343
 31
0.0
  0
LINE
  5
492
330
3D7
100
AcDbEntity
  8
$DDT_AUDIT_GENERATED_(111)
  6
Continuous
 62
     7
100
AcDbLine
 10
116.2703890952
 20
505.0613300343
 30
0.0
 11
116.2703890952
 21
505.0766662599
 31
0.0
  0
ARC
  5
493
330
3D7
100
AcDbEntity
  8
$DDT_AUDIT_GENERATED_(111)
  6
Continuous
 62
     7
100
AcDbCircle
 10
116.0703890952
 20
505.0613300343
 30
0.0
 40
0.1999999999999988
100
AcDbArc
 50
270.0
 51
0.0
  0
ARC
  5
494
330
3D7
100
AcDbEntity
  8
$DDT_AUDIT_GENERATED_(111)
  6
Continuous
 62
     7
100
AcDbCircle
 10
114.9703890952
 20
505.0613300343
 30
0.0
 40
0.1999999999999988
100
AcDbArc
 50
180.0
 51
270.0
  0
LINE
  5
495
330
3D7
100
AcDbEntity
  8
$DDT_AUDIT_GENERATED_(190)
  6
Continuous
 62
     7
100
AcDbLine
 10
109.7403890952
 20
602.8813300343
 30
0.0
 11
109.7403890952
 21
597.1313300343
 31
0.0
  0
ARC
  5
496
330
3D7
100
AcDbEntity
  8
$DDT_AUDIT_GENERATED_(190)
  6
Continuous
 62
     7
100
AcDbCircle
 10
112.2403890952
 20
602.8813300343
 30
0.0
 40
2.500000000000002
100
AcDbArc
 50
90.0
 51
180.0
  0
LINE
  5
497
330
3D7
100
AcDbEntity
  8
$DDT_AUDIT_GENERATED_(190)
  6
Continuous
 62
     7
100
AcDbLine
 10
177.8003890952
 20
605.3813300343
 30
0.0
 11
156.0203890952
 21
605.3813300343
 31
0.0
  0
ARC
  5
498
330
3D7
100
AcDbEntity
  8
$DDT_AUDIT_GENERATED_(190)
  6
Continuous
 62
     7
100
AcDbCircle
 10
177.8003890952
 20
602.8813300343
 30
0.0
 40
2.500000000000002
100
AcDbArc
 50
0.0
 51
90.0
  0
LINE
  5
499
330
3D7
100
AcDbEntity
  8
$DDT_AUDIT_GENERATED_(190)
  6
Continuous
 62
     7
100
AcDbLine
 10
180.3003890952
 20
576.0813300343
 30
0.0
 11
180.3003890952
 21
580.3313300343
 31
0.0
  0
ARC
  5
49A
330
3D7
100
AcDbEntity
  8
$DDT_AUDIT_GENERATED_(190)
  6
Continuous
 62
     7
100
AcDbCircle
 10
179.8003890952
 20
576.0813300343
 30
0.0
 40
0.5000000000000004
100
AcDbArc
 50
270.0
 51
0.0
  0
LINE
  5
49B
330
3D7
100
AcDbEntity
  8
$DDT_AUDIT_GENERATED_(190)
  6
Continuous
 62
     7
100
AcDbLine
 10
110.2403890952
 20
575.5813300343
 30
0.0
 11
111.2202367903
 21
575.5813300343
 31
0.0
  0
ARC
  5
49C
330
3D7
100
AcDbEntity
  8
$DDT_AUDIT_GENERATED_(190)
  6
Continuous
 62
     7
100
AcDbCircle
 10
110.2403890952
 20
576.0813300343
 30
0.0
 40
0.5000000000000004
100
AcDbArc
 50
180.0
 51
270.0
  0
LINE
  5
49D
330
3D7
100
AcDbEntity
  8
$DDT_AUDIT_GENERATED_(190)
  6
Continuous
 62
     7
100
AcDbLine
 10
178.8205414
 20
575.5813300343
 30
0.0
 11
179.8003890952
 21
575.5813300343
 31
0.0
  0
LINE
  5
49E
330
3D7
100
AcDbEntity
  8
$DDT_AUDIT_GENERATED_(190)
  6
Continuous
 62
     7
100
AcDbLine
 10
147.2904802252
 20
605.3813300343
 30
0.0
 11
147.2566084867
 21
605.3813300343
 31
0.0
  0
LINE
  5
49F
330
3D7
100
AcDbEntity
  8
$DDT_AUDIT_GENERATED_(190)
  6
Continuous
 62
     7
100
AcDbLine
 10
147.2904802252
 20
605.3813300343
 30
0.0
 11
148.2866749233
 21
605.3813300343
 31
0.0
  0
LINE
  5
4A0
330
3D7
100
AcDbEntity
  8
$DDT_AUDIT_GENERATED_(190)
  6
Continuous
 62
     7
100
AcDbLine
 10
141.7541032671
 20
605.3813300343
 30
0.0
 11
135.5203890952
 21
605.3813300343
 31
0.0
  0
LINE
  5
4A1
330
3D7
100
AcDbEntity
  8
$DDT_AUDIT_GENERATED_(190)
  6
Continuous
 62
     7
100
AcDbLine
 10
141.7541032671
 20
605.3813300343
 30
0.0
 11
142.7502979652
 21
605.3813300343
 31
0.0
  0
LINE
  5
4A2
330
3D7
100
AcDbEntity
  8
$DDT_AUDIT_GENERATED_(190)
  6
Continuous
 62
     7
100
AcDbLine
 10
147.239110754
 20
605.1813300343
 30
0.0
 11
147.239110754
 21
604.9813300343
 31
0.0
  0
ELLIPSE
  5
4A3
330
3D7
100
AcDbEntity
  8
$DDT_AUDIT_GENERATED_(190)
  6
Continuous
 62
     7
100
AcDbEllipse
 10
147.2566084867
 20
605.1813300343
 30
0.0
 11
0.0
 21
0.2000000000000455
 31
0.0
210
0.0
220
0.0
230
1.0
 40
1.0
 41
0.0
 42
1.570796326794897
  0
LINE
  5
4A4
330
3D7
100
AcDbEntity
  8
$DDT_AUDIT_GENERATED_(190)
  6
Continuous
 62
     7
100
AcDbLine
 10
142.7841697037
 20
605.3813300343
 30
0.0
 11
142.7502979652
 21
605.3813300343
 31
0.0
  0
ELLIPSE
  5
4A5
330
3D7
100
AcDbEntity
  8
$DDT_AUDIT_GENERATED_(190)
  6
Continuous
 62
     7
100
AcDbEllipse
 10
142.7841697037
 20
605.1813300343
 30
0.0
 11
3.522281169496033E-17
 21
-0.1999999999999988
 31
0.0
210
0.0
220
0.0
230
1.0
 40
0.0874886635
 41
1.570796326794897
 42
3.141592653589791
  0
LINE
  5
4A6
330
3D7
100
AcDbEntity
  8
$DDT_AUDIT_GENERATED_(190)
  6
Continuous
 62
     7
100
AcDbLine
 10
142.8016674364
 20
604.9813300343
 30
0.0
 11
142.8016674364
 21
605.1813300343
 31
0.0
  0
ELLIPSE
  5
4A7
330
3D7
100
AcDbEntity
  8
$DDT_AUDIT_GENERATED_(190)
  6
Continuous
 62
     7
100
AcDbEllipse
 10
142.8191651691
 20
604.9813300343
 30
0.0
 11
3.522281169496033E-17
 21
-0.1999999999999988
 31
0.0
210
0.0
220
0.0
230
1.0
 40
0.0874886635
 41
4.71238898038469
 42
5.235987755983123
  0
ELLIPSE
  5
4A8
330
3D7
100
AcDbEntity
  8
$DDT_AUDIT_GENERATED_(190)
  6
Continuous
 62
     7
100
AcDbEllipse
 10
147.2216130213
 20
604.9813300343
 30
0.0
 11
0.0
 21
0.1011416234167274
 31
0.0
210
0.0
220
0.0
230
1.0
 40
1.0
 41
3.291983299163078
 42
4.71238898038469
  0
LINE
  5
4A9
330
3D7
100
AcDbEntity
  8
$DDT_AUDIT_GENERATED_(190)
  6
Continuous
 62
     7
100
AcDbLine
 10
114.5169590088
 20
575.4778395531
 30
0.0
 11
114.5151525757
 21
575.5813300343
 31
0.0
  0
LINE
  5
4AA
330
3D7
100
AcDbEntity
  8
$DDT_AUDIT_GENERATED_(190)
  6
Continuous
 62
     7
100
AcDbLine
 10
116.5256256147
 20
575.5813300343
 30
0.0
 11
116.5238191816
 21
575.4778395531
 31
0.0
  0
ARC
  5
4AB
330
3D7
100
AcDbEntity
  8
$DDT_AUDIT_GENERATED_(190)
  6
Continuous
 62
     7
100
AcDbCircle
 10
114.7169285478
 20
575.4813300343
 30
0.0
 40
0.1999999999999988
100
AcDbArc
 50
181.0
 51
270.0
  0
ARC
  5
4AC
330
3D7
100
AcDbEntity
  8
$DDT_AUDIT_GENERATED_(190)
  6
Continuous
 62
     7
100
AcDbCircle
 10
116.3238496426
 20
575.4813300343
 30
0.0
 40
0.2000000000000009
100
AcDbArc
 50
270.0
 51
359.0
  0
LINE
  5
4AD
330
3D7
100
AcDbEntity
  8
$DDT_AUDIT_GENERATED_(190)
  6
Continuous
 62
     7
100
AcDbLine
 10
116.3238496426
 20
575.2813300343
 30
0.0
 11
114.7169285478
 21
575.2813300343
 31
0.0
  0
LINE
  5
4AE
330
3D7
100
AcDbEntity
  8
$DDT_AUDIT_GENERATED_(190)
  6
Continuous
 62
     7
100
AcDbLine
 10
175.5256256147
 20
575.5813300343
 30
0.0
 11
175.5238191816
 21
575.4778395531
 31
0.0
  0
ARC
  5
4AF
330
3D7
100
AcDbEntity
  8
$DDT_AUDIT_GENERATED_(190)
  6
Continuous
 62
     7
100
AcDbCircle
 10
175.3238496426
 20
575.4813300343
 30
0.0
 40
0.2000000000000009
100
AcDbArc
 50
270.0
 51
359.0
  0
LINE
  5
4B0
330
3D7
100
AcDbEntity
  8
$DDT_AUDIT_GENERATED_(190)
  6
Continuous
 62
     7
100
AcDbLine
 10
175.3238496426
 20
575.2813300343
 30
0.0
 11
173.7169285478
 21
575.2813300343
 31
0.0
  0
ARC
  5
4B1
330
3D7
100
AcDbEntity
  8
$DDT_AUDIT_GENERATED_(190)
  6
Continuous
 62
     7
100
AcDbCircle
 10
173.7169285478
 20
575.4813300343
 30
0.0
 40
0.1999999999999988
100
AcDbArc
 50
181.0
 51
270.0
  0
LINE
  5
4B2
330
3D7
100
AcDbEntity
  8
$DDT_AUDIT_GENERATED_(190)
  6
Continuous
 62
     7
100
AcDbLine
 10
173.5169590088
 20
575.4778395531
 30
0.0
 11
173.5151525757
 21
575.5813300343
 31
0.0
  0
LINE
  5
4B3
330
3D7
100
AcDbEntity
  8
$DDT_AUDIT_GENERATED_(190)
  6
Continuous
 62
     7
100
AcDbLine
 10
157.0169590088
 20
575.4778395531
 30
0.0
 11
157.0151525757
 21
575.5813300343
 31
0.0
  0
ARC
  5
4B4
330
3D7
100
AcDbEntity
  8
$DDT_AUDIT_GENERATED_(190)
  6
Continuous
 62
     7
100
AcDbCircle
 10
157.2169285478
 20
575.4813300343
 30
0.0
 40
0.1999999999999988
100
AcDbArc
 50
181.0
 51
270.0
  0
LINE
  5
4B5
330
3D7
100
AcDbEntity
  8
$DDT_AUDIT_GENERATED_(190)
  6
Continuous
 62
     7
100
AcDbLine
 10
158.8238496426
 20
575.2813300343
 30
0.0
 11
157.2169285478
 21
575.2813300343
 31
0.0
  0
ARC
  5
4B6
330
3D7
100
AcDbEntity
  8
$DDT_AUDIT_GENERATED_(190)
  6
Continuous
 62
     7
100
AcDbCircle
 10
158.8238496426
 20
575.4813300343
 30
0.0
 40
0.1999999999999992
100
AcDbArc
 50
270.0
 51
359.0
  0
LINE
  5
4B7
330
3D7
100
AcDbEntity
  8
$DDT_AUDIT_GENERATED_(190)
  6
Continuous
 62
     7
100
AcDbLine
 10
159.0256256147
 20
575.5813300343
 30
0.0
 11
159.0238191816
 21
575.4778395531
 31
0.0
  0
LINE
  5
4B8
330
3D7
100
AcDbEntity
  8
$DDT_AUDIT_GENERATED_(190)
  6
Continuous
 62
     7
100
AcDbLine
 10
131.0169590088
 20
575.4778395531
 30
0.0
 11
131.0151525757
 21
575.5813300343
 31
0.0
  0
ARC
  5
4B9
330
3D7
100
AcDbEntity
  8
$DDT_AUDIT_GENERATED_(190)
  6
Continuous
 62
     7
100
AcDbCircle
 10
131.2169285478
 20
575.4813300343
 30
0.0
 40
0.1999999999999988
100
AcDbArc
 50
181.0
 51
270.0
  0
LINE
  5
4BA
330
3D7
100
AcDbEntity
  8
$DDT_AUDIT_GENERATED_(190)
  6
Continuous
 62
     7
100
AcDbLine
 10
132.8238496426
 20
575.2813300343
 30
0.0
 11
131.2169285478
 21
575.2813300343
 31
0.0
  0
ARC
  5
4BB
330
3D7
100
AcDbEntity
  8
$DDT_AUDIT_GENERATED_(190)
  6
Continuous
 62
     7
100
AcDbCircle
 10
132.8238496426
 20
575.4813300343
 30
0.0
 40
0.1999999999999992
100
AcDbArc
 50
270.0
 51
359.0
  0
LINE
  5
4BC
330
3D7
100
AcDbEntity
  8
$DDT_AUDIT_GENERATED_(190)
  6
Continuous
 62
     7
100
AcDbLine
 10
133.0256256147
 20
575.5813300343
 30
0.0
 11
133.0238191816
 21
575.4778395531
 31
0.0
  0
LINE
  5
4BD
330
3D7
100
AcDbEntity
  8
$DDT_AUDIT_GENERATED_(190)
  6
Continuous
 62
     7
100
AcDbLine
 10
180.3003890952
 20
581.4313300343
 30
0.0
 11
180.3003890952
 21
596.0313300343
 31
0.0
  0
LINE
  5
4BE
330
3D7
100
AcDbEntity
  8
$DDT_AUDIT_GENERATED_(190)
  6
Continuous
 62
     7
100
AcDbLine
 10
180.3003890952
 20
597.1313300343
 30
0.0
 11
180.3003890952
 21
602.8813300343
 31
0.0
  0
LINE
  5
4BF
330
3D7
100
AcDbEntity
  8
$DDT_AUDIT_GENERATED_(190)
  6
Continuous
 62
     7
100
AcDbLine
 10
180.3703890952
 20
596.1833168759
 30
0.0
 11
180.3703890952
 21
596.9793431928
 31
0.0
  0
ARC
  5
4C0
330
3D7
100
AcDbEntity
  8
$DDT_AUDIT_GENERATED_(190)
  6
Continuous
 62
     7
100
AcDbCircle
 10
180.1703890952
 20
596.9793431928
 30
0.0
 40
0.1999999999999988
100
AcDbArc
 50
0.0
 51
49.4583981265
  0
ARC
  5
4C1
330
3D7
100
AcDbEntity
  8
$DDT_AUDIT_GENERATED_(190)
  6
Continuous
 62
     7
100
AcDbCircle
 10
180.1703890952
 20
596.1833168759
 30
0.0
 40
0.2000000000000006
100
AcDbArc
 50
310.5416018735
 51
0.0
  0
LINE
  5
4C2
330
3D7
100
AcDbEntity
  8
$DDT_AUDIT_GENERATED_(190)
  6
Continuous
 62
     7
100
AcDbLine
 10
180.3703890952
 20
580.4833168759
 30
0.0
 11
180.3703890952
 21
581.2793431928
 31
0.0
  0
ARC
  5
4C3
330
3D7
100
AcDbEntity
  8
$DDT_AUDIT_GENERATED_(190)
  6
Continuous
 62
     7
100
AcDbCircle
 10
180.1703890952
 20
581.2793431928
 30
0.0
 40
0.1999999999999988
100
AcDbArc
 50
0.0
 51
49.4583981265
  0
ARC
  5
4C4
330
3D7
100
AcDbEntity
  8
$DDT_AUDIT_GENERATED_(190)
  6
Continuous
 62
     7
100
AcDbCircle
 10
180.1703890952
 20
580.4833168759
 30
0.0
 40
0.2000000000000006
100
AcDbArc
 50
310.5416018735
 51
0.0
  0
LINE
  5
4C5
330
3D7
100
AcDbEntity
  8
$DDT_AUDIT_GENERATED_(190)
  6
Continuous
 62
     7
100
AcDbLine
 10
109.7403890952
 20
580.3313300343
 30
0.0
 11
109.7403890952
 21
576.0813300343
 31
0.0
  0
LINE
  5
4C6
330
3D7
100
AcDbEntity
  8
$DDT_AUDIT_GENERATED_(190)
  6
Continuous
 62
     7
100
AcDbLine
 10
109.7403890952
 20
596.0313300343
 30
0.0
 11
109.7403890952
 21
581.4313300343
 31
0.0
  0
LINE
  5
4C7
330
3D7
100
AcDbEntity
  8
$DDT_AUDIT_GENERATED_(190)
  6
Continuous
 62
     7
100
AcDbLine
 10
109.6703890952
 20
596.9793431928
 30
0.0
 11
109.6703890952
 21
596.1833168759
 31
0.0
  0
ARC
  5
4C8
330
3D7
100
AcDbEntity
  8
$DDT_AUDIT_GENERATED_(190)
  6
Continuous
 62
     7
100
AcDbCircle
 10
109.8703890952
 20
596.1833168759
 30
0.0
 40
0.2000000000000057
100
AcDbArc
 50
180.0
 51
229.4583981265
  0
ARC
  5
4C9
330
3D7
100
AcDbEntity
  8
$DDT_AUDIT_GENERATED_(190)
  6
Continuous
 62
     7
100
AcDbCircle
 10
109.8703890952
 20
596.9793431928
 30
0.0
 40
0.2000000000000013
100
AcDbArc
 50
130.5416018735
 51
180.0
  0
LINE
  5
4CA
330
3D7
100
AcDbEntity
  8
$DDT_AUDIT_GENERATED_(190)
  6
Continuous
 62
     7
100
AcDbLine
 10
109.6703890952
 20
581.2793431928
 30
0.0
 11
109.6703890952
 21
580.4833168759
 31
0.0
  0
ARC
  5
4CB
330
3D7
100
AcDbEntity
  8
$DDT_AUDIT_GENERATED_(190)
  6
Continuous
 62
     7
100
AcDbCircle
 10
109.8703890952
 20
580.4833168759
 30
0.0
 40
0.1999999999999988
100
AcDbArc
 50
180.0
 51
229.4583981265
  0
ARC
  5
4CC
330
3D7
100
AcDbEntity
  8
$DDT_AUDIT_GENERATED_(190)
  6
Continuous
 62
     7
100
AcDbCircle
 10
109.8703890952
 20
581.2793431928
 30
0.0
 40
0.2000000000000006
100
AcDbArc
 50
130.5416018735
 51
180.0
  0
LINE
  5
4CD
330
3D7
100
AcDbEntity
  8
$DDT_AUDIT_GENERATED_(190)
  6
Continuous
 62
     7
100
AcDbLine
 10
134.0203890952
 20
605.3813300343
 30
0.0
 11
112.2403890952
 21
605.3813300343
 31
0.0
  0
LINE
  5
4CE
330
3D7
100
AcDbEntity
  8
$DDT_AUDIT_GENERATED_(190)
  6
Continuous
 62
     7
100
AcDbLine
 10
135.3684022537
 20
605.4513300343
 30
0.0
 11
134.1723759367
 21
605.4513300343
 31
0.0
  0
ARC
  5
4CF
330
3D7
100
AcDbEntity
  8
$DDT_AUDIT_GENERATED_(190)
  6
Continuous
 62
     7
100
AcDbCircle
 10
134.1723759367
 20
605.2513300343
 30
0.0
 40
0.2000000000000057
100
AcDbArc
 50
90.0
 51
139.4583981265
  0
ARC
  5
4D0
330
3D7
100
AcDbEntity
  8
$DDT_AUDIT_GENERATED_(190)
  6
Continuous
 62
     7
100
AcDbCircle
 10
135.3684022537
 20
605.2513300343
 30
0.0
 40
0.2000000000000019
100
AcDbArc
 50
40.5416018735
 51
90.0
  0
LINE
  5
4D1
330
3D7
100
AcDbEntity
  8
$DDT_AUDIT_GENERATED_(190)
  6
Continuous
 62
     7
100
AcDbLine
 10
154.5203890952
 20
605.3813300343
 30
0.0
 11
148.2866749233
 21
605.3813300343
 31
0.0
  0
LINE
  5
4D2
330
3D7
100
AcDbEntity
  8
$DDT_AUDIT_GENERATED_(190)
  6
Continuous
 62
     7
100
AcDbLine
 10
155.8684022537
 20
605.4513300343
 30
0.0
 11
154.6723759367
 21
605.4513300343
 31
0.0
  0
ARC
  5
4D3
330
3D7
100
AcDbEntity
  8
$DDT_AUDIT_GENERATED_(190)
  6
Continuous
 62
     7
100
AcDbCircle
 10
155.8684022537
 20
605.2513300343
 30
0.0
 40
0.2000000000000006
100
AcDbArc
 50
40.5416018735
 51
90.0
  0
ARC
  5
4D4
330
3D7
100
AcDbEntity
  8
$DDT_AUDIT_GENERATED_(190)
  6
Continuous
 62
     7
100
AcDbCircle
 10
154.6723759367
 20
605.2513300343
 30
0.0
 40
0.2000000000000057
100
AcDbArc
 50
90.0
 51
139.4583981265
  0
ARC
  5
4D5
330
3D7
100
AcDbEntity
  8
$DDT_AUDIT_GENERATED_(1D1)
  6
Continuous
 62
     7
100
AcDbCircle
 10
137.4601751651
 20
573.9247080608
 30
0.0
 40
2.000000000000001
100
AcDbArc
 50
147.638246322
 51
149.7807040472
  0
ARC
  5
4D6
330
3D7
100
AcDbEntity
  8
$DDT_AUDIT_GENERATED_(1D1)
  6
Continuous
 62
     7
100
AcDbCircle
 10
152.5806030253
 20
573.9247080608
 30
0.0
 40
1.999999999999998
100
AcDbArc
 50
30.2192959524
 51
32.3617536777
  0
ARC
  5
4D7
330
3D7
100
AcDbEntity
  8
$DDT_AUDIT_GENERATED_(1D1)
  6
Continuous
 62
     7
100
AcDbCircle
 10
145.0203890952
 20
585.1313300343
 30
0.0
 40
13.75000000000002
100
AcDbArc
 50
223.9910068718
 51
227.6397375278
  0
ARC
  5
4D8
330
3D7
100
AcDbEntity
  8
$DDT_AUDIT_GENERATED_(1D1)
  6
Continuous
 62
     7
100
AcDbCircle
 10
145.0203890952
 20
585.1313300343
 30
0.0
 40
13.72207189611486
100
AcDbArc
 50
224.1036897453
 51
227.618323372
  0
ARC
  5
4D9
330
3D7
100
AcDbEntity
  8
$DDT_AUDIT_GENERATED_(1D1)
  6
Continuous
 62
     7
100
AcDbCircle
 10
145.0203890952
 20
585.1313300343
 30
0.0
 40
13.75
100
AcDbArc
 50
312.3602624722
 51
316.0089931282
  0
ARC
  5
4DA
330
3D7
100
AcDbEntity
  8
$DDT_AUDIT_GENERATED_(1D1)
  6
Continuous
 62
     7
100
AcDbCircle
 10
145.0203890952
 20
585.1313300343
 30
0.0
 40
13.72207189611485
100
AcDbArc
 50
312.381676628
 51
315.8963102547
  0
ARC
  5
4DB
330
3D7
100
AcDbEntity
  8
$DDT_AUDIT_GENERATED_(1D1)
  6
Continuous
 62
     7
100
AcDbCircle
 10
145.0203890952
 20
585.1313300343
 30
0.0
 40
12.79999999999998
100
AcDbArc
 50
307.1672854613
 51
311.7468700231
  0
ARC
  5
4DC
330
3D7
100
AcDbEntity
  8
$DDT_AUDIT_GENERATED_(1D1)
  6
Continuous
 62
     7
100
AcDbCircle
 10
145.0203890952
 20
585.1313300343
 30
0.0
 40
12.79999999999998
100
AcDbArc
 50
228.2531299769
 51
232.8327145387
  0
LINE
  5
4DD
330
3D7
100
AcDbEntity
  8
490147031_RAHMEN
  6
Continuous
 62
     7
100
AcDbLine
 10
223.0203890952
 20
647.6322438634
 30
0.0
 11
223.0203890952
 21
462.6304162053
 31
0.0
  0
ELLIPSE
  5
4DE
330
3D7
100
AcDbEntity
  8
490147031_RAHMEN
  6
Continuous
 62
     7
100
AcDbEllipse
 10
217.0194751269
 20
647.6304160661
 30
0.0
 11
-4.243933135017484
 21
-4.243933135017486
 31
0.0
210
0.0
220
0.0
230
1.0
 40
0.9996954599
 41
2.356346783439918
 42
3.926838523739659
  0
LINE
  5
4DF
330
3D7
100
AcDbEntity
  8
490147031_RAHMEN
  6
Continuous
 62
     7
100
AcDbLine
 10
217.0213029243
 20
456.6313300343
 30
0.0
 11
73.0194752661
 21
456.6313300343
 31
0.0
  0
ELLIPSE
  5
4E0
330
3D7
100
AcDbEntity
  8
490147031_RAHMEN
  6
Continuous
 62
     7
100
AcDbEllipse
 10
217.0194751269
 20
462.6322440026
 30
0.0
 11
-4.243933135017487
 21
4.243933135017484
 31
0.0
210
0.0
220
0.0
230
1.0
 40
0.9996954599
 41
2.356346783439936
 42
3.926838523739654
  0
LINE
  5
4E1
330
3D7
100
AcDbEntity
  8
490147031_RAHMEN
  6
Continuous
 62
     7
100
AcDbLine
 10
67.0203890952
 20
462.6304162053
 30
0.0
 11
67.0203890952
 21
647.6322438634
 31
0.0
  0
ELLIPSE
  5
4E2
330
3D7
100
AcDbEntity
  8
490147031_RAHMEN
  6
Continuous
 62
     7
100
AcDbEllipse
 10
73.0213030635
 20
462.6322440026
 30
0.0
 11
4.243933135017484
 21
4.243933135017487
 31
0.0
210
0.0
220
0.0
230
1.0
 40
0.9996954599
 41
2.356346783439927
 42
3.926838523739647
  0
LINE
  5
4E3
330
3D7
100
AcDbEntity
  8
490147031_RAHMEN
  6
Continuous
 62
     7
100
AcDbLine
 10
73.0194752661
 20
653.6313300343
 30
0.0
 11
217.0213029243
 21
653.6313300343
 31
0.0
  0
ELLIPSE
  5
4E4
330
3D7
100
AcDbEntity
  8
490147031_RAHMEN
  6
Continuous
 62
     7
100
AcDbEllipse
 10
73.0213030635
 20
647.6304160661
 30
0.0
 11
4.243933135017486
 21
-4.243933135017484
 31
0.0
210
0.0
220
0.0
230
1.0
 40
0.9996954599
 41
2.356346783439927
 42
3.926838523739647
  0
LINE
  5
4E5
330
3D7
100
AcDbEntity
  8
490147031_RAHMEN
  6
Continuous
 62
     7
100
AcDbLine
 10
109.5203890705
 20
566.122501501
 30
0.0
 11
109.5203890705
 21
552.1401585677
 31
0.0
  0
LINE
  5
4E6
330
3D7
100
AcDbEntity
  8
490147031_RAHMEN
  6
Continuous
 62
     7
100
AcDbLine
 10
109.5203890705
 20
552.1401585677
 30
0.0
 11
109.520310556
 21
552.1335073723
 31
0.0
  0
LINE
  5
4E7
330
3D7
100
AcDbEntity
  8
490147031_RAHMEN
  6
Continuous
 62
     7
100
AcDbLine
 10
109.520310556
 20
566.1291526964
 30
0.0
 11
109.5203890705
 21
566.122501501
 31
0.0
  0
ELLIPSE
  5
4E8
330
3D7
100
AcDbEntity
  8
490147031_RAHMEN
  6
Continuous
 62
     7
100
AcDbEllipse
 10
109.5247372733
 20
551.6484856469
 30
0.0
 11
0.0
 21
0.491692147455966
 31
0.0
210
0.0
220
0.0
230
1.0
 40
1.0
 41
0.0088434593282973
 42
1.570796326794897
  0
LINE
  5
4E9
330
3D7
100
AcDbEntity
  8
490147031_RAHMEN
  6
Continuous
 62
     7
100
AcDbLine
 10
109.5186284659
 20
505.9393008843
 30
0.0
 11
109.5186284659
 21
551.6484856469
 31
0.0
  0
LINE
  5
4EA
330
3D7
100
AcDbEntity
  8
490147031_RAHMEN
  6
Continuous
 62
     7
100
AcDbLine
 10
109.5186284659
 20
566.6141744217
 30
0.0
 11
109.5186284659
 21
604.3233591843
 31
0.0
  0
ELLIPSE
  5
4EB
330
3D7
100
AcDbEntity
  8
490147031_RAHMEN
  6
Continuous
 62
     7
100
AcDbEllipse
 10
109.5247372733
 20
566.6141744217
 30
0.0
 11
1.400106764874681E-14
 21
-0.6999999999999905
 31
0.0
210
0.0
220
0.0
230
1.0
 40
0.0087268678
 41
4.71238898038469
 42
5.491138500916112
  0
ARC
  5
4EC
330
3D7
100
AcDbEntity
  8
490147031_RAHMEN
  6
Continuous
 62
     7
100
AcDbCircle
 10
110.8240345452
 20
604.3233591843
 30
0.0
 40
1.305406079330391
100
AcDbArc
 50
90.0
 51
180.0
  0
LINE
  5
4ED
330
3D7
100
AcDbEntity
  8
490147031_RAHMEN
  6
Continuous
 62
     7
100
AcDbLine
 10
176.6932863593
 20
605.607624131
 30
0.0
 11
163.3474918311
 21
605.607624131
 31
0.0
  0
LINE
  5
4EE
330
3D7
100
AcDbEntity
  8
490147031_RAHMEN
  6
Continuous
 62
     7
100
AcDbLine
 10
113.3474918311
 20
605.607624131
 30
0.0
 11
126.6932863593
 21
605.607624131
 31
0.0
  0
LINE
  5
4EF
330
3D7
100
AcDbEntity
  8
490147031_RAHMEN
  6
Continuous
 62
     7
100
AcDbLine
 10
177.4948713785
 20
605.6287652637
 30
0.0
 11
179.2167436452
 21
605.6287652637
 31
0.0
  0
ELLIPSE
  5
4F0
330
3D7
100
AcDbEntity
  8
490147031_RAHMEN
  6
Continuous
 62
     7
100
AcDbEllipse
 10
177.4948713785
 20
605.6226564562
 30
0.0
 11
-0.6999999999999993
 21
-1.232798409323617E-16
 31
0.0
210
0.0
220
0.0
230
1.0
 40
0.0087268678
 41
4.71238898038469
 42
6.230825429619403
  0
ELLIPSE
  5
4F1
330
3D7
100
AcDbEntity
  8
490147031_RAHMEN
  6
Continuous
 62
     7
100
AcDbEllipse
 10
162.5459068118
 20
605.6226564562
 30
0.0
 11
-0.6999999999999993
 21
-7.062173744839589E-15
 31
0.0
210
0.0
220
0.0
230
1.0
 40
0.0087268678
 41
3.193952531149199
 42
4.71238898038469
  0
LINE
  5
4F2
330
3D7
100
AcDbEntity
  8
490147031_RAHMEN
  6
Continuous
 62
     7
100
AcDbLine
 10
127.4948713785
 20
605.6287652637
 30
0.0
 11
162.5459068118
 21
605.6287652637
 31
0.0
  0
ELLIPSE
  5
4F3
330
3D7
100
AcDbEntity
  8
490147031_RAHMEN
  6
Continuous
 62
     7
100
AcDbEllipse
 10
127.4948713785
 20
605.6226564562
 30
0.0
 11
-0.6999999999999993
 21
-1.232798409323617E-16
 31
0.0
210
0.0
220
0.0
230
1.0
 40
0.0087268678
 41
4.71238898038469
 42
6.230825429619403
  0
ELLIPSE
  5
4F4
330
3D7
100
AcDbEntity
  8
490147031_RAHMEN
  6
Continuous
 62
     7
100
AcDbEllipse
 10
112.5459068118
 20
605.6226564562
 30
0.0
 11
0.6999999999999993
 21
1.232798409323617E-16
 31
0.0
210
0.0
220
0.0
230
1.0
 40
0.0087268678
 41
0.0523598775597946
 42
1.570796326794897
  0
LINE
  5
4F5
330
3D7
100
AcDbEntity
  8
490147031_RAHMEN
  6
Continuous
 62
     7
100
AcDbLine
 10
110.8240345452
 20
605.6287652637
 30
0.0
 11
112.5459068118
 21
605.6287652637
 31
0.0
  0
ARC
  5
4F6
330
3D7
100
AcDbEntity
  8
490147031_RAHMEN
  6
Continuous
 62
     7
100
AcDbCircle
 10
110.8240345452
 20
505.9393008843
 30
0.0
 40
1.305406079330391
100
AcDbArc
 50
180.0
 51
270.0
  0
LINE
  5
4F7
330
3D7
100
AcDbEntity
  8
490147031_RAHMEN
  6
Continuous
 62
     7
100
AcDbLine
 10
113.3474918311
 20
504.6550359377
 30
0.0
 11
126.6932863593
 21
504.6550359377
 31
0.0
  0
LINE
  5
4F8
330
3D7
100
AcDbEntity
  8
490147031_RAHMEN
  6
Continuous
 62
     7
100
AcDbLine
 10
176.6932863593
 20
504.6550359377
 30
0.0
 11
163.3474918311
 21
504.6550359377
 31
0.0
  0
LINE
  5
4F9
330
3D7
100
AcDbEntity
  8
490147031_RAHMEN
  6
Continuous
 62
     7
100
AcDbLine
 10
179.2167436452
 20
504.633894805
 30
0.0
 11
177.4948713785
 21
504.633894805
 31
0.0
  0
ELLIPSE
  5
4FA
330
3D7
100
AcDbEntity
  8
490147031_RAHMEN
  6
Continuous
 62
     7
100
AcDbEllipse
 10
177.4948713785
 20
504.6400036125
 30
0.0
 11
-0.6999999999999993
 21
-1.232798409323617E-16
 31
0.0
210
0.0
220
0.0
230
1.0
 40
0.0087268678
 41
0.0523598775594064
 42
1.570796326794897
  0
ELLIPSE
  5
4FB
330
3D7
100
AcDbEntity
  8
490147031_RAHMEN
  6
Continuous
 62
     7
100
AcDbEllipse
 10
162.5459068118
 20
504.6400036125
 30
0.0
 11
0.6999999999999993
 21
-6.815614062974866E-15
 31
0.0
210
0.0
220
0.0
230
1.0
 40
0.0087268678
 41
4.71238898038469
 42
6.23082542962018
  0
LINE
  5
4FC
330
3D7
100
AcDbEntity
  8
490147031_RAHMEN
  6
Continuous
 62
     7
100
AcDbLine
 10
162.5459068118
 20
504.633894805
 30
0.0
 11
127.4948713785
 21
504.633894805
 31
0.0
  0
ELLIPSE
  5
4FD
330
3D7
100
AcDbEntity
  8
490147031_RAHMEN
  6
Continuous
 62
     7
100
AcDbEllipse
 10
127.4948713785
 20
504.6400036125
 30
0.0
 11
0.6999999999999993
 21
1.232798409323617E-16
 31
0.0
210
0.0
220
0.0
230
1.0
 40
0.0087268678
 41
3.193952531149199
 42
4.71238898038469
  0
ELLIPSE
  5
4FE
330
3D7
100
AcDbEntity
  8
490147031_RAHMEN
  6
Continuous
 62
     7
100
AcDbEllipse
 10
112.5459068118
 20
504.6400036125
 30
0.0
 11
0.6999999999999993
 21
1.232798409323617E-16
 31
0.0
210
0.0
220
0.0
230
1.0
 40
0.0087268678
 41
4.71238898038469
 42
6.230825429619792
  0
LINE
  5
4FF
330
3D7
100
AcDbEntity
  8
490147031_RAHMEN
  6
Continuous
 62
     7
100
AcDbLine
 10
112.5459068118
 20
504.633894805
 30
0.0
 11
110.8240345452
 21
504.633894805
 31
0.0
  0
ARC
  5
500
330
3D7
100
AcDbEntity
  8
490147031_RAHMEN
  6
Continuous
 62
     7
100
AcDbCircle
 10
179.2167436452
 20
604.3233591843
 30
0.0
 40
1.305406079330391
100
AcDbArc
 50
0.0
 51
90.0
  0
LINE
  5
501
330
3D7
100
AcDbEntity
  8
490147031_RAHMEN
  6
Continuous
 62
     7
100
AcDbLine
 10
180.5203891199
 20
566.122501501
 30
0.0
 11
180.5203891199
 21
552.1401585677
 31
0.0
  0
LINE
  5
502
330
3D7
100
AcDbEntity
  8
490147031_RAHMEN
  6
Continuous
 62
     7
100
AcDbLine
 10
180.5221497245
 20
551.6484856469
 30
0.0
 11
180.5221497245
 21
505.9393008843
 31
0.0
  0
ELLIPSE
  5
503
330
3D7
100
AcDbEntity
  8
490147031_RAHMEN
  6
Continuous
 62
     7
100
AcDbEllipse
 10
180.5160409171
 20
551.6484856469
 30
0.0
 11
0.0
 21
0.006108807453529153
 31
0.0
210
0.0
220
0.0
230
1.0
 40
1.0
 41
-1.570796326794897
 42
-0.0088434593282749
  0
ELLIPSE
  5
504
330
3D7
100
AcDbEntity
  8
490147031_RAHMEN
  6
Continuous
 62
     7
100
AcDbEllipse
 10
180.5160409171
 20
566.6141744217
 30
0.0
 11
1.232798409323621E-16
 21
-0.700000000000001
 31
0.0
210
0.0
220
0.0
230
1.0
 40
0.0087268678
 41
0.7920468062609788
 42
1.570796326794897
  0
LINE
  5
505
330
3D7
100
AcDbEntity
  8
490147031_RAHMEN
  6
Continuous
 62
     7
100
AcDbLine
 10
180.5221497245
 20
604.3233591843
 30
0.0
 11
180.5221497245
 21
566.6141744217
 31
0.0
  0
LINE
  5
506
330
3D7
100
AcDbEntity
  8
490147031_RAHMEN
  6
Continuous
 62
     7
100
AcDbLine
 10
180.5204676344
 20
552.1335073723
 30
0.0
 11
180.5203891199
 21
552.1401585677
 31
0.0
  0
LINE
  5
507
330
3D7
100
AcDbEntity
  8
490147031_RAHMEN
  6
Continuous
 62
     7
100
AcDbLine
 10
180.5203891199
 20
566.122501501
 30
0.0
 11
180.5204676344
 21
566.1291526964
 31
0.0
  0
ARC
  5
508
330
3D7
100
AcDbEntity
  8
490147031_RAHMEN
  6
Continuous
 62
     7
100
AcDbCircle
 10
179.2167436452
 20
505.9393008843
 30
0.0
 40
1.305406079330385
100
AcDbArc
 50
270.0
 51
0.0
  0
LINE
  5
509
330
3D7
100
AcDbEntity
  8
490147031_RAHMEN
  6
Continuous
 62
     7
100
AcDbLine
 10
113.3371556781
 20
605.6076217914
 30
0.0
 11
113.3474918311
 21
605.607624131
 31
0.0
  0
LINE
  5
50A
330
3D7
100
AcDbEntity
  8
490147031_RAHMEN
  6
Continuous
 62
     7
100
AcDbLine
 10
113.3474918311
 20
504.6550359377
 30
0.0
 11
113.3371556781
 21
504.6550382773
 31
0.0
  0
LINE
  5
50B
330
3D7
100
AcDbEntity
  8
490147031_RAHMEN
  6
Continuous
 62
     7
100
AcDbLine
 10
126.6932863593
 20
605.607624131
 30
0.0
 11
126.7036225123
 21
605.6076217914
 31
0.0
  0
LINE
  5
50C
330
3D7
100
AcDbEntity
  8
490147031_RAHMEN
  6
Continuous
 62
     7
100
AcDbLine
 10
126.7036225123
 20
504.6550382773
 30
0.0
 11
126.6932863593
 21
504.6550359377
 31
0.0
  0
LINE
  5
50D
330
3D7
100
AcDbEntity
  8
490147031_RAHMEN
  6
Continuous
 62
     7
100
AcDbLine
 10
163.3371556781
 20
605.6076217914
 30
0.0
 11
163.3474918311
 21
605.607624131
 31
0.0
  0
LINE
  5
50E
330
3D7
100
AcDbEntity
  8
490147031_RAHMEN
  6
Continuous
 62
     7
100
AcDbLine
 10
163.3474918311
 20
504.6550359377
 30
0.0
 11
163.3371556781
 21
504.6550382773
 31
0.0
  0
LINE
  5
50F
330
3D7
100
AcDbEntity
  8
490147031_RAHMEN
  6
Continuous
 62
     7
100
AcDbLine
 10
176.6932863593
 20
605.607624131
 30
0.0
 11
176.7036225123
 21
605.6076217914
 31
0.0
  0
LINE
  5
510
330
3D7
100
AcDbEntity
  8
490147031_RAHMEN
  6
Continuous
 62
     7
100
AcDbLine
 10
176.7036225123
 20
504.6550382773
 30
0.0
 11
176.6932863593
 21
504.6550359377
 31
0.0
  0
ELLIPSE
  5
511
330
3D7
100
AcDbEntity
  8
490147031_RAHMEN
  6
Continuous
 62
     7
100
AcDbEllipse
 10
176.7958307042
 20
504.4396915176
 30
0.0
 11
-0.03285136727638329
 21
-0.1972835210251322
 31
0.0
210
0.0
220
0.0
230
1.0
 40
0.9985916141
 41
3.194835332855397
 42
3.306825729050034
  0
ELLIPSE
  5
512
330
3D7
100
AcDbEntity
  8
490147031_RAHMEN
  6
Continuous
 62
     7
100
AcDbEllipse
 10
176.7958307042
 20
605.8229685511
 30
0.0
 11
-0.03285136727406578
 21
0.1972835210255139
 31
0.0
210
0.0
220
0.0
230
1.0
 40
0.9985916141
 41
2.976359578136438
 42
3.088349974275005
  0
ELLIPSE
  5
513
330
3D7
100
AcDbEntity
  8
490147031_RAHMEN
  6
Continuous
 62
     7
100
AcDbEllipse
 10
163.2449474862
 20
504.4396915176
 30
0.0
 11
0.03285136727576581
 21
-0.1972835210252294
 31
0.0
210
0.0
220
0.0
230
0.9999999999999997
 40
0.9985916141
 41
2.976359578132842
 42
3.088349968247439
  0
ELLIPSE
  5
514
330
3D7
100
AcDbEntity
  8
490147031_RAHMEN
  6
Continuous
 62
     7
100
AcDbEllipse
 10
126.7958307042
 20
504.4396915176
 30
0.0
 11
-0.03285136727576573
 21
-0.1972835210252294
 31
0.0
210
0.0
220
0.0
230
1.0
 40
0.9985916141
 41
3.194835338920546
 42
3.306825729046813
  0
ELLIPSE
  5
515
330
3D7
100
AcDbEntity
  8
490147031_RAHMEN
  6
Continuous
 62
     7
100
AcDbEllipse
 10
163.2449474862
 20
605.8229685511
 30
0.0
 11
0.03285136727377427
 21
0.1972835210255555
 31
0.0
210
0.0
220
0.0
230
1.0
 40
0.9985916141
 41
3.194835347244056
 42
3.30682572904119
  0
ELLIPSE
  5
516
330
3D7
100
AcDbEntity
  8
490147031_RAHMEN
  6
Continuous
 62
     7
100
AcDbEllipse
 10
126.7958307042
 20
605.8229685511
 30
0.0
 11
-0.03285136727377434
 21
0.1972835210255555
 31
0.0
210
0.0
220
0.0
230
0.9999999999999997
 40
0.9985916141
 41
2.976359578138254
 42
3.088349959928114
  0
ELLIPSE
  5
517
330
3D7
100
AcDbEntity
  8
490147031_RAHMEN
  6
Continuous
 62
     7
100
AcDbEllipse
 10
113.2449474862
 20
504.4396915176
 30
0.0
 11
0.03285136727640418
 21
-0.1972835210251322
 31
0.0
210
0.0
220
0.0
230
1.0
 40
0.9985916141
 41
2.976359578126011
 42
3.088349974343278
  0
ELLIPSE
  5
518
330
3D7
100
AcDbEntity
  8
490147031_RAHMEN
  6
Continuous
 62
     7
100
AcDbEllipse
 10
113.2449474862
 20
605.8229685511
 30
0.0
 11
0.03285136727461387
 21
0.1972835210254167
 31
0.0
210
0.0
220
0.0
230
1.0
 40
0.9985916141
 41
3.19483533291293
 42
3.306825729042131
  0
LINE
  5
519
330
3D7
100
AcDbEntity
  8
490147031_RAHMEN
  6
Continuous
 62
     7
100
AcDbLine
 10
176.8202908026
 20
504.6383723406
 30
0.0
 11
176.7363204925
 21
504.6523549555
 31
0.0
  0
LINE
  5
51A
330
3D7
100
AcDbEntity
  8
490147031_RAHMEN
  6
Continuous
 62
     7
100
AcDbLine
 10
176.8931253036
 20
504.6368825929
 30
0.0
 11
176.8935583533
 21
504.7313300343
 31
0.0
  0
LINE
  5
51B
330
3D7
100
AcDbEntity
  8
490147031_RAHMEN
  6
Continuous
 62
     7
100
AcDbLine
 10
176.7363204925
 20
605.6103051132
 30
0.0
 11
176.8202908026
 21
605.6242877281
 31
0.0
  0
LINE
  5
51C
330
3D7
100
AcDbEntity
  8
490147031_RAHMEN
  6
Continuous
 62
     7
100
AcDbLine
 10
176.8935583533
 20
605.5313300343
 30
0.0
 11
176.8931253036
 21
605.6257774758
 31
0.0
  0
LINE
  5
51D
330
3D7
100
AcDbEntity
  8
490147031_RAHMEN
  6
Continuous
 62
     7
100
AcDbLine
 10
163.1472198371
 20
504.7313300343
 30
0.0
 11
163.1476528867
 21
504.6368825929
 31
0.0
  0
LINE
  5
51E
330
3D7
100
AcDbEntity
  8
490147031_RAHMEN
  6
Continuous
 62
     7
100
AcDbLine
 10
163.3044576979
 20
504.6523549555
 30
0.0
 11
163.2204873877
 21
504.6383723406
 31
0.0
  0
LINE
  5
51F
330
3D7
100
AcDbEntity
  8
490147031_RAHMEN
  6
Continuous
 62
     7
100
AcDbLine
 10
163.1476528867
 20
605.6257774758
 30
0.0
 11
163.1472198371
 21
605.5313300343
 31
0.0
  0
LINE
  5
520
330
3D7
100
AcDbEntity
  8
490147031_RAHMEN
  6
Continuous
 62
     7
100
AcDbLine
 10
126.8202908026
 20
504.6383723406
 30
0.0
 11
126.7363204925
 21
504.6523549555
 31
0.0
  0
LINE
  5
521
330
3D7
100
AcDbEntity
  8
490147031_RAHMEN
  6
Continuous
 62
     7
100
AcDbLine
 10
163.2204873877
 20
605.6242877281
 30
0.0
 11
163.3044576979
 21
605.6103051132
 31
0.0
  0
LINE
  5
522
330
3D7
100
AcDbEntity
  8
490147031_RAHMEN
  6
Continuous
 62
     7
100
AcDbLine
 10
126.8931253036
 20
504.6368825929
 30
0.0
 11
126.8935583533
 21
504.7313300343
 31
0.0
  0
LINE
  5
523
330
3D7
100
AcDbEntity
  8
490147031_RAHMEN
  6
Continuous
 62
     7
100
AcDbLine
 10
126.7363204925
 20
605.6103051132
 30
0.0
 11
126.8202908026
 21
605.6242877281
 31
0.0
  0
LINE
  5
524
330
3D7
100
AcDbEntity
  8
490147031_RAHMEN
  6
Continuous
 62
     7
100
AcDbLine
 10
126.8935583533
 20
605.5313300343
 30
0.0
 11
126.8931253036
 21
605.6257774758
 31
0.0
  0
LINE
  5
525
330
3D7
100
AcDbEntity
  8
490147031_RAHMEN
  6
Continuous
 62
     7
100
AcDbLine
 10
113.1472198371
 20
504.7313300343
 30
0.0
 11
113.1476528867
 21
504.6368825929
 31
0.0
  0
LINE
  5
526
330
3D7
100
AcDbEntity
  8
490147031_RAHMEN
  6
Continuous
 62
     7
100
AcDbLine
 10
113.3044576979
 20
504.6523549555
 30
0.0
 11
113.2204873877
 21
504.6383723406
 31
0.0
  0
LINE
  5
527
330
3D7
100
AcDbEntity
  8
490147031_RAHMEN
  6
Continuous
 62
     7
100
AcDbLine
 10
113.1476528867
 20
605.6257774758
 30
0.0
 11
113.1472198371
 21
605.5313300343
 31
0.0
  0
LINE
  5
528
330
3D7
100
AcDbEntity
  8
490147031_RAHMEN
  6
Continuous
 62
     7
100
AcDbLine
 10
113.2204873877
 20
605.6242877281
 30
0.0
 11
113.3044576979
 21
605.6103051132
 31
0.0
  0
LINE
  5
529
330
3D7
100
AcDbEntity
  8
490656XXX_VM_ABD
  6
Continuous
 62
     7
100
AcDbLine
 10
220.9703890952
 20
647.0813300343
 30
0.0
 11
220.9703890952
 21
463.1813300343
 31
0.0
  0
ARC
  5
52A
330
3D7
100
AcDbEntity
  8
490656XXX_VM_ABD
  6
Continuous
 62
     7
100
AcDbCircle
 10
216.4703890952
 20
463.1813300343
 30
0.0
 40
4.49999999999999
100
AcDbArc
 50
270.0
 51
0.0
  0
LINE
  5
52B
330
3D7
100
AcDbEntity
  8
490656XXX_VM_ABD
  6
Continuous
 62
     7
100
AcDbLine
 10
216.4703890952
 20
458.6813300343
 30
0.0
 11
73.5703890952
 21
458.6813300343
 31
0.0
  0
LINE
  5
52C
330
3D7
100
AcDbEntity
  8
490656XXX_VM_ABD
  6
Continuous
 62
     7
100
AcDbLine
 10
186.5203890952
 20
505.6313300343
 30
0.0
 11
186.5203890952
 21
604.6313300343
 31
0.0
  0
ARC
  5
52D
330
3D7
100
AcDbEntity
  8
490656XXX_VM_ABD
  6
Continuous
 62
     7
100
AcDbCircle
 10
179.5203890952
 20
505.6313300343
 30
0.0
 40
6.999999999999999
100
AcDbArc
 50
270.0
 51
0.0
  0
LINE
  5
52E
330
3D7
100
AcDbEntity
  8
490656XXX_VM_ABD
  6
Continuous
 62
     7
100
AcDbLine
 10
110.5203890952
 20
498.6313300343
 30
0.0
 11
179.5203890952
 21
498.6313300343
 31
0.0
  0
ARC
  5
52F
330
3D7
100
AcDbEntity
  8
490656XXX_VM_ABD
  6
Continuous
 62
     7
100
AcDbCircle
 10
73.5703890952
 20
463.1813300343
 30
0.0
 40
4.49999999999999
100
AcDbArc
 50
180.0
 51
270.0
  0
LINE
  5
530
330
3D7
100
AcDbEntity
  8
490656XXX_VM_ABD
  6
Continuous
 62
     7
100
AcDbLine
 10
69.0703890952
 20
647.0813300343
 30
0.0
 11
69.0703890952
 21
463.1813300343
 31
0.0
  0
ARC
  5
531
330
3D7
100
AcDbEntity
  8
490656XXX_VM_ABD
  6
Continuous
 62
     7
100
AcDbCircle
 10
110.5203890952
 20
505.6313300343
 30
0.0
 40
6.999999999999999
100
AcDbArc
 50
180.0
 51
270.0
  0
LINE
  5
532
330
3D7
100
AcDbEntity
  8
490656XXX_VM_ABD
  6
Continuous
 62
     7
100
AcDbLine
 10
103.5203890952
 20
505.6313300343
 30
0.0
 11
103.5203890952
 21
604.6313300343
 31
0.0
  0
LINE
  5
533
330
3D7
100
AcDbEntity
  8
490656XXX_VM_ABD
  6
Continuous
 62
     7
100
AcDbLine
 10
216.4703890952
 20
651.5813300343
 30
0.0
 11
73.5703890952
 21
651.5813300343
 31
0.0
  0
ARC
  5
534
330
3D7
100
AcDbEntity
  8
490656XXX_VM_ABD
  6
Continuous
 62
     7
100
AcDbCircle
 10
216.4703890952
 20
647.0813300343
 30
0.0
 40
4.49999999999999
100
AcDbArc
 50
0.0
 51
90.0
  0
LINE
  5
535
330
3D7
100
AcDbEntity
  8
490656XXX_VM_ABD
  6
Continuous
 62
     7
100
AcDbLine
 10
110.5203890952
 20
611.6313300343
 30
0.0
 11
179.5203890952
 21
611.6313300343
 31
0.0
  0
ARC
  5
536
330
3D7
100
AcDbEntity
  8
490656XXX_VM_ABD
  6
Continuous
 62
     7
100
AcDbCircle
 10
179.5203890952
 20
604.6313300343
 30
0.0
 40
6.999999999999999
100
AcDbArc
 50
0.0
 51
90.0
  0
ARC
  5
537
330
3D7
100
AcDbEntity
  8
490656XXX_VM_ABD
  6
Continuous
 62
     7
100
AcDbCircle
 10
73.5703890952
 20
647.0813300343
 30
0.0
 40
4.49999999999999
100
AcDbArc
 50
90.0
 51
180.0
  0
ARC
  5
538
330
3D7
100
AcDbEntity
  8
490656XXX_VM_ABD
  6
Continuous
 62
     7
100
AcDbCircle
 10
110.5203890952
 20
604.6313300343
 30
0.0
 40
6.999999999999999
100
AcDbArc
 50
90.0
 51
180.0
  0
ENDBLK
  5
53A
330
3D7
100
AcDbEntity
  8
0
100
AcDbBlockEnd
  0
BLOCK
  5
54C
330
53B
100
AcDbEntity
  8
0
100
AcDbBlockBegin
  2
SE7
 70
     0
 10
0.0
 20
0.0
 30
0.0
  3
SE7
  1

  0
LINE
  5
53D
330
53B
100
AcDbEntity
  8
490147031_RAHMEN
  6
Continuous
 62
     7
100
AcDbLine
 10
217.0213029243
 20
279.4314014165
 30
0.0
 11
223.0203890952
 21
279.4314014165
 31
0.0
  0
LINE
  5
53E
330
53B
100
AcDbEntity
  8
490147031_RAHMEN
  6
Continuous
 62
     7
100
AcDbLine
 10
223.0203890952
 20
279.4314014165
 30
0.0
 11
222.915597779
 21
273.4279109352
 31
0.0
  0
LINE
  5
53F
330
53B
100
AcDbEntity
  8
490147031_RAHMEN
  6
Continuous
 62
     7
100
AcDbLine
 10
73.0194752661
 20
279.4314014165
 30
0.0
 11
217.0213029243
 21
279.4314014165
 31
0.0
  0
LINE
  5
540
330
53B
100
AcDbEntity
  8
490147031_RAHMEN
  6
Continuous
 62
     7
100
AcDbLine
 10
67.0203890952
 20
279.4314014165
 30
0.0
 11
73.0194752661
 21
279.4314014165
 31
0.0
  0
LINE
  5
541
330
53B
100
AcDbEntity
  8
490147031_RAHMEN
  6
Continuous
 62
     7
100
AcDbLine
 10
222.71562824
 20
273.2314014165
 30
0.0
 11
216.9165116081
 21
273.2314014165
 31
0.0
  0
LINE
  5
542
330
53B
100
AcDbEntity
  8
490147031_RAHMEN
  6
Continuous
 62
     7
100
AcDbLine
 10
73.1242665823
 20
273.2314014165
 30
0.0
 11
67.3251499504
 21
273.2314014165
 31
0.0
  0
LINE
  5
543
330
53B
100
AcDbEntity
  8
490147031_RAHMEN
  6
Continuous
 62
     7
100
AcDbLine
 10
216.9165116081
 20
273.2314014165
 30
0.0
 11
73.1242665823
 21
273.2314014165
 31
0.0
  0
LINE
  5
544
330
53B
100
AcDbEntity
  8
490147031_RAHMEN
  6
Continuous
 62
     7
100
AcDbLine
 10
67.1251804113
 20
273.4279109352
 30
0.0
 11
67.0203890952
 21
279.4314014165
 31
0.0
  0
ARC
  5
545
330
53B
100
AcDbEntity
  8
490147031_RAHMEN
  6
Continuous
 62
     7
100
AcDbCircle
 10
67.3251499504
 20
273.4314014165
 30
0.0
 40
0.199999999999994
100
AcDbArc
 50
181.0
 51
270.0
  0
ARC
  5
546
330
53B
100
AcDbEntity
  8
490147031_RAHMEN
  6
Continuous
 62
     7
100
AcDbCircle
 10
222.71562824
 20
273.4314014165
 30
0.0
 40
0.1999999999999997
100
AcDbArc
 50
270.0
 51
359.0
  0
LINE
  5
547
330
53B
100
AcDbEntity
  8
490656XXX_VM_ABD
  6
Continuous
 62
     7
100
AcDbLine
 10
73.5703890952
 20
270.8314014165
 30
0.0
 11
71.5703890952
 21
270.8314014165
 31
0.0
  0
LINE
  5
548
330
53B
100
AcDbEntity
  8
490656XXX_VM_ABD
  6
Continuous
 62
     7
100
AcDbLine
 10
73.5703890952
 20
270.8314014165
 30
0.0
 11
216.4703890952
 21
270.8314014165
 31
0.0
  0
LINE
  5
549
330
53B
100
AcDbEntity
  8
490656XXX_VM_ABD
  6
Continuous
 62
     7
100
AcDbLine
 10
216.4703890952
 20
270.8314014165
 30
0.0
 11
218.4703890952
 21
270.8314014165
 31
0.0
  0
ARC
  5
54A
330
53B
100
AcDbEntity
  8
490656XXX_VM_ABD
  6
Continuous
 62
     7
100
AcDbCircle
 10
218.4703890952
 20
273.3314014165
 30
0.0
 40
2.499999999999999
100
AcDbArc
 50
270.0
 51
357.707557224
  0
ARC
  5
54B
330
53B
100
AcDbEntity
  8
490656XXX_VM_ABD
  6
Continuous
 62
     7
100
AcDbCircle
 10
71.5703890952
 20
273.3314014165
 30
0.0
 40
2.5
100
AcDbArc
 50
182.292442776
 51
270.0
  0
ENDBLK
  5
54D
330
53B
100
AcDbEntity
  8
0
100
AcDbBlockEnd
  0
BLOCK
  5
55F
330
54E
100
AcDbEntity
  8
0
100
AcDbBlockBegin
  2
SE8
 70
     0
 10
0.0
 20
0.0
 30
0.0
  3
SE8
  1

  0
LINE
  5
550
330
54E
100
AcDbEntity
  8
490147031_RAHMEN
  6
Continuous
 62
     7
100
AcDbLine
 10
441.2203177131
 20
462.6304162053
 30
0.0
 11
441.2203177131
 21
647.6322438634
 31
0.0
  0
LINE
  5
551
330
54E
100
AcDbEntity
  8
490147031_RAHMEN
  6
Continuous
 62
     7
100
AcDbLine
 10
441.2203177131
 20
456.6313300343
 30
0.0
 11
441.2203177131
 21
462.6304162053
 31
0.0
  0
LINE
  5
552
330
54E
100
AcDbEntity
  8
490147031_RAHMEN
  6
Continuous
 62
     7
100
AcDbLine
 10
441.2203177131
 20
647.6322438634
 30
0.0
 11
441.2203177131
 21
653.6313300343
 31
0.0
  0
LINE
  5
553
330
54E
100
AcDbEntity
  8
490147031_RAHMEN
  6
Continuous
 62
     7
100
AcDbLine
 10
441.2203177131
 20
653.6313300343
 30
0.0
 11
447.2238081943
 21
653.5265387182
 31
0.0
  0
LINE
  5
554
330
54E
100
AcDbEntity
  8
490147031_RAHMEN
  6
Continuous
 62
     7
100
AcDbLine
 10
447.4203177131
 20
462.7352075214
 30
0.0
 11
447.4203177131
 21
456.9360908895
 31
0.0
  0
LINE
  5
555
330
54E
100
AcDbEntity
  8
490147031_RAHMEN
  6
Continuous
 62
     7
100
AcDbLine
 10
447.4203177131
 20
647.5274525473
 30
0.0
 11
447.4203177131
 21
462.7352075214
 31
0.0
  0
LINE
  5
556
330
54E
100
AcDbEntity
  8
490147031_RAHMEN
  6
Continuous
 62
     7
100
AcDbLine
 10
447.4203177131
 20
653.3265691792
 30
0.0
 11
447.4203177131
 21
647.5274525473
 31
0.0
  0
LINE
  5
557
330
54E
100
AcDbEntity
  8
490147031_RAHMEN
  6
Continuous
 62
     7
100
AcDbLine
 10
447.2238081943
 20
456.7361213505
 30
0.0
 11
441.2203177131
 21
456.6313300343
 31
0.0
  0
ARC
  5
558
330
54E
100
AcDbEntity
  8
490147031_RAHMEN
  6
Continuous
 62
     7
100
AcDbCircle
 10
447.2203177131
 20
456.9360908895
 30
0.0
 40
0.199999999999994
100
AcDbArc
 50
271.0
 51
0.0
  0
ARC
  5
559
330
54E
100
AcDbEntity
  8
490147031_RAHMEN
  6
Continuous
 62
     7
100
AcDbCircle
 10
447.2203177131
 20
653.3265691792
 30
0.0
 40
0.199999999999994
100
AcDbArc
 50
0.0
 51
89.0
  0
ARC
  5
55A
330
54E
100
AcDbEntity
  8
490656XXX_VM_ABD
  6
Continuous
 62
     7
100
AcDbCircle
 10
447.3203177131
 20
461.1813300343
 30
0.0
 40
2.5
100
AcDbArc
 50
272.292442776
 51
0.0
  0
LINE
  5
55B
330
54E
100
AcDbEntity
  8
490656XXX_VM_ABD
  6
Continuous
 62
     7
100
AcDbLine
 10
449.8203177131
 20
461.1813300343
 30
0.0
 11
449.8203177131
 21
463.1813300343
 31
0.0
  0
LINE
  5
55C
330
54E
100
AcDbEntity
  8
490656XXX_VM_ABD
  6
Continuous
 62
     7
100
AcDbLine
 10
449.8203177131
 20
463.1813300343
 30
0.0
 11
449.8203177131
 21
647.0813300343
 31
0.0
  0
LINE
  5
55D
330
54E
100
AcDbEntity
  8
490656XXX_VM_ABD
  6
Continuous
 62
     7
100
AcDbLine
 10
449.8203177131
 20
649.0813300343
 30
0.0
 11
449.8203177131
 21
647.0813300343
 31
0.0
  0
ARC
  5
55E
330
54E
100
AcDbEntity
  8
490656XXX_VM_ABD
  6
Continuous
 62
     7
100
AcDbCircle
 10
447.3203177131
 20
649.0813300343
 30
0.0
 40
2.5
100
AcDbArc
 50
0.0
 51
87.707557224
  0
ENDBLK
  5
560
330
54E
100
AcDbEntity
  8
0
100
AcDbBlockEnd
  0
ENDSEC
  0
SECTION
  2
ENTITIES
  0
INSERT
  5
5F
330
1F
100
AcDbEntity
  8
Default
100
AcDbBlockReference
  2
SEANNOT_GROUP
 10
0.0
 20
0.0
 30
0.0
  0
INSERT
  5
65
330
1F
100
AcDbEntity
  8
Default
100
AcDbBlockReference
  2
SEANNOT_GROUP1
 10
0.0
 20
0.0
 30
0.0
  0
INSERT
  5
6A
330
1F
100
AcDbEntity
  8
Default
100
AcDbBlockReference
  2
SEANNOT_GROUP2
 10
0.0
 20
0.0
 30
0.0
  0
INSERT
  5
6F
330
1F
100
AcDbEntity
  8
Default
100
AcDbBlockReference
  2
SEANNOT_GROUP3
 10
0.0
 20
0.0
 30
0.0
  0
INSERT
  5
74
330
1F
100
AcDbEntity
  8
Default
100
AcDbBlockReference
  2
SEANNOT_GROUP4
 10
0.0
 20
0.0
 30
0.0
  0
INSERT
  5
79
330
1F
100
AcDbEntity
  8
Default
100
AcDbBlockReference
  2
SEANNOT_GROUP5
 10
0.0
 20
0.0
 30
0.0
  0
INSERT
  5
7E
330
1F
100
AcDbEntity
  8
Default
100
AcDbBlockReference
  2
SEANNOT_GROUP6
 10
0.0
 20
0.0
 30
0.0
  0
INSERT
  5
83
330
1F
100
AcDbEntity
  8
Default
100
AcDbBlockReference
  2
SEANNOT_GROUP7
 10
0.0
 20
0.0
 30
0.0
  0
INSERT
  5
88
330
1F
100
AcDbEntity
  8
Default
100
AcDbBlockReference
  2
SEANNOT_GROUP8
 10
0.0
 20
0.0
 30
0.0
  0
INSERT
  5
8D
330
1F
100
AcDbEntity
  8
Default
100
AcDbBlockReference
  2
SEANNOT_GROUP9
 10
0.0
 20
0.0
 30
0.0
  0
INSERT
  5
92
330
1F
100
AcDbEntity
  8
Default
100
AcDbBlockReference
  2
SEANNOT_GROUP10
 10
0.0
 20
0.0
 30
0.0
  0
INSERT
  5
97
330
1F
100
AcDbEntity
  8
Default
100
AcDbBlockReference
  2
SEANNOT_GROUP11
 10
0.0
 20
0.0
 30
0.0
  0
INSERT
  5
9C
330
1F
100
AcDbEntity
  8
Default
100
AcDbBlockReference
  2
SEANNOT_GROUP12
 10
0.0
 20
0.0
 30
0.0
  0
INSERT
  5
A1
330
1F
100
AcDbEntity
  8
Default
100
AcDbBlockReference
  2
SEANNOT_GROUP13
 10
0.0
 20
0.0
 30
0.0
  0
INSERT
  5
A6
330
1F
100
AcDbEntity
  8
Default
100
AcDbBlockReference
  2
SEANNOT_GROUP14
 10
0.0
 20
0.0
 30
0.0
  0
INSERT
  5
AB
330
1F
100
AcDbEntity
  8
Default
100
AcDbBlockReference
  2
SEANNOT_GROUP15
 10
0.0
 20
0.0
 30
0.0
  0
INSERT
  5
B0
330
1F
100
AcDbEntity
  8
Default
100
AcDbBlockReference
  2
SEANNOT_GROUP16
 10
0.0
 20
0.0
 30
0.0
  0
INSERT
  5
B5
330
1F
100
AcDbEntity
  8
Default
100
AcDbBlockReference
  2
SEANNOT_GROUP17
 10
0.0
 20
0.0
 30
0.0
  0
INSERT
  5
BA
330
1F
100
AcDbEntity
  8
Default
100
AcDbBlockReference
  2
SE
 10
0.0
 20
0.0
 30
0.0
  0
INSERT
  5
CF
330
1F
100
AcDbEntity
  8
Default
100
AcDbBlockReference
  2
SE1
 10
0.0
 20
0.0
 30
0.0
  0
INSERT
  5
239
330
1F
100
AcDbEntity
  8
Default
100
AcDbBlockReference
  2
SE2
 10
0.0
 20
0.0
 30
0.0
  0
INSERT
  5
24C
330
1F
100
AcDbEntity
  8
Default
100
AcDbBlockReference
  2
SE3
 10
0.0
 20
0.0
 30
0.0
  0
INSERT
  5
3B0
330
1F
100
AcDbEntity
  8
Default
100
AcDbBlockReference
  2
SE4
 10
0.0
 20
0.0
 30
0.0
  0
INSERT
  5
3C4
330
1F
100
AcDbEntity
  8
Default
100
AcDbBlockReference
  2
SE5
 10
0.0
 20
0.0
 30
0.0
  0
INSERT
  5
3D8
330
1F
100
AcDbEntity
  8
Default
100
AcDbBlockReference
  2
SE6
 10
0.0
 20
0.0
 30
0.0
  0
INSERT
  5
53C
330
1F
100
AcDbEntity
  8
Default
100
AcDbBlockReference
  2
SE7
 10
0.0
 20
0.0
 30
0.0
  0
INSERT
  5
54F
330
1F
100
AcDbEntity
  8
Default
100
AcDbBlockReference
  2
SE8
 10
0.0
 20
0.0
 30
0.0
  0
TEXT
  5
562
330
1F
100
AcDbEntity
  8
Default
  6
Continuous
 62
     7
100
AcDbText
 10
5.9362635081
 20
53.4225120485
 30
0.0
 40
10.0
  1
Grohe AG^J
  7
SEACAD_seiso_ttf
 11
5.9362635081
 21
63.4225120485
 31
0.0
100
AcDbText
 73
     3
  0
TEXT
  5
563
330
1F
100
AcDbEntity
  8
Default
  6
Continuous
 62
     7
100
AcDbText
 10
5.9362635081
 20
37.0588756849
 30
0.0
 40
10.0
  1
 
  7
SEACAD_seiso_ttf
 11
5.9362635081
 21
47.0588756849
 31
0.0
100
AcDbText
 73
     3
  0
TEXT
  5
564
330
1F
100
AcDbEntity
  8
Default
  6
Continuous
 62
     7
100
AcDbText
 10
5.9362635081
 20
20.6952393213
 30
0.0
 40
10.0
  1
ecn: 
  7
SEACAD_seiso_ttf
 11
5.9362635081
 21
30.6952393213
 31
0.0
100
AcDbText
 73
     3
  0
TEXT
  5
565
330
1F
100
AcDbEntity
  8
Default
  6
Continuous
 62
     7
100
AcDbText
 10
5.9362635081
 20
4.3316029576
 30
0.0
 40
10.0
  1
unit: mm
  7
SEACAD_seiso_ttf
 11
5.9362635081
 21
14.3316029576
 31
0.0
100
AcDbText
 73
     3
  0
LINE
  5
566
330
1F
100
AcDbEntity
  8
Default
  6
Continuous
 62
     7
100
AcDbLine
 10
0.0
 20
0.0
 30
0.0
 11
100.0
 21
0.0
 31
0.0
  0
LINE
  5
567
330
1F
100
AcDbEntity
  8
Default
  6
Continuous
 62
     7
100
AcDbLine
 10
0.0
 20
0.0
 30
0.0
 11
0.0
 21
100.0
 31
0.0
  0
TEXT
  5
568
330
1F
100
AcDbEntity
  8
Default
  6
Continuous
 62
     7
100
AcDbText
 10
24.3923665681
 20
-18.2375342018
 30
0.0
 40
10.0
  1
100 mm
  7
SEACAD_seiso_ttf
 11
24.3923665681
 21
-8.2375342018
 31
0.0
100
AcDbText
 73
     3
  0
TEXT
  5
569
330
1F
100
AcDbEntity
  8
Default
  6
Continuous
 62
     7
100
AcDbText
 10
-7.6150308803
 20
24.6231930421
 30
0.0
 40
10.0
  1
100 mm
 50
90.0
  7
SEACAD_seiso_ttf
 11
-17.6150308803
 21
24.6231930421
 31
0.0
100
AcDbText
 73
     3
  0
TEXT
  5
56A
330
1F
100
AcDbEntity
  8
Default
  6
Continuous
 62
     7
100
AcDbText
 10
28.4878128572
 20
20.0907663715
 30
0.0
 40
10.0
  1
219648
  7
SEACAD_seiso_ttf
 11
28.4878128572
 21
30.0907663715
 31
0.0
100
AcDbText
 73
     3
  0
TEXT
  5
56B
330
1F
100
AcDbEntity
  8
Default
  6
Continuous
 62
     7
100
AcDbText
 10
5.9012241913
 20
36.7242780188
 30
0.0
 40
10.0
  1
38914XXX
  7
SEACAD_seiso_ttf
 11
5.9012241913
 21
46.7242780188
 31
0.0
100
AcDbText
 73
     3
  0
ENDSEC
  0
SECTION
  2
OBJECTS
  0
DICTIONARY
  5
C
330
0
100
AcDbDictionary
281
     1
  3
ACAD_GROUP
350
D
  3
ACAD_LAYOUT
350
1A
  3
ACAD_MLEADERSTYLE
350
56F
  3
ACAD_MLINESTYLE
350
17
  3
ACAD_PLOTSETTINGS
350
19
  3
ACAD_PLOTSTYLENAME
350
E
  3
ACAD_SCALELIST
350
3B
  3
ACAD_TABLESTYLE
350
56E
  3
ACAD_VISUALSTYLE
350
2A
  3
AcDbVariableDictionary
350
56C
  0
DICTIONARY
  5
D
102
{ACAD_REACTORS
330
C
102
}
330
C
100
AcDbDictionary
281
     1
  0
DICTIONARY
  5
1A
102
{ACAD_REACTORS
330
C
102
}
330
C
100
AcDbDictionary
281
     1
  3
Layout1
350
1E
  3
Model
350
22
  0
DICTIONARY
  5
56F
102
{ACAD_REACTORS
330
C
102
}
330
C
100
AcDbDictionary
281
     1
  0
DICTIONARY
  5
17
102
{ACAD_REACTORS
330
C
102
}
330
C
100
AcDbDictionary
281
     1
  3
Standard
350
18
  0
DICTIONARY
  5
19
102
{ACAD_REACTORS
330
C
102
}
330
C
100
AcDbDictionary
281
     1
  0
ACDBDICTIONARYWDFLT
  5
E
102
{ACAD_REACTORS
330
C
102
}
330
C
100
AcDbDictionary
281
     1
  3
Normal
350
F
100
AcDbDictionaryWithDefault
340
F
  0
DICTIONARY
  5
3B
102
{ACAD_REACTORS
330
C
102
}
330
C
100
AcDbDictionary
281
     1
  3
A0
350
3C
  3
A1
350
3D
  3
A2
350
3E
  3
A3
350
3F
  3
A4
350
40
  3
A5
350
41
  3
A6
350
42
  3
A7
350
43
  3
A8
350
44
  3
A9
350
45
  3
B0
350
46
  3
B1
350
47
  3
B2
350
48
  3
B3
350
49
  3
B4
350
4A
  3
B5
350
4B
  3
B6
350
4C
  3
B7
350
4D
  3
B8
350
4E
  3
B9
350
4F
  3
C0
350
50
  3
C1
350
51
  3
C2
350
52
  3
C3
350
53
  3
C4
350
54
  3
C5
350
55
  3
C6
350
56
  3
C7
350
57
  3
C8
350
58
  3
C9
350
59
  3
D0
350
5A
  3
D1
350
5B
  3
D2
350
5C
  0
DICTIONARY
  5
56E
102
{ACAD_REACTORS
330
C
102
}
330
C
100
AcDbDictionary
281
     1
  0
DICTIONARY
  5
2A
102
{ACAD_REACTORS
330
C
102
}
330
C
100
AcDbDictionary
281
     1
  3
2dWireframe
350
2F
  3
3D Hidden
350
31
  3
3dWireframe
350
30
  3
Basic
350
32
  3
Brighten
350
36
  3
ColorChange
350
3A
  3
Conceptual
350
34
  3
Dim
350
35
  3
Facepattern
350
39
  3
Flat
350
2B
  3
FlatWithEdges
350
2C
  3
Gouraud
350
2D
  3
GouraudWithEdges
350
2E
  3
Linepattern
350
38
  3
Realistic
350
33
  3
Thicken
350
37
  0
DICTIONARY
  5
56C
102
{ACAD_REACTORS
330
C
102
}
330
C
100
AcDbDictionary
281
     1
  3
CANNOSCALE
350
56D
  3
PSOLHEIGHT
350
571
  3
PSOLWIDTH
350
570
  0
LAYOUT
  5
1E
102
{ACAD_REACTORS
330
1A
102
}
330
1A
100
AcDbPlotSettings
  1

  2
none_device
  4

  6

 40
0.0
 41
0.0
 42
0.0
 43
0.0
 44
0.0
 45
0.0
 46
0.0
 47
0.0
 48
0.0
 49
0.0
140
0.0
141
0.0
142
1.0
143
1.0
 70
   688
 72
     0
 73
     0
 74
     5
  7

 75
    16
147
1.0
148
0.0
149
0.0
100
AcDbLayout
  1
Layout1
 70
     1
 71
     1
 10
0.0
 20
0.0
 11
1682.0
 21
2378.0
 12
0.0
 22
0.0
 32
0.0
 14
0.0
 24
0.0
 34
0.0
 15
1682.0
 25
2378.0
 35
0.0
146
0.0
 13
0.0
 23
0.0
 33
0.0
 16
1.0
 26
0.0
 36
0.0
 17
0.0
 27
1.0
 37
0.0
 76
     0
330
1B
  0
LAYOUT
  5
22
102
{ACAD_REACTORS
330
1A
102
}
330
1A
100
AcDbPlotSettings
  1

  2
none_device
  4

  6

 40
0.0
 41
0.0
 42
0.0
 43
0.0
 44
0.0
 45
0.0
 46
0.0
 47
0.0
 48
0.0
 49
0.0
140
0.0
141
0.0
142
1.0
143
1.0
 70
  1712
 72
     0
 73
     0
 74
     0
  7

 75
     0
147
1.0
148
0.0
149
0.0
100
AcDbLayout
  1
Model
 70
     1
 71
     0
 10
0.0
 20
0.0
 11
1682.0
 21
2378.0
 12
0.0
 22
0.0
 32
0.0
 14
0.0
 24
0.0
 34
0.0
 15
1682.0
 25
2378.0
 35
0.0
146
0.0
 13
0.0
 23
0.0
 33
0.0
 16
1.0
 26
0.0
 36
0.0
 17
0.0
 27
1.0
 37
0.0
 76
     0
330
1F
331
29
  0
MLINESTYLE
  5
18
102
{ACAD_REACTORS
330
17
102
}
330
17
100
AcDbMlineStyle
  2
Standard
 70
     0
  3

 62
   256
 51
90.0
 52
90.0
 71
     2
 49
0.5
 62
   256
  6
BYLAYER
 49
-0.5
 62
   256
  6
BYLAYER
  0
ACDBPLACEHOLDER
  5
F
102
{ACAD_REACTORS
330
E
102
}
330
E
  0
SCALE
  5
3C
102
{ACAD_REACTORS
330
3B
102
}
330
3B
100
AcDbScale
 70
     0
300
1:1
140
1.0
141
1.0
290
     1
  0
SCALE
  5
3D
102
{ACAD_REACTORS
330
3B
102
}
330
3B
100
AcDbScale
 70
     0
300
1:2
140
1.0
141
2.0
290
     0
  0
SCALE
  5
3E
102
{ACAD_REACTORS
330
3B
102
}
330
3B
100
AcDbScale
 70
     0
300
1:4
140
1.0
141
4.0
290
     0
  0
SCALE
  5
3F
102
{ACAD_REACTORS
330
3B
102
}
330
3B
100
AcDbScale
 70
     0
300
1:5
140
1.0
141
5.0
290
     0
  0
SCALE
  5
40
102
{ACAD_REACTORS
330
3B
102
}
330
3B
100
AcDbScale
 70
     0
300
1:8
140
1.0
141
8.0
290
     0
  0
SCALE
  5
41
102
{ACAD_REACTORS
330
3B
102
}
330
3B
100
AcDbScale
 70
     0
300
1:10
140
1.0
141
10.0
290
     0
  0
SCALE
  5
42
102
{ACAD_REACTORS
330
3B
102
}
330
3B
100
AcDbScale
 70
     0
300
1:16
140
1.0
141
16.0
290
     0
  0
SCALE
  5
43
102
{ACAD_REACTORS
330
3B
102
}
330
3B
100
AcDbScale
 70
     0
300
1:20
140
1.0
141
20.0
290
     0
  0
SCALE
  5
44
102
{ACAD_REACTORS
330
3B
102
}
330
3B
100
AcDbScale
 70
     0
300
1:30
140
1.0
141
30.0
290
     0
  0
SCALE
  5
45
102
{ACAD_REACTORS
330
3B
102
}
330
3B
100
AcDbScale
 70
     0
300
1:40
140
1.0
141
40.0
290
     0
  0
SCALE
  5
46
102
{ACAD_REACTORS
330
3B
102
}
330
3B
100
AcDbScale
 70
     0
300
1:50
140
1.0
141
50.0
290
     0
  0
SCALE
  5
47
102
{ACAD_REACTORS
330
3B
102
}
330
3B
100
AcDbScale
 70
     0
300
1:100
140
1.0
141
100.0
290
     0
  0
SCALE
  5
48
102
{ACAD_REACTORS
330
3B
102
}
330
3B
100
AcDbScale
 70
     0
300
2:1
140
2.0
141
1.0
290
     0
  0
SCALE
  5
49
102
{ACAD_REACTORS
330
3B
102
}
330
3B
100
AcDbScale
 70
     0
300
4:1
140
4.0
141
1.0
290
     0
  0
SCALE
  5
4A
102
{ACAD_REACTORS
330
3B
102
}
330
3B
100
AcDbScale
 70
     0
300
8:1
140
8.0
141
1.0
290
     0
  0
SCALE
  5
4B
102
{ACAD_REACTORS
330
3B
102
}
330
3B
100
AcDbScale
 70
     0
300
10:1
140
10.0
141
1.0
290
     0
  0
SCALE
  5
4C
102
{ACAD_REACTORS
330
3B
102
}
330
3B
100
AcDbScale
 70
     0
300
100:1
140
100.0
141
1.0
290
     0
  0
SCALE
  5
4D
102
{ACAD_REACTORS
330
3B
102
}
330
3B
100
AcDbScale
 70
     0
300
1/128" = 1'-0"
140
0.0078125
141
12.0
290
     0
  0
SCALE
  5
4E
102
{ACAD_REACTORS
330
3B
102
}
330
3B
100
AcDbScale
 70
     0
300
1/64" = 1'-0"
140
0.015625
141
12.0
290
     0
  0
SCALE
  5
4F
102
{ACAD_REACTORS
330
3B
102
}
330
3B
100
AcDbScale
 70
     0
300
1/32" = 1'-0"
140
0.03125
141
12.0
290
     0
  0
SCALE
  5
50
102
{ACAD_REACTORS
330
3B
102
}
330
3B
100
AcDbScale
 70
     0
300
1/16" = 1'-0"
140
0.0625
141
12.0
290
     0
  0
SCALE
  5
51
102
{ACAD_REACTORS
330
3B
102
}
330
3B
100
AcDbScale
 70
     0
300
3/32" = 1'-0"
140
0.09375
141
12.0
290
     0
  0
SCALE
  5
52
102
{ACAD_REACTORS
330
3B
102
}
330
3B
100
AcDbScale
 70
     0
300
1/8" = 1'-0"
140
0.125
141
12.0
290
     0
  0
SCALE
  5
53
102
{ACAD_REACTORS
330
3B
102
}
330
3B
100
AcDbScale
 70
     0
300
3/16" = 1'-0"
140
0.1875
141
12.0
290
     0
  0
SCALE
  5
54
102
{ACAD_REACTORS
330
3B
102
}
330
3B
100
AcDbScale
 70
     0
300
1/4" = 1'-0"
140
0.25
141
12.0
290
     0
  0
SCALE
  5
55
102
{ACAD_REACTORS
330
3B
102
}
330
3B
100
AcDbScale
 70
     0
300
3/8" = 1'-0"
140
0.375
141
12.0
290
     0
  0
SCALE
  5
56
102
{ACAD_REACTORS
330
3B
102
}
330
3B
100
AcDbScale
 70
     0
300
1/2" = 1'-0"
140
0.5
141
12.0
290
     0
  0
SCALE
  5
57
102
{ACAD_REACTORS
330
3B
102
}
330
3B
100
AcDbScale
 70
     0
300
3/4" = 1'-0"
140
0.75
141
12.0
290
     0
  0
SCALE
  5
58
102
{ACAD_REACTORS
330
3B
102
}
330
3B
100
AcDbScale
 70
     0
300
1" = 1'-0"
140
1.0
141
12.0
290
     0
  0
SCALE
  5
59
102
{ACAD_REACTORS
330
3B
102
}
330
3B
100
AcDbScale
 70
     0
300
1-1/2" = 1'-0"
140
1.5
141
12.0
290
     0
  0
SCALE
  5
5A
102
{ACAD_REACTORS
330
3B
102
}
330
3B
100
AcDbScale
 70
     0
300
3" = 1'-0"
140
3.0
141
12.0
290
     0
  0
SCALE
  5
5B
102
{ACAD_REACTORS
330
3B
102
}
330
3B
100
AcDbScale
 70
     0
300
6" = 1'-0"
140
6.0
141
12.0
290
     0
  0
SCALE
  5
5C
102
{ACAD_REACTORS
330
3B
102
}
330
3B
100
AcDbScale
 70
     0
300
1'-0" = 1'-0"
140
12.0
141
12.0
290
     0
  0
VISUALSTYLE
  5
2F
102
{ACAD_REACTORS
330
2A
102
}
330
2A
100
AcDbVisualStyle
  2
2dWireframe
 70
     4
 71
     0
 72
     2
 73
     0
 90
        0
 40
-0.6
 41
-30.0
 62
     5
 63
     7
 74
     1
 91
        4
 64
     7
 65
   257
 75
     1
175
     1
 42
1.0
 92
        0
 66
   257
 43
1.0
 76
     1
 77
     6
 78
     2
 67
     7
 79
     5
170
     0
171
     0
290
     0
174
     0
 93
        1
 44
0.0
173
     0
291
     0
 45
0.0
1001
ACAD
1000
AcDbSavedByObjectVersion
1070
     0
  0
VISUALSTYLE
  5
31
102
{ACAD_REACTORS
330
2A
102
}
330
2A
100
AcDbVisualStyle
  2
3D Hidden
 70
     6
 71
     1
 72
     2
 73
     2
 90
        0
 40
-0.6
 41
-30.0
 62
     5
 63
     7
 74
     2
 91
        2
 64
     7
 65
   257
 75
     2
175
     1
 42
40.0
 92
        0
 66
   257
 43
1.0
 76
     1
 77
     6
 78
     2
 67
     7
 79
     3
170
     0
171
     0
290
     0
174
     0
 93
        1
 44
0.0
173
     0
291
     0
 45
0.0
1001
ACAD
1000
AcDbSavedByObjectVersion
1070
     0
  0
VISUALSTYLE
  5
30
102
{ACAD_REACTORS
330
2A
102
}
330
2A
100
AcDbVisualStyle
  2
3dWireframe
 70
     5
 71
     0
 72
     2
 73
     0
 90
        0
 40
-0.6
 41
-30.0
 62
     5
 63
     7
 74
     1
 91
        4
 64
     7
 65
   257
 75
     1
175
     1
 42
1.0
 92
        0
 66
   257
 43
1.0
 76
     1
 77
     6
 78
     2
 67
     7
 79
     5
170
     0
171
     0
290
     0
174
     0
 93
        1
 44
0.0
173
     0
291
     0
 45
0.0
1001
ACAD
1000
AcDbSavedByObjectVersion
1070
     0
  0
VISUALSTYLE
  5
32
102
{ACAD_REACTORS
330
2A
102
}
330
2A
100
AcDbVisualStyle
  2
Basic
 70
     7
 71
     1
 72
     0
 73
     1
 90
        0
 40
-0.6
 41
-30.0
 62
     5
 63
     7
 74
     0
 91
        4
 64
     7
 65
   257
 75
     1
175
     1
 42
1.0
 92
        8
 66
     7
 43
1.0
 76
     1
 77
     6
 78
     2
 67
     7
 79
     5
170
     0
171
     0
290
     0
174
     0
 93
        1
 44
0.0
173
     0
291
     1
 45
0.0
1001
ACAD
1000
AcDbSavedByObjectVersion
1070
     0
  0
VISUALSTYLE
  5
36
102
{ACAD_REACTORS
330
2A
102
}
330
2A
100
AcDbVisualStyle
  2
Brighten
 70
    12
 71
     2
 72
     2
 73
     0
 90
        0
 40
-0.6
 41
-30.0
 62
     5
 63
     7
 74
     1
 91
        4
 64
     7
 65
   257
 75
     1
175
     1
 42
1.0
 92
        8
 66
     7
 43
1.0
 76
     1
 77
     6
 78
     2
 67
     7
 79
     5
170
     0
171
     0
290
     0
174
     0
 93
        1
 44
50.0
173
     0
291
     1
 45
0.0
1001
ACAD
1000
AcDbSavedByObjectVersion
1070
     0
  0
VISUALSTYLE
  5
3A
102
{ACAD_REACTORS
330
2A
102
}
330
2A
100
AcDbVisualStyle
  2
ColorChange
 70
    16
 71
     2
 72
     2
 73
     3
 90
        0
 40
-0.6
 41
-30.0
 62
     5
 63
     8
 74
     1
 91
        4
 64
     7
 65
   257
 75
     1
175
     1
 42
1.0
 92
        8
 66
     8
 43
1.0
 76
     1
 77
     6
 78
     2
 67
     7
 79
     5
170
     0
171
     0
290
     0
174
     0
 93
        1
 44
0.0
173
     0
291
     1
 45
0.0
1001
ACAD
1000
AcDbSavedByObjectVersion
1070
     0
  0
VISUALSTYLE
  5
34
102
{ACAD_REACTORS
330
2A
102
}
330
2A
100
AcDbVisualStyle
  2
Conceptual
 70
     9
 71
     3
 72
     2
 73
     0
 90
        0
 40
-0.6
 41
-30.0
 62
     5
 63
     7
 74
     2
 91
        2
 64
     7
 65
   257
 75
     1
175
     1
 42
40.0
 92
        8
 66
     7
 43
1.0
 76
     1
 77
     6
 78
     2
 67
     7
 79
     3
170
     0
171
     0
290
     0
174
     0
 93
        1
 44
0.0
173
     0
291
     0
 45
0.0
1001
ACAD
1000
AcDbSavedByObjectVersion
1070
     0
  0
VISUALSTYLE
  5
35
102
{ACAD_REACTORS
330
2A
102
}
330
2A
100
AcDbVisualStyle
  2
Dim
 70
    11
 71
     2
 72
     2
 73
     0
 90
        0
 40
-0.6
 41
-30.0
 62
     5
 63
     7
 74
     1
 91
        4
 64
     7
 65
   257
 75
     1
175
     1
 42
1.0
 92
        8
 66
     7
 43
1.0
 76
     1
 77
     6
 78
     2
 67
     7
 79
     5
170
     0
171
     0
290
     0
174
     0
 93
        1
 44
-50.0
173
     0
291
     1
 45
0.0
1001
ACAD
1000
AcDbSavedByObjectVersion
1070
     0
  0
VISUALSTYLE
  5
39
102
{ACAD_REACTORS
330
2A
102
}
330
2A
100
AcDbVisualStyle
  2
Facepattern
 70
    15
 71
     2
 72
     2
 73
     0
 90
        0
 40
-0.6
 41
-30.0
 62
     5
 63
     7
 74
     1
 91
        4
 64
     7
 65
   257
 75
     1
175
     1
 42
1.0
 92
        8
 66
     7
 43
1.0
 76
     1
 77
     6
 78
     2
 67
     7
 79
     5
170
     0
171
     0
290
     0
174
     0
 93
        1
 44
0.0
173
     0
291
     1
 45
0.0
1001
ACAD
1000
AcDbSavedByObjectVersion
1070
     0
  0
VISUALSTYLE
  5
2B
102
{ACAD_REACTORS
330
2A
102
}
330
2A
100
AcDbVisualStyle
  2
Flat
 70
     0
 71
     2
 72
     1
 73
     1
 90
        2
 40
-0.6
 41
30.0
 62
     5
 63
     7
 74
     0
 91
        4
 64
     7
 65
   257
 75
     1
175
     1
 42
1.0
 92
        8
 66
     7
 43
1.0
 76
     1
 77
     6
 78
     2
 67
     7
 79
     5
170
     0
171
     0
290
     0
174
     0
 93
       13
 44
0.0
173
     0
291
     1
 45
0.0
1001
ACAD
1000
AcDbSavedByObjectVersion
1070
     0
  0
VISUALSTYLE
  5
2C
102
{ACAD_REACTORS
330
2A
102
}
330
2A
100
AcDbVisualStyle
  2
FlatWithEdges
 70
     1
 71
     2
 72
     1
 73
     1
 90
        2
 40
-0.6
 41
30.0
 62
     5
 63
     7
 74
     1
 91
        4
 64
     7
 65
   257
 75
     1
175
     1
 42
1.0
 92
        0
 66
   257
 43
1.0
 76
     1
 77
     6
 78
     2
 67
     7
 79
     5
170
     0
171
     0
290
     0
174
     0
 93
       13
 44
0.0
173
     0
291
     1
 45
0.0
1001
ACAD
1000
AcDbSavedByObjectVersion
1070
     0
  0
VISUALSTYLE
  5
2D
102
{ACAD_REACTORS
330
2A
102
}
330
2A
100
AcDbVisualStyle
  2
Gouraud
 70
     2
 71
     2
 72
     2
 73
     1
 90
        2
 40
-0.6
 41
30.0
 62
     5
 63
     7
 74
     0
 91
        4
 64
     7
 65
   257
 75
     1
175
     1
 42
1.0
 92
        0
 66
     7
 43
1.0
 76
     1
 77
     6
 78
     2
 67
     7
 79
     5
170
     0
171
     0
290
     0
174
     0
 93
       13
 44
0.0
173
     0
291
     1
 45
0.0
1001
ACAD
1000
AcDbSavedByObjectVersion
1070
     0
  0
VISUALSTYLE
  5
2E
102
{ACAD_REACTORS
330
2A
102
}
330
2A
100
AcDbVisualStyle
  2
GouraudWithEdges
 70
     3
 71
     2
 72
     2
 73
     1
 90
        2
 40
-0.6
 41
30.0
 62
     5
 63
     7
 74
     1
 91
        4
 64
     7
 65
   257
 75
     1
175
     1
 42
1.0
 92
        0
 66
   257
 43
1.0
 76
     1
 77
     6
 78
     2
 67
     7
 79
     5
170
     0
171
     0
290
     0
174
     0
 93
       13
 44
0.0
173
     0
291
     1
 45
0.0
1001
ACAD
1000
AcDbSavedByObjectVersion
1070
     0
  0
VISUALSTYLE
  5
38
102
{ACAD_REACTORS
330
2A
102
}
330
2A
100
AcDbVisualStyle
  2
Linepattern
 70
    14
 71
     2
 72
     2
 73
     0
 90
        0
 40
-0.6
 41
-30.0
 62
     5
 63
     7
 74
     1
 91
        4
 64
     7
 65
   257
 75
     7
175
     7
 42
1.0
 92
        8
 66
     7
 43
1.0
 76
     1
 77
     6
 78
     2
 67
     7
 79
     5
170
     0
171
     0
290
     0
174
     0
 93
        1
 44
0.0
173
     0
291
     1
 45
0.0
1001
ACAD
1000
AcDbSavedByObjectVersion
1070
     0
  0
VISUALSTYLE
  5
33
102
{ACAD_REACTORS
330
2A
102
}
330
2A
100
AcDbVisualStyle
  2
Realistic
 70
     8
 71
     2
 72
     2
 73
     0
 90
        0
 40
-0.6
 41
-30.0
 62
     5
 63
     7
 74
     1
 91
        0
 64
     7
 65
   257
 75
     1
175
     1
 42
1.0
 92
        8
 66
     8
 43
1.0
 76
     1
 77
     6
 78
     2
 67
     7
 79
     5
170
     0
171
     0
290
     0
174
     0
 93
       13
 44
0.0
173
     0
291
     0
 45
0.0
1001
ACAD
1000
AcDbSavedByObjectVersion
1070
     0
  0
VISUALSTYLE
  5
37
102
{ACAD_REACTORS
330
2A
102
}
330
2A
100
AcDbVisualStyle
  2
Thicken
 70
    13
 71
     2
 72
     2
 73
     0
 90
        0
 40
-0.6
 41
-30.0
 62
     5
 63
     7
 74
     1
 91
        4
 64
     7
 65
   257
 75
     1
175
     1
 42
1.0
 92
       12
 66
     7
 43
1.0
 76
     1
 77
     6
 78
     2
 67
     7
 79
     5
170
     0
171
     0
290
     0
174
     0
 93
        1
 44
0.0
173
     0
291
     1
 45
0.0
1001
ACAD
1000
AcDbSavedByObjectVersion
1070
     0
  0
DICTIONARYVAR
  5
56D
102
{ACAD_REACTORS
330
56C
102
}
330
56C
100
DictionaryVariables
280
     0
  1
1:1
  0
DICTIONARYVAR
  5
571
102
{ACAD_REACTORS
330
56C
102
}
330
56C
100
DictionaryVariables
280
     0
  1
80.000000
  0
DICTIONARYVAR
  5
570
102
{ACAD_REACTORS
330
56C
102
}
330
56C
100
DictionaryVariables
280
     0
  1
5.000000
  0
ENDSEC
  0
EOF
