  0
SECTION
  2
HEADER
  9
$ACADVER
  1
AC1015
  9
$ACADMAINTVER
 70
     6
  9
$DWGCODEPAGE
  3
ANSI_1252
  9
$INSBASE
 10
0.0
 20
0.0
 30
0.0
  9
$EXTMIN
 10
0.0
 20
0.0
 30
0.0
  9
$EXTMAX
 10
1682.0
 20
2378.0
 30
0.0
  9
$LIMMIN
 10
0.0
 20
0.0
  9
$LIMMAX
 10
1682.0
 20
2378.0
  9
$ORTHOMODE
 70
     0
  9
$REGENMODE
 70
     1
  9
$FILLMODE
 70
     1
  9
$QTEXTMODE
 70
     0
  9
$MIRRTEXT
 70
     1
  9
$LTSCALE
 40
1.0
  9
$ATTMODE
 70
     1
  9
$TEXTSIZE
 40
2.5
  9
$TRACEWID
 40
1.0
  9
$TEXTSTYLE
  7
Standard
  9
$CLAYER
  8
0
  9
$CELTYPE
  6
ByLayer
  9
$CECOLOR
 62
   256
  9
$CELTSCALE
 40
1.0
  9
$DISPSILH
 70
     0
  9
$DIMSCALE
 40
1.0
  9
$DIMASZ
 40
2.5
  9
$DIMEXO
 40
0.625
  9
$DIMDLI
 40
3.75
  9
$DIMRND
 40
0.0
  9
$DIMDLE
 40
0.0
  9
$DIMEXE
 40
1.25
  9
$DIMTP
 40
0.0
  9
$DIMTM
 40
0.0
  9
$DIMTXT
 40
2.5
  9
$DIMCEN
 40
2.5
  9
$DIMTSZ
 40
0.0
  9
$DIMTOL
 70
     0
  9
$DIMLIM
 70
     0
  9
$DIMTIH
 70
     0
  9
$DIMTOH
 70
     0
  9
$DIMSE1
 70
     0
  9
$DIMSE2
 70
     0
  9
$DIMTAD
 70
     1
  9
$DIMZIN
 70
     8
  9
$DIMBLK
  1

  9
$DIMASO
 70
     1
  9
$DIMSHO
 70
     1
  9
$DIMPOST
  1

  9
$DIMAPOST
  1

  9
$DIMALT
 70
     0
  9
$DIMALTD
 70
     3
  9
$DIMALTF
 40
0.0393700787
  9
$DIMLFAC
 40
1.0
  9
$DIMTOFL
 70
     1
  9
$DIMTVP
 40
0.0
  9
$DIMTIX
 70
     0
  9
$DIMSOXD
 70
     0
  9
$DIMSAH
 70
     0
  9
$DIMBLK1
  1

  9
$DIMBLK2
  1

  9
$DIMSTYLE
  2
ISO-25
  9
$DIMCLRD
 70
     0
  9
$DIMCLRE
 70
     0
  9
$DIMCLRT
 70
     0
  9
$DIMTFAC
 40
1.0
  9
$DIMGAP
 40
0.625
  9
$DIMJUST
 70
     0
  9
$DIMSD1
 70
     0
  9
$DIMSD2
 70
     0
  9
$DIMTOLJ
 70
     0
  9
$DIMTZIN
 70
     8
  9
$DIMALTZ
 70
     0
  9
$DIMALTTZ
 70
     0
  9
$DIMUPT
 70
     0
  9
$DIMDEC
 70
     2
  9
$DIMTDEC
 70
     2
  9
$DIMALTU
 70
     2
  9
$DIMALTTD
 70
     3
  9
$DIMTXSTY
  7
Standard
  9
$DIMAUNIT
 70
     0
  9
$DIMADEC
 70
     0
  9
$DIMALTRND
 40
0.0
  9
$DIMAZIN
 70
     0
  9
$DIMDSEP
 70
    44
  9
$DIMATFIT
 70
     3
  9
$DIMFRAC
 70
     0
  9
$DIMLDRBLK
  1

  9
$DIMLUNIT
 70
     2
  9
$DIMLWD
 70
    -2
  9
$DIMLWE
 70
    -2
  9
$DIMTMOVE
 70
     0
  9
$LUNITS
 70
     2
  9
$LUPREC
 70
     4
  9
$SKETCHINC
 40
1.0
  9
$FILLETRAD
 40
10.0
  9
$AUNITS
 70
     0
  9
$AUPREC
 70
     0
  9
$MENU
  1
.
  9
$ELEVATION
 40
0.0
  9
$PELEVATION
 40
0.0
  9
$THICKNESS
 40
0.0
  9
$LIMCHECK
 70
     0
  9
$CHAMFERA
 40
10.0
  9
$CHAMFERB
 40
10.0
  9
$CHAMFERC
 40
20.0
  9
$CHAMFERD
 40
0.0
  9
$SKPOLY
 70
     0
  9
$TDCREATE
 40
2455237.610034907
  9
$TDUCREATE
 40
2455237.568368241
  9
$TDUPDATE
 40
2455237.610034919
  9
$TDUUPDATE
 40
2455237.568368252
  9
$TDINDWG
 40
0.0000000116
  9
$TDUSRTIMER
 40
0.0000000116
  9
$USRTIMER
 70
     1
  9
$ANGBASE
 50
0.0
  9
$ANGDIR
 70
     0
  9
$PDMODE
 70
     0
  9
$PDSIZE
 40
0.0
  9
$PLINEWID
 40
0.0
  9
$SPLFRAME
 70
     0
  9
$SPLINETYPE
 70
     6
  9
$SPLINESEGS
 70
     8
  9
$HANDSEED
  5
134
  9
$SURFTAB1
 70
     6
  9
$SURFTAB2
 70
     6
  9
$SURFTYPE
 70
     6
  9
$SURFU
 70
     6
  9
$SURFV
 70
     6
  9
$UCSBASE
  2

  9
$UCSNAME
  2

  9
$UCSORG
 10
0.0
 20
0.0
 30
0.0
  9
$UCSXDIR
 10
1.0
 20
0.0
 30
0.0
  9
$UCSYDIR
 10
0.0
 20
1.0
 30
0.0
  9
$UCSORTHOREF
  2

  9
$UCSORTHOVIEW
 70
     0
  9
$UCSORGTOP
 10
0.0
 20
0.0
 30
0.0
  9
$UCSORGBOTTOM
 10
0.0
 20
0.0
 30
0.0
  9
$UCSORGLEFT
 10
0.0
 20
0.0
 30
0.0
  9
$UCSORGRIGHT
 10
0.0
 20
0.0
 30
0.0
  9
$UCSORGFRONT
 10
0.0
 20
0.0
 30
0.0
  9
$UCSORGBACK
 10
0.0
 20
0.0
 30
0.0
  9
$PUCSBASE
  2

  9
$PUCSNAME
  2

  9
$PUCSORG
 10
0.0
 20
0.0
 30
0.0
  9
$PUCSXDIR
 10
1.0
 20
0.0
 30
0.0
  9
$PUCSYDIR
 10
0.0
 20
1.0
 30
0.0
  9
$PUCSORTHOREF
  2

  9
$PUCSORTHOVIEW
 70
     0
  9
$PUCSORGTOP
 10
0.0
 20
0.0
 30
0.0
  9
$PUCSORGBOTTOM
 10
0.0
 20
0.0
 30
0.0
  9
$PUCSORGLEFT
 10
0.0
 20
0.0
 30
0.0
  9
$PUCSORGRIGHT
 10
0.0
 20
0.0
 30
0.0
  9
$PUCSORGFRONT
 10
0.0
 20
0.0
 30
0.0
  9
$PUCSORGBACK
 10
0.0
 20
0.0
 30
0.0
  9
$USERI1
 70
     0
  9
$USERI2
 70
     0
  9
$USERI3
 70
     0
  9
$USERI4
 70
     0
  9
$USERI5
 70
     0
  9
$USERR1
 40
0.0
  9
$USERR2
 40
0.0
  9
$USERR3
 40
0.0
  9
$USERR4
 40
0.0
  9
$USERR5
 40
0.0
  9
$WORLDVIEW
 70
     1
  9
$SHADEDGE
 70
     3
  9
$SHADEDIF
 70
    70
  9
$TILEMODE
 70
     1
  9
$MAXACTVP
 70
    64
  9
$PINSBASE
 10
0.0
 20
0.0
 30
0.0
  9
$PLIMCHECK
 70
     0
  9
$PEXTMIN
 10
0.0
 20
0.0
 30
0.0
  9
$PEXTMAX
 10
1682.0
 20
2378.0
 30
0.0
  9
$PLIMMIN
 10
0.0
 20
0.0
  9
$PLIMMAX
 10
1682.0
 20
2378.0
  9
$UNITMODE
 70
     0
  9
$VISRETAIN
 70
     1
  9
$PLINEGEN
 70
     0
  9
$PSLTSCALE
 70
     1
  9
$TREEDEPTH
 70
  3020
  9
$CMLSTYLE
  2
Standard
  9
$CMLJUST
 70
     0
  9
$CMLSCALE
 40
20.0
  9
$PROXYGRAPHICS
 70
     1
  9
$MEASUREMENT
 70
     1
  9
$CELWEIGHT
370
    -1
  9
$ENDCAPS
280
     0
  9
$JOINSTYLE
280
     0
  9
$LWDISPLAY
290
     0
  9
$INSUNITS
 70
     4
  9
$HYPERLINKBASE
  1

  9
$STYLESHEET
  1

  9
$XEDIT
290
     1
  9
$CEPSNTYPE
380
     0
  9
$PSTYLEMODE
290
     1
  9
$FINGERPRINTGUID
  2
{3E2FA3BD-A44D-49AE-8479-22306D9ED9BA}
  9
$VERSIONGUID
  2
{FAEB1C32-E019-11D5-929B-00C0DF256EC4}
  9
$EXTNAMES
290
     1
  9
$PSVPSCALE
 40
0.0
  9
$OLESTARTUP
290
     0
  0
ENDSEC
  0
SECTION
  2
CLASSES
  0
CLASS
  1
ACDBDICTIONARYWDFLT
  2
AcDbDictionaryWithDefault
  3
ObjectDBX Classes
 90
        0
280
     0
281
     0
  0
CLASS
  1
VISUALSTYLE
  2
AcDbVisualStyle
  3
ObjectDBX Classes
 90
     4095
280
     0
281
     0
  0
CLASS
  1
SCALE
  2
AcDbScale
  3
ObjectDBX Classes
 90
     1153
280
     0
281
     0
  0
CLASS
  1
DICTIONARYVAR
  2
AcDbDictionaryVar
  3
ObjectDBX Classes
 90
        0
280
     0
281
     0
  0
CLASS
  1
ACDBPLACEHOLDER
  2
AcDbPlaceHolder
  3
ObjectDBX Classes
 90
        0
280
     0
281
     0
  0
CLASS
  1
LAYOUT
  2
AcDbLayout
  3
ObjectDBX Classes
 90
        0
280
     0
281
     0
  0
ENDSEC
  0
SECTION
  2
TABLES
  0
TABLE
  2
VPORT
  5
8
330
0
100
AcDbSymbolTable
 70
     1
  0
VPORT
  5
29
330
8
100
AcDbSymbolTableRecord
100
AcDbViewportTableRecord
  2
*Active
 70
     0
 10
0.0
 20
0.0
 11
1.0
 21
1.0
 12
344.1869158879
 22
148.5
 13
0.0
 23
0.0
 14
10.0
 24
10.0
 15
10.0
 25
10.0
 16
0.0
 26
0.0
 36
1.0
 17
0.0
 27
0.0
 37
0.0
 40
297.0
 41
1.9729729729
 42
50.0
 43
0.0
 44
0.0
 50
0.0
 51
0.0
 71
     0
 72
   100
 73
     1
 74
     3
 75
     0
 76
     0
 77
     0
 78
     0
281
     0
 65
     1
110
0.0
120
0.0
130
0.0
111
1.0
121
0.0
131
0.0
112
0.0
122
1.0
132
0.0
 79
     0
146
0.0
  0
ENDTAB
  0
TABLE
  2
LTYPE
  5
5
330
0
100
AcDbSymbolTable
 70
     3
  0
LTYPE
  5
14
330
5
100
AcDbSymbolTableRecord
100
AcDbLinetypeTableRecord
  2
ByBlock
 70
     0
  3

 72
    65
 73
     0
 40
0.0
  0
LTYPE
  5
15
330
5
100
AcDbSymbolTableRecord
100
AcDbLinetypeTableRecord
  2
ByLayer
 70
     0
  3

 72
    65
 73
     0
 40
0.0
  0
LTYPE
  5
16
330
5
100
AcDbSymbolTableRecord
100
AcDbLinetypeTableRecord
  2
Continuous
 70
     0
  3
Solid line
 72
    65
 73
     0
 40
0.0
  0
LTYPE
  5
A6
330
5
100
AcDbSymbolTableRecord
100
AcDbLinetypeTableRecord
  2
CENTER2
 70
     0
  3
Center (.5x) ___ _ ___ _ ___ _ ___ _ ___ _ ___
 72
    65
 73
     4
 40
28.575
 49
19.05
 74
     4
 75
     0
340
0
 46
0.0
 50
0.0
 44
0.0
 45
0.0
 49
-3.175
 74
     4
 75
     0
340
0
 46
0.0
 50
0.0
 44
0.0
 45
0.0
 49
3.175
 74
     4
 75
     0
340
0
 46
0.0
 50
0.0
 44
0.0
 45
0.0
 49
-3.175
 74
     4
 75
     0
340
0
 46
0.0
 50
0.0
 44
0.0
 45
0.0
  0
LTYPE
  5
10F
330
5
100
AcDbSymbolTableRecord
100
AcDbLinetypeTableRecord
  2
HIDDEN2
 70
     0
  3
Hidden (.5x) _ _ _ _ _ _ _ _ _ _ _ _ _ _ _ _ _ 
 72
    65
 73
     2
 40
4.7625
 49
3.175
 74
     4
 75
     0
340
0
 46
0.0
 50
0.0
 44
0.0
 45
0.0
 49
-1.5875
 74
     4
 75
     0
340
0
 46
0.0
 50
0.0
 44
0.0
 45
0.0
  0
ENDTAB
  0
TABLE
  2
LAYER
  5
2
330
0
100
AcDbSymbolTable
 70
    10
  0
LAYER
  5
10
330
2
100
AcDbSymbolTableRecord
100
AcDbLayerTableRecord
  2
0
 70
     0
 62
     7
  6
Continuous
370
    -3
390
F
  0
LAYER
  5
5D
330
2
100
AcDbSymbolTableRecord
100
AcDbLayerTableRecord
  2
Default
 70
     0
 62
     7
  6
Continuous
370
    -3
390
F
  0
LAYER
  5
60
330
2
100
AcDbSymbolTableRecord
100
AcDbLayerTableRecord
  2
$DDT_AUDIT_GENERATED_(60)
 70
     0
 62
     7
  6
Continuous
370
    -3
390
F
  0
LAYER
  5
68
330
2
100
AcDbSymbolTableRecord
100
AcDbLayerTableRecord
  2
$DDT_AUDIT_GENERATED_(68)
 70
     0
 62
     7
  6
Continuous
370
    -3
390
F
  0
LAYER
  5
7E
330
2
100
AcDbSymbolTableRecord
100
AcDbLayerTableRecord
  2
$DDT_AUDIT_GENERATED_(7E)
 70
     0
 62
     7
  6
Continuous
370
    -3
390
F
  0
LAYER
  5
A2
330
2
100
AcDbSymbolTableRecord
100
AcDbLayerTableRecord
  2
$DDT_AUDIT_GENERATED_(A2)
 70
     0
 62
     7
  6
Continuous
370
    -3
390
F
  0
LAYER
  5
A5
330
2
100
AcDbSymbolTableRecord
100
AcDbLayerTableRecord
  2
DV1_Standard
 70
     0
 62
     7
  6
Continuous
370
    -3
390
F
  0
LAYER
  5
F3
330
2
100
AcDbSymbolTableRecord
100
AcDbLayerTableRecord
  2
DV2_Standard
 70
     0
 62
     7
  6
Continuous
370
    -3
390
F
  0
LAYER
  5
FC
330
2
100
AcDbSymbolTableRecord
100
AcDbLayerTableRecord
  2
$DDT_AUDIT_GENERATED_(FC)
 70
     0
 62
     7
  6
Continuous
370
    -3
390
F
  0
LAYER
  5
11A
330
2
100
AcDbSymbolTableRecord
100
AcDbLayerTableRecord
  2
DV3_Standard
 70
     0
 62
     7
  6
Continuous
370
    -3
390
F
  0
ENDTAB
  0
TABLE
  2
STYLE
  5
3
330
0
100
AcDbSymbolTable
 70
     2
  0
STYLE
  5
11
330
3
100
AcDbSymbolTableRecord
100
AcDbTextStyleTableRecord
  2
Standard
 70
     0
 40
0.0
 41
1.0
 50
0.0
 71
     0
 42
2.5
  3
txt
  4

  0
STYLE
  5
123
330
3
100
AcDbSymbolTableRecord
100
AcDbTextStyleTableRecord
  2
SEACAD_seiso_ttf
 70
     0
 40
0.0
 41
1.0
 50
0.0
 71
     0
 42
0.2
  3
seiso.ttf
  4

  0
ENDTAB
  0
TABLE
  2
VIEW
  5
6
330
0
100
AcDbSymbolTable
 70
     0
  0
ENDTAB
  0
TABLE
  2
UCS
  5
7
330
0
100
AcDbSymbolTable
 70
     0
  0
ENDTAB
  0
TABLE
  2
APPID
  5
9
330
0
100
AcDbSymbolTable
 70
     1
  0
APPID
  5
12
330
9
100
AcDbSymbolTableRecord
100
AcDbRegAppTableRecord
  2
ACAD
 70
     0
  0
ENDTAB
  0
TABLE
  2
DIMSTYLE
  5
A
330
0
100
AcDbSymbolTable
 70
     1
100
AcDbDimStyleTable
  0
DIMSTYLE
105
27
330
A
100
AcDbSymbolTableRecord
100
AcDbDimStyleTableRecord
  2
ISO-25
 70
     0
 41
2.5
 42
0.625
 43
3.75
 44
1.25
 73
     0
 74
     0
 77
     1
 78
     8
140
2.5
141
2.5
143
0.0393700787
147
0.625
171
     3
172
     1
271
     2
272
     2
274
     3
278
    44
283
     0
284
     8
340
11
  0
ENDTAB
  0
TABLE
  2
BLOCK_RECORD
  5
1
330
0
100
AcDbSymbolTable
 70
     4
  0
BLOCK_RECORD
  5
1F
330
1
100
AcDbSymbolTableRecord
100
AcDbBlockTableRecord
  2
*Model_Space
340
22
  0
BLOCK_RECORD
  5
1B
330
1
100
AcDbSymbolTableRecord
100
AcDbBlockTableRecord
  2
*Paper_Space
340
1E
  0
BLOCK_RECORD
  5
5E
330
1
100
AcDbSymbolTableRecord
100
AcDbBlockTableRecord
  2
SE
340
0
102
{BLKREFS
331
5F
102
}
  0
BLOCK_RECORD
  5
AB
330
1
100
AcDbSymbolTableRecord
100
AcDbBlockTableRecord
  2
SE1
340
0
102
{BLKREFS
331
AC
102
}
  0
BLOCK_RECORD
  5
FA
330
1
100
AcDbSymbolTableRecord
100
AcDbBlockTableRecord
  2
SE2
340
0
102
{BLKREFS
331
FB
102
}
  0
ENDTAB
  0
ENDSEC
  0
SECTION
  2
BLOCKS
  0
BLOCK
  5
20
330
1F
100
AcDbEntity
  8
0
100
AcDbBlockBegin
  2
*Model_Space
 70
     0
 10
0.0
 20
0.0
 30
0.0
  3
*Model_Space
  1

  0
ENDBLK
  5
21
330
1F
100
AcDbEntity
  8
0
100
AcDbBlockEnd
  0
BLOCK
  5
1C
330
1B
100
AcDbEntity
 67
     1
  8
0
100
AcDbBlockBegin
  2
*Paper_Space
 70
     0
 10
0.0
 20
0.0
 30
0.0
  3
*Paper_Space
  1

  0
ENDBLK
  5
1D
330
1B
100
AcDbEntity
 67
     1
  8
0
100
AcDbBlockEnd
  0
BLOCK
  5
A9
330
5E
100
AcDbEntity
  8
0
100
AcDbBlockBegin
  2
SE
 70
     0
 10
0.0
 20
0.0
 30
0.0
  3
SE
  1

  0
ELLIPSE
  5
61
330
5E
100
AcDbEntity
  8
$DDT_AUDIT_GENERATED_(60)
  6
Continuous
 62
     7
100
AcDbEllipse
 10
63.8444486864
 20
446.6053215469
 30
0.0
 11
15.79612427914186
 21
0.0
 31
0.0
210
0.0
220
0.0
230
1.0
 40
0.8660254038
 41
0.0
 42
6.283185307179586
  0
LINE
  5
62
330
5E
100
AcDbEntity
  8
$DDT_AUDIT_GENERATED_(60)
  6
Continuous
 62
     7
100
AcDbLine
 10
66.0944485604
 20
416.9098923206
 30
0.0
 11
66.0944486679
 21
409.4362643248
 31
0.0
  0
SPLINE
  5
63
330
5E
100
AcDbEntity
  8
$DDT_AUDIT_GENERATED_(60)
  6
Continuous
 62
     7
100
AcDbSpline
210
0.0
220
0.0
230
1.0
 70
     8
 71
     3
 72
    25
 73
    21
 74
     0
 42
0.0000000031193813
 43
0.0000000001
 40
0.0
 40
0.0
 40
0.0
 40
0.0
 40
0.0505147425939736
 40
0.100559231918833
 40
0.1500184148817876
 40
0.1987723425198882
 40
0.2466987316591894
 40
0.2936757149574931
 40
0.3395846925834267
 40
0.3843132047642869
 40
0.4277577566327238
 40
0.4698265441153703
 40
0.5104420503558528
 40
0.5822807242897037
 40
0.6539957249724596
 40
0.7252811064341063
 40
0.795814651399546
 40
0.8652845690518957
 40
0.933416830496522
 40
1.0
 40
1.0
 40
1.0
 40
1.0
 10
66.09444856036986
 20
416.9098923205984
 30
0.0
 10
66.0934223515576
 20
416.9534497681958
 30
0.0
 10
66.091379956657
 20
417.0400811528539
 30
0.0
 10
66.07488999714212
 20
417.1686529291562
 30
0.0
 10
66.04845450412601
 20
417.2949742694222
 30
0.0
 10
66.01129189609959
 20
417.4184494897765
 30
0.0
 10
65.96396452188453
 20
417.5384787104026
 30
0.0
 10
65.90689600089945
 20
417.6544149533749
 30
0.0
 10
65.84074304884855
 20
417.7655949989735
 30
0.0
 10
65.76627323625252
 20
417.8713551698903
 30
0.0
 10
65.68436611895731
 20
417.9710397329432
 30
0.0
 10
65.59597711841403
 20
418.0640495473043
 30
0.0
 10
65.4768817223326
 20
418.1727696728701
 30
0.0
 10
65.31733703229442
 20
418.2925855966175
 30
0.0
 10
65.10680988576915
 20
418.416100338743
 30
0.0
 10
64.8756340529951
 20
418.5205982792091
 30
0.0
 10
64.628440525932
 20
418.6041515183248
 30
0.0
 10
64.3706530880305
 20
418.6644248183594
 30
0.0
 10
64.10811956756498
 20
418.7026711649432
 30
0.0
 10
63.93166262105103
 20
418.7075328395482
 30
0.0
 10
63.84444868643149
 20
418.7152138412602
 30
0.0
  0
LINE
  5
64
330
5E
100
AcDbEntity
  8
$DDT_AUDIT_GENERATED_(60)
  6
Continuous
 62
     7
100
AcDbLine
 10
61.594448705
 20
409.4362662236
 30
0.0
 11
61.5944488119
 21
416.903738064
 31
0.0
  0
SPLINE
  5
65
330
5E
100
AcDbEntity
  8
$DDT_AUDIT_GENERATED_(60)
  6
Continuous
 62
     7
100
AcDbSpline
210
0.0
220
0.0
230
1.0
 70
     8
 71
     3
 72
    26
 73
    22
 74
     0
 42
0.0000000031124285
 43
0.0000000001
 40
0.0
 40
0.0
 40
0.0
 40
0.0
 40
0.0356110993886267
 40
0.0716925498116307
 40
0.1082198287223373
 40
0.145161570833528
 40
0.1824804118285658
 40
0.2201339863990067
 40
0.2580760491460157
 40
0.2962576813112147
 40
0.3346285424753552
 40
0.3731381246640153
 40
0.4117369669235714
 40
0.450377791349196
 40
0.489016526507451
 40
0.5646414984869659
 40
0.6449466189173408
 40
0.7293498341935863
 40
0.8171572131292422
 40
0.9076213474368262
 40
1.0
 40
1.0
 40
1.0
 40
1.0
 10
63.84444868643149
 20
418.7152138412602
 30
0.0
 10
63.79782458637604
 20
418.7092477579258
 30
0.0
 10
63.70396057573806
 20
418.7078627377858
 30
0.0
 10
63.56302447996766
 20
418.6968464817093
 30
0.0
 10
63.4218683999625
 20
418.6793061860316
 30
0.0
 10
63.28139555465489
 20
418.6546342375531
 30
0.0
 10
63.14252639250368
 20
418.6231212876585
 30
0.0
 10
63.00617903463149
 20
418.5848817981392
 30
0.0
 10
62.87324865609535
 20
418.5401441985535
 30
0.0
 10
62.74458737859977
 20
418.4891667236327
 30
0.0
 10
62.62098539025695
 20
418.4322535901228
 30
0.0
 10
62.50315441982873
 20
418.3697398599406
 30
0.0
 10
62.39171347745452
 20
418.3019920836422
 30
0.0
 10
62.28718040332045
 20
418.2293715875184
 30
0.0
 10
62.15889090953547
 20
418.1277089931803
 30
0.0
 10
62.01434636177589
 20
417.9875112274787
 30
0.0
 10
61.8675265145911
 20
417.8016132541996
 30
0.0
 10
61.7475474619126
 20
417.5968728440129
 30
0.0
 10
61.65986900170972
 20
417.3773013251025
 30
0.0
 10
61.60454864204139
 20
417.1469516558528
 30
0.0
 10
61.59783899812776
 20
416.9894878298161
 30
0.0
 10
61.59444881192729
 20
416.9037380639652
 30
0.0
  0
ARC
  5
66
330
5E
100
AcDbEntity
  8
$DDT_AUDIT_GENERATED_(60)
  6
Continuous
 62
     7
100
AcDbCircle
 10
63.8436756629
 20
409.4381792599
 30
0.0
 40
2.250855131818895
100
AcDbArc
 50
270.0196774065
 51
0.4893937421
  0
ARC
  5
67
330
5E
100
AcDbEntity
  8
$DDT_AUDIT_GENERATED_(60)
  6
Continuous
 62
     7
100
AcDbCircle
 10
63.8452305487
 20
409.438198943
 30
0.0
 40
2.250874817938604
100
AcDbArc
 50
179.4792836938
 51
269.9800977768
  0
ARC
  5
69
330
5E
100
AcDbEntity
  8
$DDT_AUDIT_GENERATED_(68)
  6
Continuous
 62
     7
100
AcDbCircle
 10
72.7141814192
 20
-1481.4808442753
 30
0.0
 40
1749.444979294398
100
AcDbArc
 50
89.8577963892
 51
89.9773457944
  0
LINE
  5
6A
330
5E
100
AcDbEntity
  8
$DDT_AUDIT_GENERATED_(68)
  6
Continuous
 62
     7
100
AcDbLine
 10
63.8444486864
 20
267.9630103155
 30
0.0
 11
64.1444450832
 21
267.962999506
 31
0.0
  0
ELLIPSE
  5
6B
330
5E
100
AcDbEntity
  8
$DDT_AUDIT_GENERATED_(68)
  6
Continuous
 62
     7
100
AcDbEllipse
 10
63.8367529915
 20
267.9592719498
 30
0.0
 11
-11.9999999922099
 21
0.0004323917046564208
 31
0.0
210
0.0
220
0.0
230
1.0
 40
0.0003467339
 41
2.940295144726031
 42
4.646876666207207
  0
LINE
  5
6C
330
5E
100
AcDbEntity
  8
$DDT_AUDIT_GENERATED_(68)
  6
Continuous
 62
     7
100
AcDbLine
 10
64.1444414799
 20
267.9633162463
 30
0.0
 11
64.6223386916
 21
267.9633955241
 31
0.0
  0
ARC
  5
6D
330
5E
100
AcDbEntity
  8
$DDT_AUDIT_GENERATED_(68)
  6
Continuous
 62
     7
100
AcDbCircle
 10
64.1684994044
 20
465.1236867199
 30
0.0
 40
57.41426960558626
100
AcDbArc
 50
271.1502814559
 51
302.1501922811
  0
ARC
  5
6E
330
5E
100
AcDbEntity
  8
$DDT_AUDIT_GENERATED_(68)
  6
Continuous
 62
     7
100
AcDbCircle
 10
69.6862165845
 20
456.5977017378
 30
0.0
 40
47.25766719191078
100
AcDbArc
 50
302.3168483283
 51
330.5435699273
  0
ELLIPSE
  5
6F
330
5E
100
AcDbEntity
  8
$DDT_AUDIT_GENERATED_(68)
  6
Continuous
 62
     7
100
AcDbEllipse
 10
63.8444486864
 20
452.8924256864
 30
0.0
 11
52.12370134428328
 21
-8.326672684688674E-14
 31
0.0
210
0.0
220
0.0
230
1.0
 40
0.8660254038
 41
-0.4475322740295908
 42
3.589124927619391
  0
ARC
  5
70
330
5E
100
AcDbEntity
  8
$DDT_AUDIT_GENERATED_(68)
  6
Continuous
 62
     7
100
AcDbCircle
 10
58.0026807884
 20
456.5977017378
 30
0.0
 40
47.25766719191118
100
AcDbArc
 50
209.4564300727
 51
237.6831516717
  0
ARC
  5
71
330
5E
100
AcDbEntity
  8
$DDT_AUDIT_GENERATED_(68)
  6
Continuous
 62
     7
100
AcDbCircle
 10
63.5203979684
 20
465.1236867199
 30
0.0
 40
57.41426960558626
100
AcDbArc
 50
237.8498077189
 51
268.8497684282
  0
ELLIPSE
  5
72
330
5E
100
AcDbEntity
  8
$DDT_AUDIT_GENERATED_(68)
  6
Continuous
 62
     7
100
AcDbEllipse
 10
63.8521443814
 20
267.9592719498
 30
0.0
 11
11.9999999922099
 21
0.0004323917046529513
 31
0.0
210
0.0
220
0.0
230
1.0
 40
0.0003467339
 41
1.636308640972455
 42
3.342890162453576
  0
ARC
  5
73
330
5E
100
AcDbEntity
  8
$DDT_AUDIT_GENERATED_(68)
  6
Continuous
 62
     7
100
AcDbCircle
 10
54.9747159537
 20
-1481.4808442753
 30
0.0
 40
1749.444979294397
100
AcDbArc
 50
90.0226542056
 51
90.1422036108
  0
LINE
  5
74
330
5E
100
AcDbEntity
  8
$DDT_AUDIT_GENERATED_(68)
  6
Continuous
 62
     7
100
AcDbLine
 10
63.8444486864
 20
267.9630103155
 30
0.0
 11
63.5444522897
 21
267.962999506
 31
0.0
  0
LINE
  5
75
330
5E
100
AcDbEntity
  8
$DDT_AUDIT_GENERATED_(68)
  6
Continuous
 62
     7
100
AcDbLine
 10
63.544455893
 20
267.9633162463
 30
0.0
 11
63.0665586813
 21
267.9633955241
 31
0.0
  0
SPLINE
  5
76
330
5E
100
AcDbEntity
  8
$DDT_AUDIT_GENERATED_(68)
  6
Continuous
 62
     7
100
AcDbSpline
210
0.0
220
0.0
230
1.0
 70
     8
 71
     3
 72
    81
 73
    77
 74
     0
 42
0.0000000000930885
 43
0.0000000001
 40
0.0
 40
0.0
 40
0.0
 40
0.0
 40
0.0183121339576693
 40
0.0384992898418292
 40
0.0560937189362984
 40
0.0730622128145381
 40
0.0891276546837059
 40
0.1040581183927964
 40
0.1178744193325816
 40
0.1312207942689538
 40
0.1429309414782916
 40
0.1538908046698904
 40
0.1639783204492294
 40
0.1730859817498368
 40
0.1868868830191628
 40
0.1983531512555721
 40
0.2121419896355665
 40
0.2288365660712289
 40
0.2388667211218395
 40
0.2498538454389788
 40
0.2647123580978152
 40
0.2781935007067472
 40
0.289858398819434
 40
0.2994589773248941
 40
0.3107141794658027
 40
0.3216124285669986
 40
0.3345031921596571
 40
0.3445120277238312
 40
0.3526089974609716
 40
0.3619068671316042
 40
0.3726066380631551
 40
0.383381881714528
 40
0.3893105680907106
 40
0.3958416188162719
 40
0.4030191068084978
 40
0.4108893422965587
 40
0.4195005207750427
 40
0.4289021758389575
 40
0.4391848984754315
 40
0.4554175961514648
 40
0.4703889984546443
 40
0.4833786402501098
 40
0.4940757644477292
 40
0.5051626813468327
 40
0.5175818089024453
 40
0.5320093035730276
 40
0.5482147811562705
 40
0.5659432062152346
 40
0.5823426973169884
 40
0.5966101751019227
 40
0.6091203329098671
 40
0.630088178824673
 40
0.6547037131380369
 40
0.6784490540944742
 40
0.6996479104122194
 40
0.7122885831523303
 40
0.7270566754051392
 40
0.7440672996882302
 40
0.7627686641859973
 40
0.7801341818561638
 40
0.7965546307057695
 40
0.8121148809996556
 40
0.8199478461145806
 40
0.8289201560915861
 40
0.8383915204561136
 40
0.8483752338765659
 40
0.8588848683218491
 40
0.8697322249847399
 40
0.8800534948435321
 40
0.8907155159252074
 40
0.9036464913898341
 40
0.9255147274676917
 40
0.940309386247477
 40
0.9609352052180493
 40
0.9808906113410526
 40
1.0
 40
1.0
 40
1.0
 40
1.0
 10
115.6766453574456
 20
434.0586554387771
 30
0.0
 10
116.0080458189733
 20
434.6787006852126
 30
0.0
 10
116.5926669540615
 20
435.7803622985728
 30
0.0
 10
117.4328402031796
 20
437.5746534701905
 30
0.0
 10
118.1636589222819
 20
439.313261995947
 30
0.0
 10
118.7778722183185
 20
440.9491391331356
 30
0.0
 10
119.2993690773691
 20
442.512711904152
 30
0.0
 10
119.7340212974564
 20
443.9871498506107
 30
0.0
 10
120.0956261603454
 20
445.3814171033113
 30
0.0
 10
120.389025969421
 20
446.6780987526903
 30
0.0
 10
120.6258384421258
 20
447.8865323072574
 30
0.0
 10
120.8117414356288
 20
448.9880296349535
 30
0.0
 10
120.9578246334069
 20
450.0040308534417
 30
0.0
 10
121.09269580035
 20
451.1180890039144
 30
0.0
 10
121.2018472004146
 20
452.2763207911371
 30
0.0
 10
121.2880767251835
 20
453.6097710786323
 30
0.0
 10
121.3378209927312
 20
455.0346421757772
 30
0.0
 10
121.3373275619494
 20
456.409224702336
 30
0.0
 10
121.2971295939327
 20
457.685124986524
 30
0.0
 10
121.2291855963232
 20
458.8984477776054
 30
0.0
 10
121.1159320930207
 20
460.2162508815686
 30
0.0
 10
120.9564314340907
 20
461.5590906966127
 30
0.0
 10
120.7835262445114
 20
462.7254239212535
 30
0.0
 10
120.5948483407532
 20
463.8157819817634
 30
0.0
 10
120.3813335029955
 20
464.8955041749404
 30
0.0
 10
120.1162666603958
 20
466.0729337165112
 30
0.0
 10
119.8329135515704
 20
467.1892278003554
 30
0.0
 10
119.5450276267982
 20
468.2116148489521
 30
0.0
 10
119.2718906209236
 20
469.1105240001349
 30
0.0
 10
118.9734772205708
 20
470.0276420193175
 30
0.0
 10
118.6239191294334
 20
471.0253300359157
 30
0.0
 10
118.2895498615747
 20
471.9109267064921
 30
0.0
 10
117.9921476061322
 20
472.6562281559222
 30
0.0
 10
117.7321417071459
 20
473.2825764036778
 30
0.0
 10
117.435917298594
 20
473.9666224294913
 30
0.0
 10
117.0986436252391
 20
474.711541170775
 30
0.0
 10
116.714687060091
 20
475.5203681939163
 30
0.0
 10
116.2770530213964
 20
476.3970284508179
 30
0.0
 10
115.6968329486632
 20
477.4995084184587
 30
0.0
 10
114.9899998118641
 20
478.7540677909025
 30
0.0
 10
114.1875538170928
 20
480.0727105863283
 30
0.0
 10
113.4475328606909
 20
481.2103531093904
 30
0.0
 10
112.7528221708125
 20
482.2213260954198
 30
0.0
 10
112.0406534224305
 20
483.2074650391302
 30
0.0
 10
111.2254216637936
 20
484.278433283708
 30
0.0
 10
110.2653750278931
 20
485.4680837837325
 30
0.0
 10
109.142591937861
 20
486.772020091779
 30
0.0
 10
107.9231414523971
 20
488.0903924023541
 30
0.0
 10
106.7010795187198
 20
489.3226742694662
 30
0.0
 10
105.5714898394971
 20
490.3926795445735
 30
0.0
 10
104.2853967832448
 20
491.5468255029043
 30
0.0
 10
102.6618518628741
 20
492.9083079066338
 30
0.0
 10
100.6489121621486
 20
494.4475688463507
 30
0.0
 10
98.54397233571751
 20
495.9058898705654
 30
0.0
 10
96.7397123433853
 20
497.0434723377919
 30
0.0
 10
95.18205883284439
 20
497.9565227504804
 30
0.0
 10
93.73486563713088
 20
498.7553218229428
 30
0.0
 10
92.05868829168834
 20
499.6155398209254
 30
0.0
 10
90.26106005961806
 20
500.4631880612463
 30
0.0
 10
88.44895756219654
 20
501.2436150621764
 30
0.0
 10
86.71752183618555
 20
501.9251313241974
 30
0.0
 10
85.30030078711911
 20
502.4346754143889
 30
0.0
 10
84.13799786981771
 20
502.8243086621263
 30
0.0
 10
83.18854894265536
 20
503.1262859473488
 30
0.0
 10
82.15455229600396
 20
503.4359035861074
 30
0.0
 10
81.05752626258109
 20
503.7431792392657
 30
0.0
 10
79.90272763560594
 20
504.0434670243856
 30
0.0
 10
78.72830902931175
 20
504.3246980932134
 30
0.0
 10
77.54141361812593
 20
504.5850655767838
 30
0.0
 10
76.27040919597128
 20
504.8389753788616
 30
0.0
 10
74.55791606625314
 20
505.1439419656699
 30
0.0
 10
72.67828034022413
 20
505.4197730965322
 30
0.0
 10
70.49118284801528
 20
505.6696629097617
 30
0.0
 10
68.3834592779329
 20
505.8459237428903
 30
0.0
 10
66.04558997275919
 20
505.962304052924
 30
0.0
 10
64.65258752955062
 20
505.9766281734086
 30
0.0
 10
63.84446112203823
 20
505.9830039869926
 30
0.0
  0
ARC
  5
77
330
5E
100
AcDbEntity
  8
$DDT_AUDIT_GENERATED_(68)
  6
Continuous
 62
     7
100
AcDbCircle
 10
68.6520430413
 20
459.3546993078
 30
0.0
 40
53.39638888648003
100
AcDbArc
 50
304.5941214048
 51
331.7228069373
  0
SPLINE
  5
78
330
5E
100
AcDbEntity
  8
$DDT_AUDIT_GENERATED_(68)
  6
Continuous
 62
     7
100
AcDbSpline
210
0.0
220
0.0
230
1.0
 70
     8
 71
     3
 72
    66
 73
    62
 74
     0
 42
0.0000000000656219
 43
0.0000000001
 40
0.0
 40
0.0
 40
0.0
 40
0.0
 40
0.0132839256068467
 40
0.0321969250473693
 40
0.0506173926822531
 40
0.0710260725852939
 40
0.0930007633778022
 40
0.1170495140910081
 40
0.1432418221526355
 40
0.168527239073674
 40
0.1941010038764078
 40
0.2178452673146802
 40
0.2403054099254082
 40
0.261381640760064
 40
0.2807531897386661
 40
0.2988953014583804
 40
0.3155513096052685
 40
0.3303508138226576
 40
0.3437959053243841
 40
0.3565732238099729
 40
0.3704921093566069
 40
0.3880991653799987
 40
0.4071335914671169
 40
0.4276954306659261
 40
0.4498867331290317
 40
0.4691256647075896
 40
0.4899221518232924
 40
0.5111728249073523
 40
0.5333886968179761
 40
0.5567758218164502
 40
0.5818628685844902
 40
0.606968813884129
 40
0.62813219037991
 40
0.6486019058863954
 40
0.6681207097683821
 40
0.6868635077900944
 40
0.7044483238595535
 40
0.7208685186238578
 40
0.7362582318365577
 40
0.7550301088139005
 40
0.7718946745126174
 40
0.7867240799676412
 40
0.7998462255279074
 40
0.8110498023956512
 40
0.820737004424618
 40
0.8238306314558658
 40
0.8274878390477818
 40
0.832272664300425
 40
0.83822005840696
 40
0.8453788729550382
 40
0.8538367760034995
 40
0.8633715660064024
 40
0.8741677794043046
 40
0.886206241216507
 40
0.8985909604044751
 40
0.9126350307084984
 40
0.9279348519222679
 40
0.9446177154796339
 40
0.9618517783678746
 40
0.9805890008868404
 40
1.0
 40
1.0
 40
1.0
 40
1.0
 10
78.55570716724579
 20
269.4106094474316
 30
0.0
 10
78.57935767253541
 20
270.1686577976237
 30
0.0
 10
78.6276557638262
 20
271.7238365249616
 30
0.0
 10
78.69653044354996
 20
274.4101359621502
 30
0.0
 10
78.76557977229547
 20
277.3886747072121
 30
0.0
 10
78.83180844990784
 20
280.5494003441765
 30
0.0
 10
78.90751605836567
 20
283.9952401938128
 30
0.0
 10
78.98264835889943
 20
287.7430269032734
 30
0.0
 10
79.0535174089016
 20
291.6606968668347
 30
0.0
 10
79.1240924400689
 20
295.6561317238438
 30
0.0
 10
79.17676323210878
 20
299.5217084373638
 30
0.0
 10
79.24434869396434
 20
303.2425273402228
 30
0.0
 10
79.3140059221969
 20
306.730574729293
 30
0.0
 10
79.38212939622412
 20
309.9921246155146
 30
0.0
 10
79.4499263840612
 20
313.0301285684805
 30
0.0
 10
79.51072353498229
 20
315.8389117346406
 30
0.0
 10
79.56553243802475
 20
318.4107371271054
 30
0.0
 10
79.61729565092088
 20
320.7393957550249
 30
0.0
 10
79.66212746355104
 20
322.8670951538735
 30
0.0
 10
79.71172196836694
 20
324.9496166566068
 30
0.0
 10
79.76716520786196
 20
327.2474247142388
 30
0.0
 10
79.83588964358295
 20
329.8695380388589
 30
0.0
 10
79.91754169796312
 20
332.8356943746418
 30
0.0
 10
80.00982964280229
 20
336.0391478499483
 30
0.0
 10
80.10366376198841
 20
339.2525757478632
 30
0.0
 10
80.20311316337262
 20
342.478012935448
 30
0.0
 10
80.29654816937521
 20
345.653488686617
 30
0.0
 10
80.39953436360469
 20
348.9829264980773
 30
0.0
 10
80.5040060959856
 20
352.4449771918135
 30
0.0
 10
80.61361349593152
 20
356.1036759925049
 30
0.0
 10
80.72752333087993
 20
359.9093664293562
 30
0.0
 10
80.8483187988907
 20
363.5990960178549
 30
0.0
 10
80.95745733400854
 20
367.0451479428149
 30
0.0
 10
81.06520626429177
 20
370.2004880006402
 30
0.0
 10
81.17312038891818
 20
373.2264718469941
 30
0.0
 10
81.28375668871985
 20
376.0985316502368
 30
0.0
 10
81.40265581370475
 20
378.8064067827409
 30
0.0
 10
81.53270318524999
 20
381.3368955810085
 30
0.0
 10
81.69795066866222
 20
383.9254725565789
 30
0.0
 10
81.90597019017343
 20
386.5294886062494
 30
0.0
 10
82.16666391769795
 20
389.0892311999694
 30
0.0
 10
82.4572763684814
 20
391.3433687010586
 30
0.0
 10
82.76762070727447
 20
393.2902100861509
 30
0.0
 10
83.09388983588295
 20
394.9597665759475
 30
0.0
 10
83.36211283703096
 20
396.1181752767964
 30
0.0
 10
83.56629446898539
 20
396.9026868573582
 30
0.0
 10
83.71798978179487
 20
397.4506318486719
 30
0.0
 10
83.92021293837496
 20
398.1290010689345
 30
0.0
 10
84.1963415598919
 20
398.9645914770555
 30
0.0
 10
84.56463719922404
 20
399.955556845918
 30
0.0
 10
85.04378560906369
 20
401.0818222706517
 30
0.0
 10
85.64747647584049
 20
402.3195201006736
 30
0.0
 10
86.39108737188214
 20
403.6522666534142
 30
0.0
 10
87.2666523493117
 20
405.063155147977
 30
0.0
 10
88.3381820690753
 20
406.5446761333073
 30
0.0
 10
89.64371836275232
 20
407.9739460305891
 30
0.0
 10
91.1777939872392
 20
409.3691550489906
 30
0.0
 10
92.88658073198239
 20
410.828569286185
 30
0.0
 10
94.77721395750181
 20
412.3306835238319
 30
0.0
 10
96.8738957661916
 20
413.8492834668936
 30
0.0
 10
98.17808920976631
 20
414.8170501182151
 30
0.0
 10
98.96799202461875
 20
415.3987274431777
 30
0.0
  0
ARC
  5
79
330
5E
100
AcDbEntity
  8
$DDT_AUDIT_GENERATED_(68)
  6
Continuous
 62
     7
100
AcDbCircle
 10
77.0427592611
 20
269.4404652056
 30
0.0
 40
1.481149705225415
100
AcDbArc
 50
273.4515797774
 51
358.8849775495
  0
SPLINE
  5
7A
330
5E
100
AcDbEntity
  8
$DDT_AUDIT_GENERATED_(68)
  6
Continuous
 62
     7
100
AcDbSpline
210
0.0
220
0.0
230
1.0
 70
     8
 71
     3
 72
    92
 73
    88
 74
     0
 42
0.0000000000930903
 43
0.0000000001
 40
0.0
 40
0.0
 40
0.0
 40
0.0
 40
0.0112379529864627
 40
0.0228000479148594
 40
0.0346487210808869
 40
0.0467471590127655
 40
0.0590592400250912
 40
0.0673968713462703
 40
0.0738267494803505
 40
0.081766876247723
 40
0.0911339046234896
 40
0.0995926888215214
 40
0.1069526307092559
 40
0.1135601144643448
 40
0.1194491315226754
 40
0.1318052885911046
 40
0.144572499199884
 40
0.1566078968098199
 40
0.1679335705309078
 40
0.1785708488455586
 40
0.1878874288797429
 40
0.2061509962403704
 40
0.2254594262499972
 40
0.2465605690037463
 40
0.2675278776544754
 40
0.2854004901917516
 40
0.30035129622028
 40
0.3168222901145414
 40
0.3357034298231517
 40
0.3550335842106964
 40
0.3742300619843132
 40
0.3908809199845462
 40
0.4020122187049879
 40
0.4145238150466032
 40
0.4287020372916121
 40
0.4445753873520116
 40
0.4597721436735764
 40
0.4734023277809261
 40
0.4855917694443549
 40
0.4961822687400312
 40
0.5059250531649893
 40
0.517573670248757
 40
0.5319055690763888
 40
0.5483682226914455
 40
0.5654617701486768
 40
0.5798148557580617
 40
0.5924161138938767
 40
0.6052381068749491
 40
0.6161012547565965
 40
0.6254998127296073
 40
0.6351722534523019
 40
0.6437930702225863
 40
0.651277774514549
 40
0.658713560151504
 40
0.6682494463012513
 40
0.6732597764384014
 40
0.678739212942555
 40
0.6847013697376709
 40
0.6880732861600154
 40
0.6909565238154441
 40
0.6950500494086354
 40
0.700542451323767
 40
0.7071528792435401
 40
0.7148726602241929
 40
0.7235665673577724
 40
0.7331708154271472
 40
0.743622662426212
 40
0.7532832557014878
 40
0.7707456929934607
 40
0.7856603121143378
 40
0.7970339162355038
 40
0.8067559272845666
 40
0.8161882149167116
 40
0.8269146523182506
 40
0.838680381132389
 40
0.8519866650334613
 40
0.8665998990561024
 40
0.8834567185805504
 40
0.9032649157514947
 40
0.9137960813990447
 40
0.9248654571359892
 40
0.9364785930642551
 40
0.9482103826599276
 40
0.9603709230442098
 40
0.9738137265366303
 40
0.9878470096663955
 40
1.0
 40
1.0
 40
1.0
 40
1.0
 10
63.84443625082438
 20
505.9830039869926
 30
0.0
 10
63.36917556238479
 20
505.9808327772085
 30
0.0
 10
62.55638356564317
 20
505.9759888967114
 30
0.0
 10
61.19840403575938
 20
505.9365448458213
 30
0.0
 10
59.84241848681472
 20
505.8709400633185
 30
0.0
 10
58.45041939092832
 20
505.7752387665378
 30
0.0
 10
57.19844561856409
 20
505.6628501890274
 30
0.0
 10
56.16482419082321
 20
505.5516776796174
 30
0.0
 10
55.29996604853278
 20
505.4474472608228
 30
0.0
 10
54.39784443909056
 20
505.3272974834797
 30
0.0
 10
53.42146833803636
 20
505.1822235374894
 30
0.0
 10
52.47010373090798
 20
505.025649581855
 30
0.0
 10
51.6255812708922
 20
504.8745426665157
 30
0.0
 10
50.88003549827854
 20
504.7316012267974
 30
0.0
 10
49.94945045131634
 20
504.5424360271356
 30
0.0
 10
48.79334239774543
 20
504.2876991778659
 30
0.0
 10
47.41759799792071
 20
503.951692524206
 30
0.0
 10
46.08978157695365
 20
503.5955046997945
 30
0.0
 10
44.84966641360408
 20
503.234262943703
 30
0.0
 10
43.71749068865029
 20
502.8794915232619
 30
0.0
 10
42.3442648802604
 20
502.4212497217266
 30
0.0
 10
40.67700141412324
 20
501.8170295957661
 30
0.0
 10
38.62595920265591
 20
500.9913974378575
 30
0.0
 10
36.52327618712542
 20
500.050309857816
 30
0.0
 10
34.51610901609626
 20
499.0555114796474
 30
0.0
 10
32.75528344686334
 20
498.1002291714483
 30
0.0
 10
31.17344517494355
 20
497.1776930555644
 30
0.0
 10
29.59160535105488
 20
496.1903412339846
 30
0.0
 10
27.91910888122
 20
495.065578057446
 30
0.0
 10
26.21531548378234
 20
493.8259013002464
 30
0.0
 10
24.6328405901465
 20
492.5807996486557
 30
0.0
 10
23.32548648651796
 20
491.4748452644612
 30
0.0
 10
22.23856838381516
 20
490.5021527244022
 30
0.0
 10
21.24411613736052
 20
489.5687236020503
 30
0.0
 10
20.15845133503365
 20
488.4928437695352
 30
0.0
 10
19.04542676892332
 20
487.3200563608169
 30
0.0
 10
17.98676534288417
 20
486.1303520022377
 30
0.0
 10
17.05109349985828
 20
485.0124278931341
 30
0.0
 10
16.24855606835536
 20
483.9993884692245
 30
0.0
 10
15.55380436936879
 20
483.0775248910204
 30
0.0
 10
14.88944067734654
 20
482.1547662715121
 30
0.0
 10
14.17705299284185
 20
481.115788368259
 30
0.0
 10
13.36938091550349
 20
479.8646393225437
 30
0.0
 10
12.51025827233732
 20
478.4318386999358
 30
0.0
 10
11.7077485546471
 20
476.9766188347895
 30
0.0
 10
11.01638866999948
 20
475.6154723909621
 30
0.0
 10
10.43007252873542
 20
474.3710476067199
 30
0.0
 10
9.927420142699928
 20
473.2224385948958
 30
0.0
 10
9.49704117338531
 20
472.1643259345375
 30
0.0
 10
9.12889795464035
 20
471.1971779345467
 30
0.0
 10
8.809427636168751
 20
470.3008355884777
 30
0.0
 10
8.529310136998959
 20
469.4609239466308
 30
0.0
 10
8.28778455953806
 20
468.690438788558
 30
0.0
 10
8.050540831586266
 20
467.8864843485636
 30
0.0
 10
7.851501774164237
 20
467.1608552315506
 30
0.0
 10
7.681412650033123
 20
466.4981216145019
 30
0.0
 10
7.548046462890118
 20
465.9513134684311
 30
0.0
 10
7.435410445308106
 20
465.4621441213844
 30
0.0
 10
7.344682991155316
 20
465.0477589093787
 30
0.0
 10
7.269707898566645
 20
464.6920213297298
 30
0.0
 10
7.184430384324675
 20
464.2705406926323
 30
0.0
 10
7.080030443138797
 20
463.7244162690659
 30
0.0
 10
6.962498917930604
 20
463.0583067359004
 30
0.0
 10
6.838806275080094
 20
462.2854628817915
 30
0.0
 10
6.716188953509283
 20
461.4125155333419
 30
0.0
 10
6.601079756029395
 20
460.4476642842419
 30
0.0
 10
6.505435259110626
 20
459.4506110427122
 30
0.0
 10
6.413697328638001
 20
458.1870015361138
 30
0.0
 10
6.354977227934766
 20
456.7635188783952
 30
0.0
 10
6.350000000000001
 20
455.2802594625115
 30
0.0
 10
6.383041919754015
 20
454.0569865356626
 30
0.0
 10
6.436798330250945
 20
453.0174814699479
 30
0.0
 10
6.512236786277763
 20
452.0012692968559
 30
0.0
 10
6.617541343839753
 20
450.9244579332842
 30
0.0
 10
6.767639754930305
 20
449.716037777638
 30
0.0
 10
6.973232629502078
 20
448.3800166678053
 30
0.0
 10
7.254783746942412
 20
446.8762074357474
 30
0.0
 10
7.640233759693888
 20
445.1649575301038
 30
0.0
 10
8.061487536713582
 20
443.6046942363738
 30
0.0
 10
8.479249061787701
 20
442.2462758427951
 30
0.0
 10
8.841551173748616
 20
441.1635068802191
 30
0.0
 10
9.246205976758146
 20
440.0497494011678
 30
0.0
 10
9.69470463828339
 20
438.9091962912177
 30
0.0
 10
10.20014805614421
 20
437.7180510365137
 30
0.0
 10
10.76847502543625
 20
436.4769780608754
 30
0.0
 10
11.38899485514493
 20
435.2187481480677
 30
0.0
 10
11.79062989327408
 20
434.4699126789748
 30
0.0
 10
12.01225201541697
 20
434.0586554387771
 30
0.0
  0
ARC
  5
7B
330
5E
100
AcDbEntity
  8
$DDT_AUDIT_GENERATED_(68)
  6
Continuous
 62
     7
100
AcDbCircle
 10
59.0601921707
 20
459.3755962074
 30
0.0
 40
53.42684188204353
100
AcDbArc
 50
208.2850722878
 51
235.3979993701
  0
SPLINE
  5
7C
330
5E
100
AcDbEntity
  8
$DDT_AUDIT_GENERATED_(68)
  6
Continuous
 62
     7
100
AcDbSpline
210
0.0
220
0.0
230
1.0
 70
     8
 71
     3
 72
    62
 73
    58
 74
     0
 42
0.000000000065623
 43
0.0000000001
 40
0.0
 40
0.0
 40
0.0
 40
0.0
 40
0.0206415918407167
 40
0.0401419908194925
 40
0.0580471746300628
 40
0.0747604823739672
 40
0.0899416219541344
 40
0.100750118281202
 40
0.1100439872544294
 40
0.1190438485687409
 40
0.1272910997761271
 40
0.1345232126764032
 40
0.1431056345097742
 40
0.1498925306414767
 40
0.1547636736728878
 40
0.1577991419809691
 40
0.1598483516341044
 40
0.1622149349564133
 40
0.1649125113936338
 40
0.1679349236659034
 40
0.1712748651262627
 40
0.1782600190650833
 40
0.186744622016116
 40
0.1962486988354626
 40
0.2106377951362807
 40
0.2271941932087015
 40
0.2456695443778286
 40
0.26468882462378
 40
0.3076345277182686
 40
0.3517180609405592
 40
0.3971430594045413
 40
0.4441989759457025
 40
0.4916357528912316
 40
0.540931895073252
 40
0.5714694802930665
 40
0.6004241096178367
 40
0.6279011943543208
 40
0.653930711438817
 40
0.6781449611264042
 40
0.7012002023365095
 40
0.7183050434925238
 40
0.7342358260538107
 40
0.7493426225399714
 40
0.7634817460536223
 40
0.7770525131634626
 40
0.7918172734624566
 40
0.8076853933258578
 40
0.8251738053952332
 40
0.8442085982042283
 40
0.8642914027565509
 40
0.8860879131914575
 40
0.909011408985873
 40
0.9298963741401458
 40
0.9504056591552135
 40
0.969859634693275
 40
0.988671705451994
 40
1.0
 40
1.0
 40
1.0
 40
1.0
 10
28.72090534824382
 20
415.3987274431777
 30
0.0
 10
29.5619103732751
 20
414.7805992481375
 30
0.0
 10
30.93493832860437
 20
413.7626475415858
 30
0.0
 10
33.13230052173292
 20
412.1658712489825
 30
0.0
 10
35.0658481745327
 20
410.6076073338376
 30
0.0
 10
36.78543393556569
 20
409.1284606993129
 30
0.0
 10
38.19826359301796
 20
407.8132621555561
 30
0.0
 10
39.29097106460698
 20
406.5914195471655
 30
0.0
 10
40.12132609022232
 20
405.4887766622518
 30
0.0
 10
40.81131725456567
 20
404.4403844641305
 30
0.0
 10
41.40697758181171
 20
403.4519717414602
 30
0.0
 10
41.96069502356616
 20
402.4602012184672
 30
0.0
 10
42.44489020456381
 20
401.5004207467809
 30
0.0
 10
42.84838564997114
 20
400.6089591271729
 30
0.0
 10
43.12036727114378
 20
399.9474841814717
 30
0.0
 10
43.29472251345553
 20
399.4939635127861
 30
0.0
 10
43.41983947777307
 20
399.1535442800716
 30
0.0
 10
43.53571460696148
 20
398.825661287666
 30
0.0
 10
43.66240788913647
 20
398.4503253633866
 30
0.0
 10
43.7980288134977
 20
398.0267626765337
 30
0.0
 10
43.98709965209792
 20
397.3987896862143
 30
0.0
 10
44.23253691464105
 20
396.5038340728362
 30
0.0
 10
44.51950941275442
 20
395.2994387675468
 30
0.0
 10
44.84465556615841
 20
393.7155236716563
 30
0.0
 10
45.18241006460448
 20
391.7080259500435
 30
0.0
 10
45.50968550642275
 20
389.2239203640733
 30
0.0
 10
45.78943118622678
 20
386.4807165090112
 30
0.0
 10
46.11427948861935
 20
382.3731299991968
 30
0.0
 10
46.38331497252989
 20
376.9378922437241
 30
0.0
 10
46.63157844465866
 20
370.1185746126554
 30
0.0
 10
46.86315639180448
 20
363.0657297043313
 30
0.0
 10
47.08737305063137
 20
355.8287289210809
 30
0.0
 10
47.31070787362539
 20
348.38419501046
 30
0.0
 10
47.51066775838077
 20
341.7901511681388
 30
0.0
 10
47.67812697694536
 20
336.152737830511
 30
0.0
 10
47.80491418468274
 20
331.6460876116824
 30
0.0
 10
47.9152424158595
 20
327.3734804215464
 30
0.0
 10
48.00726924252142
 20
323.3472438472319
 30
0.0
 10
48.08436626992766
 20
319.5506251317803
 30
0.0
 10
48.1562601498601
 20
316.2149133859539
 30
0.0
 10
48.21944684414952
 20
313.3078107698661
 30
0.0
 10
48.27617808965395
 20
310.8120437094378
 30
0.0
 10
48.32736378434772
 20
308.4697713624655
 30
0.0
 10
48.37523305047817
 20
306.2495439250222
 30
0.0
 10
48.42113672026395
 20
304.0467727858025
 30
0.0
 10
48.46532612030872
 20
301.754513824269
 30
0.0
 10
48.51145984374004
 20
299.2590429514919
 30
0.0
 10
48.55209372038563
 20
296.542687866507
 30
0.0
 10
48.60032323954375
 20
293.6067689517592
 30
0.0
 10
48.65892342791866
 20
290.4463963932916
 30
0.0
 10
48.72158401142622
 20
287.0838102268521
 30
0.0
 10
48.78869913883491
 20
283.6786648052381
 30
0.0
 10
48.86258721452278
 20
280.3428338523085
 30
0.0
 10
48.92784211141036
 20
277.1796879774874
 30
0.0
 10
48.99905520316261
 20
274.149865935726
 30
0.0
 10
49.06729426371177
 20
271.5154011776149
 30
0.0
 10
49.11276020739687
 20
270.0569313946992
 30
0.0
 10
49.13298786510727
 20
269.41057863369
 30
0.0
  0
ARC
  5
7D
330
5E
100
AcDbEntity
  8
$DDT_AUDIT_GENERATED_(68)
  6
Continuous
 62
     7
100
AcDbCircle
 10
50.6445981552
 20
269.436673745
 30
0.0
 40
1.477380869219443
100
AcDbArc
 50
180.9808162834
 51
266.6030057579
  0
LINE
  5
7F
330
5E
100
AcDbEntity
  8
$DDT_AUDIT_GENERATED_(7E)
  6
Continuous
 62
     7
100
AcDbLine
 10
54.6444486864
 20
265.7570609001
 30
0.0
 11
74.3219486864
 21
265.7570609001
 31
0.0
  0
LINE
  5
80
330
5E
100
AcDbEntity
  8
$DDT_AUDIT_GENERATED_(7E)
  6
Continuous
 62
     7
100
AcDbLine
 10
74.3219486864
 20
259.9345609001
 30
0.0
 11
54.6444486864
 21
259.9345609001
 31
0.0
  0
LINE
  5
81
330
5E
100
AcDbEntity
  8
$DDT_AUDIT_GENERATED_(7E)
  6
Continuous
 62
     7
100
AcDbLine
 10
73.0444486864
 20
258.6570609001
 30
0.0
 11
54.6444486864
 21
258.6570609001
 31
0.0
  0
LINE
  5
82
330
5E
100
AcDbEntity
  8
$DDT_AUDIT_GENERATED_(7E)
  6
Continuous
 62
     7
100
AcDbLine
 10
73.0444486864
 20
257.4570609001
 30
0.0
 11
54.6444486864
 21
257.4570609001
 31
0.0
  0
LINE
  5
83
330
5E
100
AcDbEntity
  8
$DDT_AUDIT_GENERATED_(7E)
  6
Continuous
 62
     7
100
AcDbLine
 10
63.2944486864
 20
267.4570609001
 30
0.0
 11
64.3944486864
 21
267.4570609001
 31
0.0
  0
LINE
  5
84
330
5E
100
AcDbEntity
  8
$DDT_AUDIT_GENERATED_(7E)
  6
Continuous
 62
     7
100
AcDbLine
 10
63.2944486864
 20
267.4570609001
 30
0.0
 11
62.9944486864
 21
267.4570609001
 31
0.0
  0
LINE
  5
85
330
5E
100
AcDbEntity
  8
$DDT_AUDIT_GENERATED_(7E)
  6
Continuous
 62
     7
100
AcDbLine
 10
64.6944486864
 20
267.4570609001
 30
0.0
 11
64.3944486864
 21
267.4570609001
 31
0.0
  0
LINE
  5
86
330
5E
100
AcDbEntity
  8
$DDT_AUDIT_GENERATED_(7E)
  6
Continuous
 62
     7
100
AcDbLine
 10
52.5944486864
 20
267.4570609001
 30
0.0
 11
58.751005744
 21
267.4570609001
 31
0.0
  0
LINE
  5
87
330
5E
100
AcDbEntity
  8
$DDT_AUDIT_GENERATED_(7E)
  6
Continuous
 62
     7
100
AcDbLine
 10
68.9378916288
 20
267.4570609001
 30
0.0
 11
75.0944486864
 21
267.4570609001
 31
0.0
  0
LINE
  5
88
330
5E
100
AcDbEntity
  8
$DDT_AUDIT_GENERATED_(7E)
  6
Continuous
 62
     7
100
AcDbLine
 10
60.1653683679
 20
267.4570609001
 30
0.0
 11
58.751005744
 21
267.4570609001
 31
0.0
  0
LINE
  5
89
330
5E
100
AcDbEntity
  8
$DDT_AUDIT_GENERATED_(7E)
  6
Continuous
 62
     7
100
AcDbLine
 10
68.9378916288
 20
267.4570609001
 30
0.0
 11
67.5235290049
 21
267.4570609001
 31
0.0
  0
LINE
  5
8A
330
5E
100
AcDbEntity
  8
$DDT_AUDIT_GENERATED_(7E)
  6
Continuous
 62
     7
100
AcDbLine
 10
61.1053182516
 20
267.4570609001
 30
0.0
 11
60.1653683679
 21
267.4570609001
 31
0.0
  0
LINE
  5
8B
330
5E
100
AcDbEntity
  8
$DDT_AUDIT_GENERATED_(7E)
  6
Continuous
 62
     7
100
AcDbLine
 10
67.5235290049
 20
267.4570609001
 30
0.0
 11
66.5835791212
 21
267.4570609001
 31
0.0
  0
LINE
  5
8C
330
5E
100
AcDbEntity
  8
$DDT_AUDIT_GENERATED_(7E)
  6
Continuous
 62
     7
100
AcDbLine
 10
61.8439651478
 20
267.4570609001
 30
0.0
 11
61.1053182516
 21
267.4570609001
 31
0.0
  0
LINE
  5
8D
330
5E
100
AcDbEntity
  8
$DDT_AUDIT_GENERATED_(7E)
  6
Continuous
 62
     7
100
AcDbLine
 10
66.5835791212
 20
267.4570609001
 30
0.0
 11
65.8449322251
 21
267.4570609001
 31
0.0
  0
LINE
  5
8E
330
5E
100
AcDbEntity
  8
$DDT_AUDIT_GENERATED_(7E)
  6
Continuous
 62
     7
100
AcDbLine
 10
62.9944486864
 20
267.4570609001
 30
0.0
 11
61.8439651478
 21
267.4570609001
 31
0.0
  0
LINE
  5
8F
330
5E
100
AcDbEntity
  8
$DDT_AUDIT_GENERATED_(7E)
  6
Continuous
 62
     7
100
AcDbLine
 10
65.8449322251
 20
267.4570609001
 30
0.0
 11
64.6944486864
 21
267.4570609001
 31
0.0
  0
LINE
  5
90
330
5E
100
AcDbEntity
  8
$DDT_AUDIT_GENERATED_(7E)
  6
Continuous
 62
     7
100
AcDbLine
 10
64.6944486864
 20
267.4570609001
 30
0.0
 11
64.6944486864
 21
267.9570609001
 31
0.0
  0
LINE
  5
91
330
5E
100
AcDbEntity
  8
$DDT_AUDIT_GENERATED_(7E)
  6
Continuous
 62
     7
100
AcDbLine
 10
62.9944486864
 20
267.9570609001
 30
0.0
 11
62.9944486864
 21
267.4570609001
 31
0.0
  0
LINE
  5
92
330
5E
100
AcDbEntity
  8
$DDT_AUDIT_GENERATED_(7E)
  6
Continuous
 62
     7
100
AcDbLine
 10
61.3442069171
 20
267.9570609001
 30
0.0
 11
61.3442069171
 21
267.9632505047
 31
0.0
  0
LINE
  5
93
330
5E
100
AcDbEntity
  8
$DDT_AUDIT_GENERATED_(7E)
  6
Continuous
 62
     7
100
AcDbLine
 10
54.6444486864
 20
259.9345609001
 30
0.0
 11
54.6444486864
 21
258.6570609001
 31
0.0
  0
LINE
  5
94
330
5E
100
AcDbEntity
  8
$DDT_AUDIT_GENERATED_(7E)
  6
Continuous
 62
     7
100
AcDbLine
 10
54.6444486864
 20
265.7570609001
 30
0.0
 11
54.6444486864
 21
259.9345609001
 31
0.0
  0
LINE
  5
95
330
5E
100
AcDbEntity
  8
$DDT_AUDIT_GENERATED_(7E)
  6
Continuous
 62
     7
100
AcDbLine
 10
72.9444486864
 20
266.2570609001
 30
0.0
 11
72.9444486864
 21
266.9570609001
 31
0.0
  0
LINE
  5
96
330
5E
100
AcDbEntity
  8
$DDT_AUDIT_GENERATED_(7E)
  6
Continuous
 62
     7
100
AcDbLine
 10
54.7444486864
 20
266.9570609001
 30
0.0
 11
54.7444486864
 21
266.0738444379
 31
0.0
  0
LINE
  5
97
330
5E
100
AcDbEntity
  8
$DDT_AUDIT_GENERATED_(7E)
  6
Continuous
 62
     7
100
AcDbLine
 10
74.3219486864
 20
259.9345609001
 30
0.0
 11
74.3219486864
 21
265.7570609001
 31
0.0
  0
LINE
  5
98
330
5E
100
AcDbEntity
  8
$DDT_AUDIT_GENERATED_(7E)
  6
Continuous
 62
     7
100
AcDbLine
 10
73.0444486864
 20
258.6570609001
 30
0.0
 11
74.3219486864
 21
259.9345609001
 31
0.0
  0
LINE
  5
99
330
5E
100
AcDbEntity
  8
$DDT_AUDIT_GENERATED_(7E)
  6
Continuous
 62
     7
100
AcDbLine
 10
73.0444486864
 20
257.4570609001
 30
0.0
 11
73.0444486864
 21
258.6570609001
 31
0.0
  0
LINE
  5
9A
330
5E
100
AcDbEntity
  8
$DDT_AUDIT_GENERATED_(7E)
  6
Continuous
 62
     7
100
AcDbLine
 10
54.6444486864
 20
258.6570609001
 30
0.0
 11
54.6444486864
 21
257.4570609001
 31
0.0
  0
ARC
  5
9B
330
5E
100
AcDbEntity
  8
$DDT_AUDIT_GENERATED_(7E)
  6
Continuous
 62
     7
100
AcDbCircle
 10
54.2444486864
 20
266.9570609001
 30
0.0
 40
0.4999999999999727
100
AcDbArc
 50
0.0
 51
90.0
  0
ARC
  5
9C
330
5E
100
AcDbEntity
  8
$DDT_AUDIT_GENERATED_(7E)
  6
Continuous
 62
     7
100
AcDbCircle
 10
73.4444486864
 20
266.9570609001
 30
0.0
 40
0.5000000000000004
100
AcDbArc
 50
90.0
 51
180.0
  0
ARC
  5
9D
330
5E
100
AcDbEntity
  8
$DDT_AUDIT_GENERATED_(7E)
  6
Continuous
 62
     7
100
AcDbCircle
 10
52.5944486864
 20
267.9570609001
 30
0.0
 40
0.5000000000000004
100
AcDbArc
 50
180.0
 51
270.0
  0
ARC
  5
9E
330
5E
100
AcDbEntity
  8
$DDT_AUDIT_GENERATED_(7E)
  6
Continuous
 62
     7
100
AcDbCircle
 10
75.0944486864
 20
267.9570609001
 30
0.0
 40
0.5000000000000282
100
AcDbArc
 50
270.0
 51
0.0
  0
ARC
  5
9F
330
5E
100
AcDbEntity
  8
$DDT_AUDIT_GENERATED_(7E)
  6
Continuous
 62
     7
100
AcDbCircle
 10
73.4444486864
 20
266.2570609001
 30
0.0
 40
0.5000000000000004
100
AcDbArc
 50
180.0
 51
270.0
  0
ARC
  5
A0
330
5E
100
AcDbEntity
  8
$DDT_AUDIT_GENERATED_(7E)
  6
Continuous
 62
     7
100
AcDbCircle
 10
54.2725824337
 20
266.0465757492
 30
0.0
 40
0.4702688716115312
100
AcDbArc
 50
328.264334684
 51
3.3551763259
  0
LINE
  5
A1
330
5E
100
AcDbEntity
  8
$DDT_AUDIT_GENERATED_(7E)
  6
Continuous
 62
     7
100
AcDbLine
 10
73.1599486864
 20
258.7725609001
 30
0.0
 11
73.1599486864
 21
265.7570609001
 31
0.0
  0
ELLIPSE
  5
A3
330
5E
100
AcDbEntity
  8
$DDT_AUDIT_GENERATED_(A2)
  6
Continuous
 62
     7
100
AcDbEllipse
 10
63.8444486864
 20
446.516911302
 30
0.0
 11
14.00396272389485
 21
2.775557561562892E-14
 31
0.0
210
0.0
220
0.0
230
1.0
 40
0.8660254038
 41
0.0
 42
4.665999713946396
  0
ELLIPSE
  5
A4
330
5E
100
AcDbEntity
  8
$DDT_AUDIT_GENERATED_(A2)
  6
Continuous
 62
     7
100
AcDbEllipse
 10
63.8444486864
 20
446.516911302
 30
0.0
 11
14.00396272389485
 21
2.775557561562892E-14
 31
0.0
210
0.0
220
0.0
230
1.0
 40
0.8660254038
 41
4.73447491945381
 42
6.283185307179586
  0
LINE
  5
A7
330
5E
100
AcDbEntity
  8
DV1_Standard
  6
CENTER2
 62
     7
100
AcDbLine
 10
83.8444482394
 20
257.4570609001
 30
0.0
 11
43.8444491335
 21
257.4570609001
 31
0.0
  0
LINE
  5
A8
330
5E
100
AcDbEntity
  8
DV1_Standard
  6
CENTER2
 62
     7
100
AcDbLine
 10
63.8444486864
 20
277.457060453
 30
0.0
 11
63.8444486864
 21
237.4570613471
 31
0.0
  0
ENDBLK
  5
AA
330
5E
100
AcDbEntity
  8
0
100
AcDbBlockEnd
  0
BLOCK
  5
F8
330
AB
100
AcDbEntity
  8
0
100
AcDbBlockBegin
  2
SE1
 70
     0
 10
0.0
 20
0.0
 30
0.0
  3
SE1
  1

  0
SPLINE
  5
AD
330
AB
100
AcDbEntity
  8
$DDT_AUDIT_GENERATED_(60)
  6
Continuous
 62
     7
100
AcDbSpline
210
0.0
220
0.0
230
1.0
 70
    12
 71
     3
 72
    20
 73
    16
 74
     0
 42
0.0000000004464432
 43
0.0000000001
 40
0.0
 40
0.0
 40
0.0
 40
0.0
 40
0.1478160171856879
 40
0.1478160171856879
 40
0.3156124442125522
 40
0.3156124442125522
 40
0.4827400891698218
 40
0.4827400891698218
 40
0.6505365234020095
 40
0.6505365234020095
 40
0.8176641611528199
 40
0.8176641611528199
 40
0.9854606082371696
 40
0.9854606082371696
 40
1.0
 40
1.0
 40
1.0
 40
1.0
 10
237.6291635191388
 20
418.7152138412602
 30
0.0
 41
0.9999999999901905
 10
237.8639148666045
 20
417.6334438040739
 30
0.0
 41
0.9999999999901905
 10
237.8996121621665
 20
416.5181913365187
 30
0.0
 41
0.9999999999901906
 10
237.6003770405653
 20
414.2317961231414
 30
0.0
 41
0.9999999999901907
 10
237.2075911364703
 20
413.0192642555641
 30
0.0
 41
0.9999999999901907
 10
235.9506327912318
 20
410.8421484301114
 30
0.0
 41
0.9999999999901907
 10
235.1012681482472
 20
409.8989710226691
 30
0.0
 41
0.9999999999901907
 10
233.1610807031265
 20
408.4078595480889
 30
0.0
 41
0.9999999999901907
 10
232.0259495635261
 20
407.8282115999796
 30
0.0
 41
0.9999999999901907
 10
229.5976925816123
 20
407.1775620705198
 30
0.0
 41
0.9999999999901907
 10
228.3301738377395
 20
407.1112264214426
 30
0.0
 41
0.9999999999901907
 10
225.9038790624417
 20
407.4287710908325
 30
0.0
 41
0.9999999999901907
 10
224.6913471137569
 20
407.8215570439851
 30
0.0
 41
0.9999999999901907
 10
223.5061047887772
 20
408.5058570258449
 30
0.0
 41
0.9999999999901907
 10
223.4126778312241
 20
408.5621040694728
 30
0.0
 41
0.9999999999901907
 10
223.3203715046352
 20
408.6199642858412
 30
0.0
 41
0.9999999999901907
  0
SPLINE
  5
AE
330
AB
100
AcDbEntity
  8
$DDT_AUDIT_GENERATED_(60)
  6
Continuous
 62
     7
100
AcDbSpline
210
0.0
220
0.0
230
1.0
 70
     8
 71
     3
 72
    10
 73
     6
 74
     0
 42
0.000000022841565
 43
0.0000000001
 40
0.0000764937006927
 40
0.0000764937006927
 40
0.0000764937006927
 40
0.0000764937006927
 40
0.0356978550116717
 40
0.0718583668393757
 40
0.1031683044121671
 40
0.1031683044121671
 40
0.1031683044121671
 40
0.1031683044121671
 10
223.3203962972455
 20
408.6199551304265
 30
0.0
 10
223.3242383900598
 20
408.6185379646293
 30
0.0
 10
223.3260221943944
 20
408.6194248689324
 30
0.0
 10
223.3395697464389
 20
408.6263982670332
 30
0.0
 10
223.3532149251103
 20
408.6335657596717
 30
0.0
 10
223.3606349853576
 20
408.6374948437301
 30
0.0
  0
ARC
  5
AF
330
AB
100
AcDbEntity
  8
$DDT_AUDIT_GENERATED_(60)
  6
Continuous
 62
     7
100
AcDbCircle
 10
170.0287086626
 20
507.8021153818
 30
0.0
 40
112.5926304182482
100
AcDbArc
 50
298.2496282521
 51
299.6325287666
  0
ARC
  5
B0
330
AB
100
AcDbEntity
  8
$DDT_AUDIT_GENERATED_(60)
  6
Continuous
 62
     7
100
AcDbCircle
 10
184.3096658136
 20
495.1030265899
 30
0.0
 40
89.07757828258113
100
AcDbArc
 50
358.8413178752
 51
0.7026895881
  0
ARC
  5
B1
330
AB
100
AcDbEntity
  8
$DDT_AUDIT_GENERATED_(60)
  6
Continuous
 62
     7
100
AcDbCircle
 10
223.1135251122
 20
408.2526253702
 30
0.0
 40
0.4728823583245876
100
AcDbArc
 50
56.425431976
 51
118.7599687793
  0
LINE
  5
B2
330
AB
100
AcDbEntity
  8
$DDT_AUDIT_GENERATED_(60)
  6
Continuous
 62
     7
100
AcDbLine
 10
222.0855381117
 20
408.775644843
 30
0.0
 11
222.3305826253
 21
408.6341683272
 31
0.0
  0
LINE
  5
B3
330
AB
100
AcDbEntity
  8
$DDT_AUDIT_GENERATED_(60)
  6
Continuous
 62
     7
100
AcDbLine
 10
273.1305826252
 20
496.6223493517
 30
0.0
 11
272.7210123636
 21
496.8588148525
 31
0.0
  0
ARC
  5
B4
330
AB
100
AcDbEntity
  8
$DDT_AUDIT_GENERATED_(60)
  6
Continuous
 62
     7
100
AcDbCircle
 10
222.5805826253
 20
409.0671810291
 30
0.0
 40
0.4999999999999985
100
AcDbArc
 50
240.0
 51
299.2973104119
  0
ARC
  5
B5
330
AB
100
AcDbEntity
  8
$DDT_AUDIT_GENERATED_(60)
  6
Continuous
 62
     7
100
AcDbCircle
 10
272.8805826252
 20
496.1893366498
 30
0.0
 40
0.4999999999999993
100
AcDbArc
 50
0.7026895881
 51
60.0
  0
ARC
  5
B6
330
AB
100
AcDbEntity
  8
$DDT_AUDIT_GENERATED_(68)
  6
Continuous
 62
     7
100
AcDbCircle
 10
268.6559601096
 20
501.9841491041
 30
0.0
 40
4.000000000000369
100
AcDbArc
 50
13.1732482223
 51
123.7456511218
  0
SPLINE
  5
B7
330
AB
100
AcDbEntity
  8
$DDT_AUDIT_GENERATED_(68)
  6
Continuous
 62
     7
100
AcDbSpline
210
0.0
220
0.0
230
1.0
 70
     8
 71
     3
 72
    32
 73
    28
 74
     0
 42
0.0000000000383055
 43
0.0000000001
 40
0.0
 40
0.0
 40
0.0
 40
0.0
 40
0.1249999999999998
 40
0.1249999999999998
 40
0.2499999999999997
 40
0.2499999999999997
 40
0.3749999999999996
 40
0.3749999999999996
 40
0.4374999999999997
 40
0.4374999999999997
 40
0.4999999999999998
 40
0.4999999999999998
 40
0.5624999999999998
 40
0.5624999999999998
 40
0.6249999999999998
 40
0.6249999999999998
 40
0.6874999999999999
 40
0.6874999999999999
 40
0.7499999999999999
 40
0.7499999999999999
 40
0.8124999999999999
 40
0.8124999999999999
 40
0.8749999999999999
 40
0.8749999999999999
 40
0.9375
 40
0.9375
 40
1.0
 40
1.0
 40
1.0
 40
1.0
 10
183.8432065665118
 20
269.4816729315605
 30
0.0
 10
184.0367906314781
 20
280.3560542226702
 30
0.0
 10
184.3828861951986
 20
291.2254430145671
 30
0.0
 10
185.4368423737694
 20
312.9523781356759
 30
0.0
 10
186.1390071284419
 20
323.8063307140986
 30
0.0
 10
187.8370447377311
 20
345.4926875834352
 30
0.0
 10
188.801981304304
 20
356.3255041567776
 30
0.0
 10
190.672865547049
 20
372.5281334330764
 30
0.0
 10
191.3745416915272
 20
377.92569573942
 30
0.0
 10
193.159418336057
 20
388.6559762721913
 30
0.0
 10
194.2601108294594
 20
393.9782677433945
 30
0.0
 10
196.9378593483249
 20
404.5248377465826
 30
0.0
 10
198.4980639228282
 20
409.7460182362039
 30
0.0
 10
201.9735166128849
 20
420.055439381804
 30
0.0
 10
203.8880205625305
 20
425.1445150350527
 30
0.0
 10
208.0899138252659
 20
435.1842195010432
 30
0.0
 10
210.3761820796705
 20
440.1328914367987
 30
0.0
 10
215.4087945705128
 20
449.771472044122
 30
0.0
 10
218.1627619034755
 20
454.4543548483674
 30
0.0
 10
224.1288645556543
 20
463.5571512431603
 30
0.0
 10
227.3210702325805
 20
467.9596521691865
 30
0.0
 10
234.0916795792492
 20
476.4649273298745
 30
0.0
 10
237.6705007607912
 20
480.5751909067444
 30
0.0
 10
245.1848352065901
 20
488.4196448983897
 30
0.0
 10
249.1479837455508
 20
492.1636073043923
 30
0.0
 10
257.5112487034776
 20
499.1098354033198
 30
0.0
 10
261.9123127747286
 20
502.2894097915799
 30
0.0
 10
266.4339316255715
 20
505.3101962198631
 30
0.0
  0
SPLINE
  5
B8
330
AB
100
AcDbEntity
  8
$DDT_AUDIT_GENERATED_(68)
  6
Continuous
 62
     7
100
AcDbSpline
210
0.0
220
0.0
230
1.0
 70
     8
 71
     3
 72
    10
 73
     6
 74
     0
 42
0.000000011113775
 43
0.0000000001
 40
0.0
 40
0.0
 40
0.0
 40
0.0
 40
0.5
 40
0.5
 40
1.0
 40
1.0
 40
1.0
 40
1.0
 10
211.7579974812632
 20
269.4620607001389
 30
0.0
 10
211.7578412758931
 20
269.3111453596287
 30
0.0
 10
211.735418771237
 20
269.1640457535358
 30
0.0
 10
211.6468116766773
 20
268.877345968746
 30
0.0
 10
211.5813324053562
 20
268.741735906388
 30
0.0
 10
211.4971414078604
 20
268.6183178738818
 30
0.0
  0
SPLINE
  5
B9
330
AB
100
AcDbEntity
  8
$DDT_AUDIT_GENERATED_(68)
  6
Continuous
 62
     7
100
AcDbSpline
210
0.0
220
0.0
230
1.0
 70
     8
 71
     3
 72
    18
 73
    14
 74
     0
 42
0.0000000042666035
 43
0.0000000001
 40
0.0
 40
0.0
 40
0.0
 40
0.0
 40
0.125
 40
0.125
 40
0.25
 40
0.25
 40
0.375
 40
0.375
 40
0.5
 40
0.5
 40
0.75
 40
0.75
 40
1.0
 40
1.0
 40
1.0
 40
1.0
 10
185.3434890446253
 20
267.9549744812868
 30
0.0
 10
185.2453347105588
 20
267.9549404478512
 30
0.0
 10
185.1488019802545
 20
267.9644482845158
 30
0.0
 10
184.9588466289933
 20
268.0017645193516
 30
0.0
 10
184.8644652949741
 20
268.0300091079736
 30
0.0
 10
184.684158498953
 20
268.1038783183821
 30
0.0
 10
184.5985913112665
 20
268.1490952320739
 30
0.0
 10
184.436523220795
 20
268.2559020042375
 30
0.0
 10
184.3596090669415
 20
268.3181339356051
 30
0.0
 10
184.1523286586271
 20
268.5222433541153
 30
0.0
 10
184.0401266536074
 20
268.6868205760705
 30
0.0
 10
183.8878159458574
 20
269.0426782966703
 30
0.0
 10
183.8460098803605
 20
269.2372790165505
 30
0.0
 10
183.843131308841
 20
269.4329047501255
 30
0.0
  0
SPLINE
  5
BA
330
AB
100
AcDbEntity
  8
$DDT_AUDIT_GENERATED_(68)
  6
Continuous
 62
     7
100
AcDbSpline
210
0.0
220
0.0
230
1.0
 70
     8
 71
     3
 72
    22
 73
    18
 74
     0
 42
0.0000000000808755
 43
0.0000000001
 40
0.0
 40
0.0
 40
0.0
 40
0.0
 40
0.03125
 40
0.03125
 40
0.0625
 40
0.0625
 40
0.1250000000000001
 40
0.1250000000000001
 40
0.2500000000000001
 40
0.2500000000000001
 40
0.3750000000000002
 40
0.3750000000000002
 40
0.5000000000000002
 40
0.5000000000000002
 40
0.7500000000000001
 40
0.7500000000000001
 40
1.0
 40
1.0
 40
1.0
 40
1.0
 10
221.4891012610264
 20
407.710331605687
 30
0.0
 10
220.5971482189825
 20
406.7753860449384
 30
0.0
 10
219.977086213984
 20
405.6210491651665
 30
0.0
 10
219.0025601544939
 20
403.225072310457
 30
0.0
 10
218.644554631596
 20
401.9891346685902
 30
0.0
 10
217.674538966354
 20
398.2507877129685
 30
0.0
 10
217.1582267437081
 20
395.7214734393077
 30
0.0
 10
215.7887048874924
 20
388.1173564793965
 30
0.0
 10
215.18995363946
 20
382.9912542511344
 30
0.0
 10
214.2751670641905
 20
372.735185859224
 30
0.0
 10
213.9590846677949
 20
367.595918259473
 30
0.0
 10
213.4470018236655
 20
357.3078372351156
 30
0.0
 10
213.2535029105479
 20
352.1604819333834
 30
0.0
 10
212.7602809604418
 20
336.7193599132709
 30
0.0
 10
212.5459877145744
 20
326.4229920902523
 30
0.0
 10
212.1698073049944
 20
305.829210130804
 30
0.0
 10
212.0022802614316
 20
295.5319085973716
 30
0.0
 10
211.8772268157472
 20
285.2337590575009
 30
0.0
  0
ARC
  5
BB
330
AB
100
AcDbEntity
  8
$DDT_AUDIT_GENERATED_(68)
  6
Continuous
 62
     7
100
AcDbCircle
 10
221.2720372075
 20
407.9174141899
 30
0.0
 40
0.2999999999999147
100
AcDbArc
 50
316.3480963269
 51
328.5725521013
  0
SPLINE
  5
BC
330
AB
100
AcDbEntity
  8
$DDT_AUDIT_GENERATED_(68)
  6
Continuous
 62
     7
100
AcDbSpline
210
0.0
220
0.0
230
1.0
 70
     8
 71
     3
 72
    10
 73
     6
 74
     0
 42
0.0000000297821169
 43
0.0000000001
 40
0.4999195830042541
 40
0.4999195830042541
 40
0.4999195830042541
 40
0.4999195830042541
 40
0.5
 40
0.5
 40
0.6985952067907252
 40
0.6985952067907252
 40
0.6985952067907252
 40
0.6985952067907252
 10
236.0815286417355
 20
433.4638787710036
 30
0.0
 10
236.0815322539225
 20
433.4638688735311
 30
0.0
 10
236.0815358647337
 20
433.4638589764855
 30
0.0
 10
236.0904532185058
 20
433.4394087116847
 30
0.0
 10
236.0909547030647
 20
433.4176303327483
 30
0.0
 10
236.0831953839802
 20
433.4004197800077
 30
0.0
  0
ARC
  5
BD
330
AB
100
AcDbEntity
  8
$DDT_AUDIT_GENERATED_(68)
  6
Continuous
 62
     7
100
AcDbCircle
 10
-951.1675546963
 20
1105.8338057626
 30
0.0
 40
1364.396769620579
100
AcDbArc
 50
329.7688116733
 51
330.2536467649
  0
SPLINE
  5
BE
330
AB
100
AcDbEntity
  8
$DDT_AUDIT_GENERATED_(68)
  6
Continuous
 62
     7
100
AcDbSpline
210
0.0
220
0.0
230
1.0
 70
     8
 71
     3
 72
    10
 73
     6
 74
     0
 42
0.0000000181588444
 43
0.0000000001
 40
0.6915031303888894
 40
0.6915031303888894
 40
0.6915031303888894
 40
0.6915031303888894
 40
0.75
 40
0.75
 40
1.0
 40
1.0
 40
1.0
 40
1.0
 10
226.4195388789587
 20
416.6193761345884
 30
0.0
 10
226.4150617801981
 20
416.6100780626742
 30
0.0
 10
226.4098665361742
 20
416.6011689086898
 30
0.0
 10
226.3788249222571
 20
416.5567194076873
 30
0.0
 10
226.3411880329375
 20
416.52902276417
 30
0.0
 10
226.2954244058035
 20
416.5135462616792
 30
0.0
  0
ARC
  5
BF
330
AB
100
AcDbEntity
  8
$DDT_AUDIT_GENERATED_(68)
  6
Continuous
 62
     7
100
AcDbCircle
 10
344.7872357013
 20
346.1064706032
 30
0.0
 40
137.8312941492806
100
AcDbArc
 50
149.613770489
 51
153.4515606476
  0
SPLINE
  5
C0
330
AB
100
AcDbEntity
  8
$DDT_AUDIT_GENERATED_(68)
  6
Continuous
 62
     7
100
AcDbSpline
210
0.0
220
0.0
230
1.0
 70
     8
 71
     3
 72
    10
 73
     6
 74
     0
 42
0.0000000067936772
 43
0.0000000001
 40
0.0
 40
0.0
 40
0.0
 40
0.0
 40
0.5
 40
0.5
 40
1.0
 40
1.0
 40
1.0
 40
1.0
 10
211.4971414078604
 20
268.6183178738818
 30
0.0
 10
211.3605206513914
 20
268.4180415324147
 30
0.0
 10
211.1735901715961
 20
268.2509581013597
 30
0.0
 10
210.7447097694172
 20
268.0241852620722
 30
0.0
 10
210.5034160379108
 20
267.9636982810694
 30
0.0
 10
210.258518383747
 20
267.963613366749
 30
0.0
  0
LINE
  5
C1
330
AB
100
AcDbEntity
  8
$DDT_AUDIT_GENERATED_(68)
  6
Continuous
 62
     7
100
AcDbLine
 10
183.8431313088
 20
269.4329047501
 30
0.0
 11
183.8432065665
 21
269.4816729316
 31
0.0
  0
LINE
  5
C2
330
AB
100
AcDbEntity
  8
$DDT_AUDIT_GENERATED_(68)
  6
Continuous
 62
     7
100
AcDbLine
 10
185.3434890446
 20
267.9549744813
 30
0.0
 11
185.6267946552
 21
267.9549573
 31
0.0
  0
SPLINE
  5
C3
330
AB
100
AcDbEntity
  8
$DDT_AUDIT_GENERATED_(68)
  6
Continuous
 62
     7
100
AcDbSpline
210
0.0
220
0.0
230
1.0
 70
     8
 71
     3
 72
    18
 73
    14
 74
     0
 42
0.0000000025060016
 43
0.0000000001
 40
0.0
 40
0.0
 40
0.0
 40
0.0
 40
0.2499999999999982
 40
0.2499999999999982
 40
0.3749999999999983
 40
0.3749999999999983
 40
0.4999999999999986
 40
0.4999999999999986
 40
0.7499999999999996
 40
0.7499999999999996
 40
0.8749999999999998
 40
0.8749999999999998
 40
1.0
 40
1.0
 40
1.0
 40
1.0
 10
206.2681060765184
 20
267.9618852313468
 30
0.0
 10
206.8918314259146
 20
267.9621245364144
 30
0.0
 10
207.4518492000825
 20
267.9623433701926
 30
0.0
 10
208.1922449234049
 20
267.962639606241
 30
0.0
 10
208.4223402838132
 20
267.9627329843116
 30
0.0
 10
208.8471356136054
 20
267.9629083667772
 30
0.0
 10
209.0424997223825
 20
267.9629906745852
 30
0.0
 10
209.5608311907673
 20
267.9632145941018
 30
0.0
 10
209.8202288813087
 20
267.9633348605435
 30
0.0
 10
210.0821244849627
 20
267.9634724253011
 30
0.0
 10
210.1481752109464
 20
267.9635111250223
 30
0.0
 10
210.2366975533111
 20
267.9635738492026
 30
0.0
 10
210.2585057379073
 20
267.963597430708
 30
0.0
 10
210.258518383747
 20
267.963613366749
 30
0.0
  0
ARC
  5
C4
330
AB
100
AcDbEntity
  8
$DDT_AUDIT_GENERATED_(68)
  6
Continuous
 62
     7
100
AcDbCircle
 10
-3335.466260962
 20
2559.0969742729
 30
0.0
 40
4146.290526129069
100
AcDbArc
 50
329.2172057363
 51
330.3084121044
  0
ARC
  5
C5
330
AB
100
AcDbEntity
  8
$DDT_AUDIT_GENERATED_(68)
  6
Continuous
 62
     7
100
AcDbCircle
 10
141.1265111588
 20
480.0685989239
 30
0.0
 40
95.73265326622989
100
AcDbArc
 50
320.5470363845
 51
333.32277368
  0
SPLINE
  5
C6
330
AB
100
AcDbEntity
  8
$DDT_AUDIT_GENERATED_(68)
  6
Continuous
 62
     7
100
AcDbSpline
210
0.0
220
0.0
230
1.0
 70
    12
 71
     3
 72
   414
 73
   410
 74
     0
 42
0.0000000000644499
 43
0.0000000001
 40
0.0
 40
0.0
 40
0.0
 40
0.0
 40
0.0020705589698746
 40
0.0020705589698746
 40
0.0031058384548119
 40
0.0031058384548119
 40
0.0041411179397491
 40
0.0041411179397491
 40
0.0082822358794981
 40
0.0082822358794981
 40
0.0103527948493726
 40
0.0103527948493726
 40
0.0108704345918413
 40
0.0108704345918413
 40
0.0113880743343099
 40
0.0113880743343099
 40
0.0124233538192471
 40
0.0124233538192471
 40
0.0165644717589961
 40
0.0165644717589961
 40
0.0248467076384942
 40
0.0248467076384942
 40
0.0331289435179922
 40
0.0331289435179922
 40
0.0372700614577412
 40
0.0372700614577412
 40
0.0414111793974902
 40
0.0414111793974902
 40
0.0455522973372392
 40
0.0455522973372392
 40
0.0476228563071137
 40
0.0476228563071137
 40
0.048658135792051
 40
0.048658135792051
 40
0.0496934152769883
 40
0.0496934152769883
 40
0.0579756511564865
 40
0.0579756511564865
 40
0.0662578870359845
 40
0.0662578870359845
 40
0.0703990049757335
 40
0.0703990049757335
 40
0.072469563945608
 40
0.072469563945608
 40
0.0735048434305452
 40
0.0735048434305452
 40
0.0745401229154825
 40
0.0745401229154825
 40
0.0828223587949806
 40
0.0828223587949806
 40
0.0911045946744788
 40
0.0911045946744788
 40
0.0952457126142278
 40
0.0952457126142278
 40
0.0973162715841023
 40
0.0973162715841023
 40
0.0978339113265709
 40
0.0978339113265709
 40
0.0983515510690395
 40
0.0983515510690395
 40
0.0993868305539768
 40
0.0993868305539768
 40
0.100422110038914
 40
0.100422110038914
 40
0.1014573895238513
 40
0.1014573895238513
 40
0.1035279484937258
 40
0.1035279484937258
 40
0.1076690664334748
 40
0.1076690664334748
 40
0.1159513023129729
 40
0.1159513023129729
 40
0.120092420252722
 40
0.120092420252722
 40
0.1242335381924711
 40
0.1242335381924711
 40
0.1325157740719691
 40
0.1325157740719691
 40
0.1407980099514671
 40
0.1407980099514671
 40
0.1490802458309652
 40
0.1490802458309652
 40
0.1573624817104634
 40
0.1573624817104634
 40
0.1656447175899614
 40
0.1656447175899614
 40
0.1739269534694594
 40
0.1739269534694594
 40
0.1759975124393339
 40
0.1759975124393339
 40
0.1770327919242712
 40
0.1770327919242712
 40
0.1780680714092084
 40
0.1780680714092084
 40
0.1791033508941456
 40
0.1791033508941456
 40
0.1801386303790829
 40
0.1801386303790829
 40
0.1822091893489575
 40
0.1822091893489575
 40
0.1987736611079537
 40
0.1987736611079537
 40
0.2029147790477027
 40
0.2029147790477027
 40
0.2039500585326399
 40
0.2039500585326399
 40
0.2044676982751086
 40
0.2044676982751086
 40
0.2049853380175772
 40
0.2049853380175772
 40
0.2070558969874517
 40
0.2070558969874517
 40
0.2153381328669498
 40
0.2153381328669498
 40
0.2236203687464479
 40
0.2236203687464479
 40
0.2277614866861969
 40
0.2277614866861969
 40
0.2298320456560715
 40
0.2298320456560715
 40
0.231902604625946
 40
0.231902604625946
 40
0.236043722565695
 40
0.236043722565695
 40
0.240184840505444
 40
0.240184840505444
 40
0.2484670763849421
 40
0.2484670763849421
 40
0.2526081943246912
 40
0.2526081943246912
 40
0.2567493122644403
 40
0.2567493122644403
 40
0.2650315481439383
 40
0.2650315481439383
 40
0.2733137840234363
 40
0.2733137840234363
 40
0.2774549019631853
 40
0.2774549019631853
 40
0.2815960199029344
 40
0.2815960199029344
 40
0.2981604916619305
 40
0.2981604916619305
 40
0.3064427275414286
 40
0.3064427275414286
 40
0.3105838454811776
 40
0.3105838454811776
 40
0.3147249634209267
 40
0.3147249634209267
 40
0.3230071993004248
 40
0.3230071993004248
 40
0.3271483172401738
 40
0.3271483172401738
 40
0.3292188762100484
 40
0.3292188762100484
 40
0.3302541556949856
 40
0.3302541556949856
 40
0.3312894351799229
 40
0.3312894351799229
 40
0.3354305531196718
 40
0.3354305531196718
 40
0.3395716710594209
 40
0.3395716710594209
 40
0.3437127889991699
 40
0.3437127889991699
 40
0.3457833479690444
 40
0.3457833479690444
 40
0.347853906938919
 40
0.347853906938919
 40
0.3644183786979152
 40
0.3644183786979152
 40
0.3809828504569112
 40
0.3809828504569112
 40
0.3851239683966602
 40
0.3851239683966602
 40
0.3871945273665347
 40
0.3871945273665347
 40
0.3892650863364092
 40
0.3892650863364092
 40
0.3903003658213465
 40
0.3903003658213465
 40
0.3913356453062837
 40
0.3913356453062837
 40
0.3934062042761582
 40
0.3934062042761582
 40
0.3975473222159073
 40
0.3975473222159073
 40
0.4306762657338995
 40
0.4306762657338995
 40
0.432746824703774
 40
0.432746824703774
 40
0.4337821041887113
 40
0.4337821041887113
 40
0.4342997439311799
 40
0.4342997439311799
 40
0.4348173836736485
 40
0.4348173836736485
 40
0.4389585016133976
 40
0.4389585016133976
 40
0.4472407374928957
 40
0.4472407374928957
 40
0.4493112964627703
 40
0.4493112964627703
 40
0.4513818554326448
 40
0.4513818554326448
 40
0.4555229733723938
 40
0.4555229733723938
 40
0.4575935323422683
 40
0.4575935323422683
 40
0.4596640913121428
 40
0.4596640913121428
 40
0.4638052092518918
 40
0.4638052092518918
 40
0.4720874451313898
 40
0.4720874451313898
 40
0.4762285630711388
 40
0.4762285630711388
 40
0.4782991220410133
 40
0.4782991220410133
 40
0.4793344015259506
 40
0.4793344015259506
 40
0.480369681010888
 40
0.480369681010888
 40
0.4969341527698841
 40
0.4969341527698841
 40
0.5134986245288803
 40
0.5134986245288803
 40
0.5217808604083782
 40
0.5217808604083782
 40
0.5259219783481274
 40
0.5259219783481274
 40
0.526439618090596
 40
0.526439618090596
 40
0.5269572578330647
 40
0.5269572578330647
 40
0.5279925373180019
 40
0.5279925373180019
 40
0.5300630962878764
 40
0.5300630962878764
 40
0.5383453321673746
 40
0.5383453321673746
 40
0.5424864501071236
 40
0.5424864501071236
 40
0.5435217295920608
 40
0.5435217295920608
 40
0.544557009076998
 40
0.544557009076998
 40
0.5466275680468725
 40
0.5466275680468725
 40
0.5631920398058687
 40
0.5631920398058687
 40
0.5714742756853668
 40
0.5714742756853668
 40
0.5735448346552413
 40
0.5735448346552413
 40
0.5756153936251158
 40
0.5756153936251158
 40
0.5797565115648649
 40
0.5797565115648649
 40
0.5880387474443629
 40
0.5880387474443629
 40
0.5921798653841118
 40
0.5921798653841118
 40
0.5942504243539863
 40
0.5942504243539863
 40
0.5963209833238609
 40
0.5963209833238609
 40
0.6128854550828571
 40
0.6128854550828571
 40
0.617026573022606
 40
0.617026573022606
 40
0.6190971319924805
 40
0.6190971319924805
 40
0.6211676909623551
 40
0.6211676909623551
 40
0.6294499268418532
 40
0.6294499268418532
 40
0.6377321627213512
 40
0.6377321627213512
 40
0.6418732806611003
 40
0.6418732806611003
 40
0.6439438396309748
 40
0.6439438396309748
 40
0.6460143986008493
 40
0.6460143986008493
 40
0.6625788703598455
 40
0.6625788703598455
 40
0.6646494293297199
 40
0.6646494293297199
 40
0.6656847088146572
 40
0.6656847088146572
 40
0.6667199882995944
 40
0.6667199882995944
 40
0.6708611062393435
 40
0.6708611062393435
 40
0.6791433421188416
 40
0.6791433421188416
 40
0.6957078138778378
 40
0.6957078138778378
 40
0.7039900497573358
 40
0.7039900497573358
 40
0.708131167697085
 40
0.708131167697085
 40
0.7102017266669595
 40
0.7102017266669595
 40
0.7112370061518967
 40
0.7112370061518967
 40
0.7122722856368339
 40
0.7122722856368339
 40
0.720554521516332
 40
0.720554521516332
 40
0.7246956394560811
 40
0.7246956394560811
 40
0.7267661984259556
 40
0.7267661984259556
 40
0.7278014779108928
 40
0.7278014779108928
 40
0.7288367573958301
 40
0.7288367573958301
 40
0.7454012291548262
 40
0.7454012291548262
 40
0.7536834650343244
 40
0.7536834650343244
 40
0.7557540240041989
 40
0.7557540240041989
 40
0.7578245829740734
 40
0.7578245829740734
 40
0.7619657009138223
 40
0.7619657009138223
 40
0.7785301726728184
 40
0.7785301726728184
 40
0.7868124085523165
 40
0.7868124085523165
 40
0.7909535264920655
 40
0.7909535264920655
 40
0.7930240854619401
 40
0.7930240854619401
 40
0.7940593649468775
 40
0.7940593649468775
 40
0.7950946444318147
 40
0.7950946444318147
 40
0.796129923916752
 40
0.796129923916752
 40
0.7971652034016892
 40
0.7971652034016892
 40
0.7992357623715637
 40
0.7992357623715637
 40
0.8033768803113127
 40
0.8033768803113127
 40
0.8116591161908107
 40
0.8116591161908107
 40
0.8199413520703088
 40
0.8199413520703088
 40
0.828223587949807
 40
0.828223587949807
 40
0.8365058238293049
 40
0.8365058238293049
 40
0.8385763827991795
 40
0.8385763827991795
 40
0.840646941769054
 40
0.840646941769054
 40
0.844788059708803
 40
0.844788059708803
 40
0.8613525314677991
 40
0.8613525314677991
 40
0.8779170032267953
 40
0.8779170032267953
 40
0.8789522827117325
 40
0.8789522827117325
 40
0.8799875621966698
 40
0.8799875621966698
 40
0.8820581211665443
 40
0.8820581211665443
 40
0.8861992391062933
 40
0.8861992391062933
 40
0.8944814749857914
 40
0.8944814749857914
 40
0.9027637108652896
 40
0.9027637108652896
 40
0.9069048288050385
 40
0.9069048288050385
 40
0.908975387774913
 40
0.908975387774913
 40
0.9100106672598504
 40
0.9100106672598504
 40
0.9110459467447876
 40
0.9110459467447876
 40
0.9151870646845366
 40
0.9151870646845366
 40
0.9172576236544111
 40
0.9172576236544111
 40
0.9193281826242856
 40
0.9193281826242856
 40
0.9276104185037838
 40
0.9276104185037838
 40
0.9441748902627799
 40
0.9441748902627799
 40
0.952457126142278
 40
0.952457126142278
 40
0.9545276851121524
 40
0.9545276851121524
 40
0.9565982440820269
 40
0.9565982440820269
 40
0.960739362021776
 40
0.960739362021776
 40
0.9773038337807721
 40
0.9773038337807721
 40
0.9938683055397683
 40
0.9938683055397683
 40
1.0
 40
1.0
 40
1.0
 40
1.0
 10
215.0461448144128
 20
419.2358062737611
 30
0.0
 41
1.0
 10
214.999608209564
 20
419.1769098939785
 30
0.0
 41
1.0
 10
214.9531030968852
 20
419.1184173750096
 30
0.0
 41
1.0
 10
214.8834003129413
 20
419.0312067002926
 30
0.0
 41
1.0
 10
214.8601752034344
 20
419.0022244901007
 30
0.0
 41
1.0
 10
214.8137430046652
 20
418.9444313645762
 30
0.0
 41
1.0
 10
214.7930989066951
 20
418.9188299432845
 30
0.0
 41
1.0
 10
214.6860729465886
 20
418.7863781750179
 30
0.0
 41
1.0
 10
214.6002567483643
 20
418.6812350802513
 30
0.0
 41
1.0
 10
214.4708983835964
 20
418.5241562649828
 30
0.0
 41
1.0
 10
214.4276735677034
 20
418.4719030488938
 30
0.0
 41
1.0
 10
214.3734778047591
 20
418.4066608357517
 30
0.0
 41
1.0
 10
214.3626304217692
 20
418.3936161158464
 30
0.0
 41
1.0
 10
214.3409183955451
 20
418.367532682281
 30
0.0
 41
1.0
 10
214.3284182133444
 20
418.3524790763251
 30
0.0
 41
1.0
 10
214.2915801491452
 20
418.3081817750023
 30
0.0
 41
1.0
 10
214.2669659183592
 20
418.2786425433052
 30
0.0
 41
1.0
 10
214.1436340689917
 20
418.1309171948786
 30
0.0
 41
1.0
 10
214.0441351943207
 20
418.0126471863683
 30
0.0
 41
1.0
 10
213.743766565447
 20
417.6578348588631
 30
0.0
 41
1.0
 10
213.5410308852107
 20
417.4213308427575
 30
0.0
 41
1.0
 10
213.133729463051
 20
416.9487702355514
 30
0.0
 41
1.0
 10
212.929172015393
 20
416.7126405712282
 30
0.0
 41
1.0
 10
212.6231184534256
 20
416.3586431601341
 30
0.0
 41
1.0
 10
212.5212280051976
 20
416.2406804547476
 30
0.0
 41
1.0
 10
212.3180179832582
 20
416.0048695128041
 30
0.0
 41
1.0
 10
212.2183748862938
 20
415.88910052215
 30
0.0
 41
1.0
 10
212.0086391959051
 20
415.6437541548669
 30
0.0
 41
1.0
 10
211.9037037592313
 20
415.5205170746269
 30
0.0
 41
1.0
 10
211.7468931855994
 20
415.3354993511034
 30
0.0
 41
1.0
 10
211.6947852049658
 20
415.2738797717835
 30
0.0
 41
1.0
 10
211.617013672691
 20
415.1817026734683
 30
0.0
 41
1.0
 10
211.5937677549345
 20
415.1543004663455
 30
0.0
 41
1.0
 10
211.5445794924031
 20
415.0960416803446
 30
0.0
 41
1.0
 10
211.5197033665135
 20
415.0665214279146
 30
0.0
 41
1.0
 10
211.2935335831181
 20
414.7976079712542
 30
0.0
 41
1.0
 10
211.0763814537497
 20
414.5358154775174
 30
0.0
 41
1.0
 10
210.6353810073809
 20
414.0038109005321
 30
0.0
 41
1.0
 10
210.4116563047673
 20
413.7330842236098
 30
0.0
 41
1.0
 10
210.088391102368
 20
413.341341649195
 30
0.0
 41
1.0
 10
209.9826638163579
 20
413.2131144050181
 30
0.0
 41
1.0
 10
209.828895617379
 20
413.0265122228467
 30
0.0
 41
1.0
 10
209.7784401504176
 20
412.9652640814925
 30
0.0
 41
1.0
 10
209.7041409399563
 20
412.87504997219
 30
0.0
 41
1.0
 10
209.675736002626
 20
412.8400709262827
 30
0.0
 41
1.0
 10
209.6210158865363
 20
412.7728036619955
 30
0.0
 41
1.0
 10
209.5936228614393
 20
412.7390756580597
 30
0.0
 41
1.0
 10
209.3467553582088
 20
412.4345681229786
 30
0.0
 41
1.0
 10
209.1248315274215
 20
412.1572121746687
 30
0.0
 41
1.0
 10
208.6740338309825
 20
411.5757276500627
 30
0.0
 41
1.0
 10
208.4452414964852
 20
411.2713914113439
 30
0.0
 41
1.0
 10
208.0972530410017
 20
410.784383754024
 30
0.0
 41
1.0
 10
207.9804686476035
 20
410.6169788681546
 30
0.0
 41
1.0
 10
207.8041960449205
 20
410.3571684590983
 30
0.0
 41
1.0
 10
207.7452558853245
 20
410.2691157933804
 30
0.0
 41
1.0
 10
207.6713596480095
 20
410.157135810117
 30
0.0
 41
1.0
 10
207.6557259058825
 20
410.1332436800832
 30
0.0
 41
1.0
 10
207.6279630693633
 20
410.0911213534869
 30
0.0
 41
1.0
 10
207.6140953534287
 20
410.0700142588884
 30
0.0
 41
1.0
 10
207.5725295828642
 20
410.0065479790239
 30
0.0
 41
1.0
 10
207.544868921038
 20
409.9640438208169
 30
0.0
 41
1.0
 10
207.4896271231762
 20
409.8786100692787
 30
0.0
 41
1.0
 10
207.4636427443995
 20
409.8383940157082
 30
0.0
 41
1.0
 10
207.4114981149808
 20
409.7571810654171
 30
0.0
 41
1.0
 10
207.3854079414538
 20
409.7162922207461
 30
0.0
 41
1.0
 10
207.307101781076
 20
409.5927977289421
 30
0.0
 41
1.0
 10
207.2548503047744
 20
409.5093628759732
 30
0.0
 41
1.0
 10
207.0980946555801
 20
409.2559417807657
 30
0.0
 41
1.0
 10
206.9935956258774
 20
409.0828198297481
 30
0.0
 41
1.0
 10
206.6810902892251
 20
408.553228058871
 30
0.0
 41
1.0
 10
206.474092032094
 20
408.186609420079
 30
0.0
 41
1.0
 10
206.1682723414459
 20
407.628122775569
 30
0.0
 41
1.0
 10
206.0671026154766
 20
407.4405364839576
 30
0.0
 41
1.0
 10
205.8666970092601
 20
407.0642747094616
 30
0.0
 41
1.0
 10
205.7679641758291
 20
406.8766606502865
 30
0.0
 41
1.0
 10
205.471839889098
 20
406.3071253704812
 30
0.0
 41
1.0
 10
205.2788465566523
 20
405.9279303691509
 30
0.0
 41
1.0
 10
204.8929046302815
 20
405.1484395762175
 30
0.0
 41
1.0
 10
204.7019078835687
 20
404.7490499186145
 30
0.0
 41
1.0
 10
204.3179549557901
 20
403.9322624004395
 30
0.0
 41
1.0
 10
204.1250166679736
 20
403.5146350077172
 30
0.0
 41
1.0
 10
203.7382210967282
 20
402.6515809089116
 30
0.0
 41
1.0
 10
203.5512138707313
 20
402.2231655378685
 30
0.0
 41
1.0
 10
203.1889217183713
 20
401.3672305566346
 30
0.0
 41
1.0
 10
203.0138088991204
 20
400.9402587918452
 30
0.0
 41
1.0
 10
202.6767102181871
 20
400.0890329607037
 30
0.0
 41
1.0
 10
202.5153483168414
 20
399.6642353644827
 30
0.0
 41
1.0
 10
202.3204550764075
 20
399.1376142748052
 30
0.0
 41
1.0
 10
202.2818077337787
 20
399.0325136415558
 30
0.0
 41
1.0
 10
202.2243275458536
 20
398.8752210352889
 30
0.0
 41
1.0
 10
202.2041517267761
 20
398.819387196599
 30
0.0
 41
1.0
 10
202.1647961260505
 20
398.71041991457
 30
0.0
 41
1.0
 10
202.1452111108008
 20
398.6560157344928
 30
0.0
 41
1.0
 10
202.1062254778444
 20
398.5473710648052
 30
0.0
 41
1.0
 10
202.0868248602388
 20
398.4931305748652
 30
0.0
 41
1.0
 10
202.0482068800752
 20
398.3848180587438
 30
0.0
 41
1.0
 10
202.0291874029866
 20
398.3313956052662
 30
0.0
 41
1.0
 10
201.9694278008851
 20
398.1616759364236
 30
0.0
 41
1.0
 10
201.9299484654693
 20
398.0487721998318
 30
0.0
 41
1.0
 10
201.5778621237998
 20
397.0350532877843
 30
0.0
 41
1.0
 10
201.2878752589203
 20
396.1512094085903
 30
0.0
 41
1.0
 10
200.9527977967082
 20
395.0837448629475
 30
0.0
 41
1.0
 10
200.8871513376196
 20
394.8721162219422
 30
0.0
 41
1.0
 10
200.80678147687
 20
394.6101552192283
 30
0.0
 41
1.0
 10
200.7907919131403
 20
394.5578917685182
 30
0.0
 41
1.0
 10
200.7669337410505
 20
394.4796943381466
 30
0.0
 41
1.0
 10
200.7594512760567
 20
394.4554564630085
 30
0.0
 41
1.0
 10
200.7426001201112
 20
394.3993430130869
 30
0.0
 41
1.0
 10
200.7341911691199
 20
394.3712931495293
 30
0.0
 41
1.0
 10
200.6922297892395
 20
394.2310803470702
 30
0.0
 41
1.0
 10
200.6589275109343
 20
394.1190269463776
 30
0.0
 41
1.0
 10
200.4937646065974
 20
393.5594856875437
 30
0.0
 41
1.0
 10
200.3659563281018
 20
393.1141716201004
 30
0.0
 41
1.0
 10
200.1192434722958
 20
392.2318484406823
 30
0.0
 41
1.0
 10
200.0003395000212
 20
391.7948347896711
 30
0.0
 41
1.0
 10
199.8287181556915
 20
391.1484056056495
 30
0.0
 41
1.0
 10
199.7726319637354
 20
390.9344461070456
 30
0.0
 41
1.0
 10
199.6901769059524
 20
390.616160909747
 30
0.0
 41
1.0
 10
199.6635111357146
 20
390.5132243734397
 30
0.0
 41
1.0
 10
199.6076995572488
 20
390.2930645043996
 30
0.0
 41
1.0
 10
199.5800237748346
 20
390.1831312076832
 30
0.0
 41
1.0
 10
199.4976872249266
 20
389.8538573187437
 30
0.0
 41
1.0
 10
199.4440862813516
 20
389.6370015129797
 30
0.0
 41
1.0
 10
199.3369109592901
 20
389.1955642905549
 30
0.0
 41
1.0
 10
199.284117816959
 20
388.9750319846039
 30
0.0
 41
1.0
 10
199.1280987467292
 20
388.314595078378
 30
0.0
 41
1.0
 10
199.0272389421659
 20
387.8758464553511
 30
0.0
 41
1.0
 10
198.8804553553426
 20
387.2225422528831
 30
0.0
 41
1.0
 10
198.8320717682859
 20
387.0043845903733
 30
0.0
 41
1.0
 10
198.7359869631749
 20
386.5652813568209
 30
0.0
 41
1.0
 10
198.688517659719
 20
386.3457301357466
 30
0.0
 41
1.0
 10
198.5477398094812
 20
385.6874718246863
 30
0.0
 41
1.0
 10
198.4560602820972
 20
385.2491660440051
 30
0.0
 41
1.0
 10
198.2765455843382
 20
384.3756198915867
 30
0.0
 41
1.0
 10
198.1887688566281
 20
383.9408448132681
 30
0.0
 41
1.0
 10
198.0587920491448
 20
383.2862334406081
 30
0.0
 41
1.0
 10
198.0158028629186
 20
383.0679744612716
 30
0.0
 41
1.0
 10
197.9304552569743
 20
382.6314251834694
 30
0.0
 41
1.0
 10
197.8890285825152
 20
382.4195998632946
 30
0.0
 41
1.0
 10
197.68117783889
 20
381.3454066036061
 30
0.0
 41
1.0
 10
197.5188146221328
 20
380.4773645861562
 30
0.0
 41
1.0
 10
197.2739586559904
 20
379.1650361564418
 30
0.0
 41
1.0
 10
197.1923564115361
 20
378.725806433962
 30
0.0
 41
1.0
 10
197.0699950858354
 20
378.064495827946
 30
0.0
 41
1.0
 10
197.030795417174
 20
377.8553728634803
 30
0.0
 41
1.0
 10
196.9513535243499
 20
377.4286146890373
 30
0.0
 41
1.0
 10
196.9115749367384
 20
377.2143915567817
 30
0.0
 41
1.0
 10
196.7920522201939
 20
376.5689714689182
 30
0.0
 41
1.0
 10
196.7121201302873
 20
376.1350203010851
 30
0.0
 41
1.0
 10
196.5918162230882
 20
375.477771707264
 30
0.0
 41
1.0
 10
196.5516476484435
 20
375.2576363039979
 30
0.0
 41
1.0
 10
196.4912908934786
 20
374.9257573048698
 30
0.0
 41
1.0
 10
196.471154653577
 20
374.8148516615239
 30
0.0
 41
1.0
 10
196.440923893497
 20
374.6480621352496
 30
0.0
 41
1.0
 10
196.4312922279024
 20
374.5959046253861
 30
0.0
 41
1.0
 10
196.411641309556
 20
374.4885025211751
 30
0.0
 41
1.0
 10
196.4018112766656
 20
374.4347329920308
 30
0.0
 41
1.0
 10
196.3526379771684
 20
374.1655376336491
 30
0.0
 41
1.0
 10
196.3132253068223
 20
373.9490687005664
 30
0.0
 41
1.0
 10
196.2342450343705
 20
373.5137687054252
 30
0.0
 41
1.0
 10
196.1944584389223
 20
373.2931707510653
 30
0.0
 41
1.0
 10
196.1164927941756
 20
372.8636973439251
 30
0.0
 41
1.0
 10
196.0774316929091
 20
372.6477894435665
 30
0.0
 41
1.0
 10
196.0187180209626
 20
372.3220726718572
 30
0.0
 41
1.0
 10
195.9991264639518
 20
372.2131912479452
 30
0.0
 41
1.0
 10
195.959901969391
 20
371.9947935369042
 30
0.0
 41
1.0
 10
195.9398434132797
 20
371.8817861208825
 30
0.0
 41
1.0
 10
195.7711878370302
 20
370.9606411906995
 30
0.0
 41
1.0
 10
195.6200467158104
 20
370.1246478336761
 30
0.0
 41
1.0
 10
195.3152524786749
 20
368.4118676437828
 30
0.0
 41
1.0
 10
195.1615961349249
 20
367.5350851682796
 30
0.0
 41
1.0
 10
194.9681024339793
 20
366.4093105640633
 30
0.0
 41
1.0
 10
194.9293334127576
 20
366.1826644765552
 30
0.0
 41
1.0
 10
194.8710801756352
 20
365.8403741492784
 30
0.0
 41
1.0
 10
194.8516458255651
 20
365.7258904939251
 30
0.0
 41
1.0
 10
194.8127450248918
 20
365.4961351814196
 30
0.0
 41
1.0
 10
194.7944611821539
 20
365.3916620570969
 30
0.0
 41
1.0
 10
194.7664542812959
 20
365.2293505107409
 30
0.0
 41
1.0
 10
194.7569877814221
 20
365.173988552067
 30
0.0
 41
1.0
 10
194.7390895389125
 20
365.0726724515443
 30
0.0
 41
1.0
 10
194.7301372300748
 20
365.0219408799949
 30
0.0
 41
1.0
 10
194.7032710556339
 20
364.8695247353582
 30
0.0
 41
1.0
 10
194.6853479400696
 20
364.7676187313575
 30
0.0
 41
1.0
 10
194.6315441835484
 20
364.4610081042084
 30
0.0
 41
1.0
 10
194.5956291041158
 20
364.2554108484878
 30
0.0
 41
1.0
 10
194.2720455525313
 20
362.3941604206137
 30
0.0
 41
1.0
 10
193.981915145216
 20
360.6622460910722
 30
0.0
 41
1.0
 10
193.6753272345571
 20
358.7307936003944
 30
0.0
 41
1.0
 10
193.6572988248163
 20
358.6168436995248
 30
0.0
 41
1.0
 10
193.6302669376535
 20
358.4454135546468
 30
0.0
 41
1.0
 10
193.621258096399
 20
358.3881859579613
 30
0.0
 41
1.0
 10
193.6077476984334
 20
358.3022179050275
 30
0.0
 41
1.0
 10
193.6032447097588
 20
358.2735407777708
 30
0.0
 41
1.0
 10
193.5942397172865
 20
358.2161442485474
 30
0.0
 41
1.0
 10
193.5899604617701
 20
358.1897792056972
 30
0.0
 41
1.0
 10
193.5514347420631
 20
357.9521745067262
 30
0.0
 41
1.0
 10
193.517216544329
 20
357.7398273327956
 30
0.0
 41
1.0
 10
193.4146643961315
 20
357.0993379693601
 30
0.0
 41
1.0
 10
193.3464330557457
 20
356.667747307997
 30
0.0
 41
1.0
 10
193.2613852218656
 20
356.1224580645829
 30
0.0
 41
1.0
 10
193.2443877093733
 20
356.0131102191722
 30
0.0
 41
1.0
 10
193.2104184999795
 20
355.7938333913667
 30
0.0
 41
1.0
 10
193.1936700677445
 20
355.6863929211404
 30
0.0
 41
1.0
 10
193.1436569361351
 20
355.3654220603177
 30
0.0
 41
1.0
 10
193.1103670359545
 20
355.1503402384369
 30
0.0
 41
1.0
 10
193.0605199309206
 20
354.82605911622
 30
0.0
 41
1.0
 10
193.0437107501664
 20
354.7153013476878
 30
0.0
 41
1.0
 10
193.0112144977069
 20
354.5057490249558
 30
0.0
 41
1.0
 10
192.9949812099663
 20
354.4007177329227
 30
0.0
 41
1.0
 10
192.9463279234927
 20
354.0848558086012
 30
0.0
 41
1.0
 10
192.9138970966483
 20
353.8732650030939
 30
0.0
 41
1.0
 10
192.8163887899703
 20
353.2354566597754
 30
0.0
 41
1.0
 10
192.751195275169
 20
352.8061890989652
 30
0.0
 41
1.0
 10
192.6531776923858
 20
352.1561184749696
 30
0.0
 41
1.0
 10
192.6204672609633
 20
351.9384001531467
 30
0.0
 41
1.0
 10
192.5713514096273
 20
351.6102718795306
 30
0.0
 41
1.0
 10
192.5549710904582
 20
351.5006373296339
 30
0.0
 41
1.0
 10
192.5303888781055
 20
351.335796797684
 30
0.0
 41
1.0
 10
192.5221928516119
 20
351.2807851695965
 30
0.0
 41
1.0
 10
192.5057970227674
 20
351.1706321802815
 30
0.0
 41
1.0
 10
192.4975170789953
 20
351.1144918153934
 30
0.0
 41
1.0
 10
192.363440707621
 20
350.2425139149802
 30
0.0
 41
1.0
 10
192.2368058017326
 20
349.4091045534858
 30
0.0
 41
1.0
 10
191.982999851646
 20
347.7148369700902
 30
0.0
 41
1.0
 10
191.855828698413
 20
346.8539792492696
 30
0.0
 41
1.0
 10
191.664921632385
 20
345.5405308790466
 30
0.0
 41
1.0
 10
191.6012607516435
 20
345.0990202881943
 30
0.0
 41
1.0
 10
191.505762086693
 20
344.4310077880484
 30
0.0
 41
1.0
 10
191.4739279682793
 20
344.207379128527
 30
0.0
 41
1.0
 10
191.4381160180138
 20
343.9546997273865
 30
0.0
 41
1.0
 10
191.4341369323088
 20
343.9266089997478
 30
0.0
 41
1.0
 10
191.4261788104023
 20
343.8703969986113
 30
0.0
 41
1.0
 10
191.4224148475542
 20
343.8454103572702
 30
0.0
 41
1.0
 10
191.4108228146445
 20
343.7660414952294
 30
0.0
 41
1.0
 10
191.4030952017878
 20
343.7130835574947
 30
0.0
 41
1.0
 10
191.3799136575851
 20
343.5540723574806
 30
0.0
 41
1.0
 10
191.3644610204331
 20
343.4478817114972
 30
0.0
 41
1.0
 10
191.2872073621184
 20
342.9159951031709
 30
0.0
 41
1.0
 10
191.2254348851074
 20
342.4874999809011
 30
0.0
 41
1.0
 10
191.1328394787838
 20
341.8399312537197
 30
0.0
 41
1.0
 10
191.1019849022449
 20
341.6232704760071
 30
0.0
 41
1.0
 10
191.0634317874345
 20
341.3514011842526
 30
0.0
 41
1.0
 10
191.0559604915121
 20
341.3006388551842
 30
0.0
 41
1.0
 10
191.0408096605001
 20
341.1958062286777
 30
0.0
 41
1.0
 10
191.0332354844929
 20
341.1433509600512
 30
0.0
 41
1.0
 10
191.0105167427726
 20
340.9858669925707
 30
0.0
 41
1.0
 10
190.995375963014
 20
340.8807201349311
 30
0.0
 41
1.0
 10
190.859156033932
 20
339.9329491221652
 30
0.0
 41
1.0
 10
190.7384047887722
 20
339.0801955918203
 30
0.0
 41
1.0
 10
190.5579359949829
 20
337.7827941683543
 30
0.0
 41
1.0
 10
190.4978897368145
 20
337.3472788513105
 30
0.0
 41
1.0
 10
190.4229885922783
 20
336.7987553292372
 30
0.0
 41
1.0
 10
190.4079427271217
 20
336.6876031278817
 30
0.0
 41
1.0
 10
190.378548416113
 20
336.4763496893951
 30
0.0
 41
1.0
 10
190.3638611558825
 20
336.3705683991971
 30
0.0
 41
1.0
 10
190.3198299313991
 20
336.0527513533001
 30
0.0
 41
1.0
 10
190.2905165164003
 20
335.8402424677219
 30
0.0
 41
1.0
 10
190.2027056680703
 20
335.2007459382786
 30
0.0
 41
1.0
 10
190.1443375234903
 20
334.7717891713627
 30
0.0
 41
1.0
 10
190.0570745969936
 20
334.1240929515736
 30
0.0
 41
1.0
 10
190.0280351968612
 20
333.9074838478613
 30
0.0
 41
1.0
 10
189.984552535665
 20
333.5814626372173
 30
0.0
 41
1.0
 10
189.9700710567773
 20
333.4726042958827
 30
0.0
 41
1.0
 10
189.9411342825356
 20
333.2545112572695
 30
0.0
 41
1.0
 10
189.9269215490104
 20
333.1495908428922
 30
0.0
 41
1.0
 10
189.7988116414579
 20
332.198187283874
 30
0.0
 41
1.0
 10
189.6858675210507
 20
331.3427696534379
 30
0.0
 41
1.0
 10
189.546121222017
 20
330.2594888941525
 30
0.0
 41
1.0
 10
189.5182437922487
 20
330.0421314962015
 30
0.0
 41
1.0
 10
189.4765408626076
 20
329.7150063456701
 30
0.0
 41
1.0
 10
189.4626587569984
 20
329.6057831094105
 30
0.0
 41
1.0
 10
189.4349332201922
 20
329.3869672738157
 30
0.0
 41
1.0
 10
189.4214023215851
 20
329.2832780447471
 30
0.0
 41
1.0
 10
189.3533315831317
 20
328.7542902260112
 30
0.0
 41
1.0
 10
189.2992034214557
 20
328.3286163906555
 30
0.0
 41
1.0
 10
189.1916724741415
 20
327.4720235978504
 30
0.0
 41
1.0
 10
189.1382696910255
 20
327.041104656135
 30
0.0
 41
1.0
 10
189.0587633076836
 20
326.3905725088813
 30
0.0
 41
1.0
 10
189.0323608364459
 20
326.1730360500234
 30
0.0
 41
1.0
 10
188.9929135515443
 20
325.8456641560292
 30
0.0
 41
1.0
 10
188.9797905283022
 20
325.7363623160519
 30
0.0
 41
1.0
 10
188.9535977995576
 20
325.5173980267454
 30
0.0
 41
1.0
 10
188.9404432183417
 20
325.4060339945755
 30
0.0
 41
1.0
 10
188.8246690565795
 20
324.4496345537653
 30
0.0
 41
1.0
 10
188.7235079984274
 20
323.5889788413213
 30
0.0
 41
1.0
 10
188.6120514361153
 20
322.60806728385
 30
0.0
 41
1.0
 10
188.5997000319704
 20
322.4989009899456
 30
0.0
 41
1.0
 10
188.5812229384141
 20
322.3348850684181
 30
0.0
 41
1.0
 10
188.575085081289
 20
322.2804346558729
 30
0.0
 41
1.0
 10
188.5630490635012
 20
322.1761064129701
 30
0.0
 41
1.0
 10
188.557025562941
 20
322.1238996884207
 30
0.0
 41
1.0
 10
188.5268748318076
 20
321.8626535137108
 30
0.0
 41
1.0
 10
188.502654674978
 20
321.6529756338339
 30
0.0
 41
1.0
 10
188.4297199732048
 20
321.0218885686506
 30
0.0
 41
1.0
 10
188.3807310041472
 20
320.5984260329252
 30
0.0
 41
1.0
 10
188.2328693089206
 20
319.3197374806232
 30
0.0
 41
1.0
 10
188.1330987315832
 20
318.4562118063776
 30
0.0
 41
1.0
 10
187.9825149198187
 20
317.143951168708
 30
0.0
 41
1.0
 10
187.9321664312073
 20
316.7037019516303
 30
0.0
 41
1.0
 10
187.8565278534964
 20
316.0390351613045
 30
0.0
 41
1.0
 10
187.8312957316332
 20
315.8167640496404
 30
0.0
 41
1.0
 10
187.7934334199861
 20
315.4822777374953
 30
0.0
 41
1.0
 10
187.7808102971394
 20
315.3706023580385
 30
0.0
 41
1.0
 10
187.7618739536102
 20
315.2028185670754
 30
0.0
 41
1.0
 10
187.7557447205758
 20
315.1510721982876
 30
0.0
 41
1.0
 10
187.7433438424293
 20
315.0442264749187
 30
0.0
 41
1.0
 10
187.7371429537927
 20
314.9907572823663
 30
0.0
 41
1.0
 10
187.6813323030526
 20
314.5091166761213
 30
0.0
 41
1.0
 10
187.6317037906468
 20
314.0780202939189
 30
0.0
 41
1.0
 10
187.557353100619
 20
313.4268407548484
 30
0.0
 41
1.0
 10
187.5325849172365
 20
313.2090250534642
 30
0.0
 41
1.0
 10
187.4954710721706
 20
312.881157735175
 30
0.0
 41
1.0
 10
187.4831061974403
 20
312.7716779995984
 30
0.0
 41
1.0
 10
187.4645704312923
 20
312.6071711880194
 30
0.0
 41
1.0
 10
187.4583446981785
 20
312.5511057221093
 30
0.0
 41
1.0
 10
187.4461576460016
 20
312.4451467671586
 30
0.0
 41
1.0
 10
187.4400660185642
 20
312.3921200008534
 30
0.0
 41
1.0
 10
187.3365433123578
 20
311.4898581189552
 30
0.0
 41
1.0
 10
187.2396350120705
 20
310.6285245656422
 30
0.0
 41
1.0
 10
187.0960458974375
 20
309.3171997284836
 30
0.0
 41
1.0
 10
187.0484787203286
 20
308.8768698765053
 30
0.0
 41
1.0
 10
186.9894939270302
 20
308.3223089566205
 30
0.0
 41
1.0
 10
186.9778836149047
 20
308.2154156600569
 30
0.0
 41
1.0
 10
186.9546701053231
 20
308.0001606590622
 30
0.0
 41
1.0
 10
186.9430878247571
 20
307.8923336522429
 30
0.0
 41
1.0
 10
186.9084181378147
 20
307.5682458916088
 30
0.0
 41
1.0
 10
186.8854078859201
 20
307.3513784250295
 30
0.0
 41
1.0
 10
186.7709207979315
 20
306.262885061475
 30
0.0
 41
1.0
 10
186.6817487535796
 20
305.395093031576
 30
0.0
 41
1.0
 10
186.5522231792879
 20
304.0898746264688
 30
0.0
 41
1.0
 10
186.5097695194646
 20
303.6546495265885
 30
0.0
 41
1.0
 10
186.4472816670777
 20
303.0015894633688
 30
0.0
 41
1.0
 10
186.4266510711824
 20
302.7838640440319
 30
0.0
 41
1.0
 10
186.3960167714241
 20
302.4572191133335
 30
0.0
 41
1.0
 10
186.3858572603643
 20
302.3483277610391
 30
0.0
 41
1.0
 10
186.37069755749
 20
302.18497636819
 30
0.0
 41
1.0
 10
186.3656575826031
 20
302.130523477297
 30
0.0
 41
1.0
 10
186.3556044303809
 20
302.021612878574
 30
0.0
 41
1.0
 10
186.350630886527
 20
301.968338207079
 30
0.0
 41
1.0
 10
186.340552336602
 20
301.8570518239403
 30
0.0
 41
1.0
 10
186.3355248541437
 20
301.8013492999954
 30
0.0
 41
1.0
 10
186.3254937609087
 20
301.6898244513454
 30
0.0
 41
1.0
 10
186.3204526274172
 20
301.6328698489652
 30
0.0
 41
1.0
 10
186.3058005230612
 20
301.4749367665697
 30
0.0
 41
1.0
 10
186.2960818776738
 20
301.3694925483533
 30
0.0
 41
1.0
 10
186.2670772617338
 20
301.0526761854419
 30
0.0
 41
1.0
 10
186.2479426123614
 20
300.8408203909437
 30
0.0
 41
1.0
 10
186.1911682829524
 20
300.2031785350179
 30
0.0
 41
1.0
 10
186.1541582248736
 20
299.7753189722926
 30
0.0
 41
1.0
 10
186.0819466206318
 20
298.913301441251
 30
0.0
 41
1.0
 10
186.047055137569
 20
298.4791185779191
 30
0.0
 41
1.0
 10
185.97699773011
 20
297.6038333146812
 30
0.0
 41
1.0
 10
185.9419563455339
 20
297.162720024131
 30
0.0
 41
1.0
 10
185.87192516504
 20
296.2727118700357
 30
0.0
 41
1.0
 10
185.8369353732622
 20
295.8238170884594
 30
0.0
 41
1.0
 10
185.7932794167271
 20
295.2572872883946
 30
0.0
 41
1.0
 10
185.7844481322145
 20
295.1399149947672
 30
0.0
 41
1.0
 10
185.767430399597
 20
294.9277418804676
 30
0.0
 41
1.0
 10
185.7589288264278
 20
294.8215551434063
 30
0.0
 41
1.0
 10
185.7334471004758
 20
294.5026644197845
 30
0.0
 41
1.0
 10
185.716489936266
 20
294.2896300222521
 30
0.0
 41
1.0
 10
185.6318724732318
 20
293.2218495021684
 30
0.0
 41
1.0
 10
185.5647158541087
 20
292.3593118049509
 30
0.0
 41
1.0
 10
185.4318854516009
 20
290.6066929195431
 30
0.0
 41
1.0
 10
185.3662116092223
 20
289.7166158293238
 30
0.0
 41
1.0
 10
185.2974571539787
 20
288.7499844374545
 30
0.0
 41
1.0
 10
185.2935236452838
 20
288.6979230640088
 30
0.0
 41
1.0
 10
185.2855979677611
 20
288.59068502079
 30
0.0
 41
1.0
 10
185.2816398738086
 20
288.5370516551536
 30
0.0
 41
1.0
 10
185.2697798867916
 20
288.3761026551307
 30
0.0
 41
1.0
 10
185.2618922878562
 20
288.2687381278052
 30
0.0
 41
1.0
 10
185.2382871692888
 20
287.9464016498443
 30
0.0
 41
1.0
 10
185.2226273195386
 20
287.7311869622259
 30
0.0
 41
1.0
 10
185.1758827766689
 20
287.08418764709
 30
0.0
 41
1.0
 10
185.1450329457473
 20
286.6510504012082
 30
0.0
 41
1.0
 10
185.0839861145547
 20
285.7790566319439
 30
0.0
 41
1.0
 10
185.0537891055226
 20
285.3402002920333
 30
0.0
 41
1.0
 10
185.0090065650718
 20
284.675978840199
 30
0.0
 41
1.0
 10
184.9941645845623
 20
284.4535815077476
 30
0.0
 41
1.0
 10
184.9720331810161
 20
284.1182878189124
 30
0.0
 41
1.0
 10
184.9646779768821
 20
284.0062402618986
 30
0.0
 41
1.0
 10
184.9536784972984
 20
283.8377174611826
 30
0.0
 41
1.0
 10
184.9500175586654
 20
283.7814679472273
 30
0.0
 41
1.0
 10
184.9427068644144
 20
283.6688138933034
 30
0.0
 41
1.0
 10
184.9391199308422
 20
283.6159503822067
 30
0.0
 41
1.0
 10
184.9210775490894
 20
283.3436836715571
 30
0.0
 41
1.0
 10
184.9067417903098
 20
283.12529166083
 30
0.0
 41
1.0
 10
184.8853887077414
 20
282.7966825928001
 30
0.0
 41
1.0
 10
184.8782897559781
 20
282.6865823003135
 30
0.0
 41
1.0
 10
184.8642960185691
 20
282.4751560468778
 30
0.0
 41
1.0
 10
184.857320750598
 20
282.3690965113342
 30
0.0
 41
1.0
 10
184.8225575316208
 20
281.8371848949752
 30
0.0
 41
1.0
 10
184.795109396335
 20
281.4064864529703
 30
0.0
 41
1.0
 10
184.714037864165
 20
280.1035254581148
 30
0.0
 41
1.0
 10
184.6616923689878
 20
279.2203304908707
 30
0.0
 41
1.0
 10
184.5863715116808
 20
277.8933989795718
 30
0.0
 41
1.0
 10
184.5617961444617
 20
277.4507482843125
 30
0.0
 41
1.0
 10
184.5317998422666
 20
276.8991880706268
 30
0.0
 41
1.0
 10
184.5258296216394
 20
276.788401878229
 30
0.0
 41
1.0
 10
184.5140407412121
 20
276.5731720361046
 30
0.0
 41
1.0
 10
184.5081836357678
 20
276.4654038821601
 30
0.0
 41
1.0
 10
184.490623895513
 20
276.1416779735687
 30
0.0
 41
1.0
 10
184.4789592215471
 20
275.9252969568503
 30
0.0
 41
1.0
 10
184.4208517090828
 20
274.8410025074431
 30
0.0
 41
1.0
 10
184.3750532813194
 20
273.9658842618272
 30
0.0
 41
1.0
 10
184.285041419812
 20
272.2118476880445
 30
0.0
 41
1.0
 10
184.2408407563428
 20
271.3348872593096
 30
0.0
 41
1.0
 10
184.1815154372765
 20
270.1292421775049
 30
0.0
 41
1.0
 10
184.1656224886073
 20
269.8043393748484
 30
0.0
 41
1.0
 10
184.14984823705
 20
269.4801319458997
 30
0.0
 41
1.0
  0
SPLINE
  5
C7
330
AB
100
AcDbEntity
  8
$DDT_AUDIT_GENERATED_(68)
  6
Continuous
 62
     7
100
AcDbSpline
210
0.0
220
0.0
230
1.0
 70
     8
 71
     3
 72
    16
 73
    12
 74
     0
 42
0.0000000004844653
 43
0.0000000001
 40
0.0
 40
0.0
 40
0.0
 40
0.0
 40
0.1249999999999997
 40
0.1249999999999997
 40
0.2499999999999993
 40
0.2499999999999993
 40
0.4999999999999996
 40
0.4999999999999996
 40
0.7499999999999998
 40
0.7499999999999998
 40
1.0
 40
1.0
 40
1.0
 40
1.0
 10
185.6267946552424
 20
267.9549573000295
 30
0.0
 10
185.8236059486718
 20
267.9549858630972
 30
0.0
 10
186.1654610349128
 20
267.9550666000168
 30
0.0
 10
187.1312248230226
 20
267.9553295317043
 30
0.0
 10
187.7544359598154
 20
267.9555119482783
 30
0.0
 10
189.948467138613
 20
267.956183337587
 30
0.0
 10
191.8925666058204
 20
267.9568121661018
 30
0.0
 10
196.1226401895213
 20
267.9582318236668
 30
0.0
 10
198.4089800754061
 20
267.9590223105804
 30
0.0
 10
202.7182474230108
 20
267.9605556650206
 30
0.0
 10
204.7054706932427
 20
267.9612857203917
 30
0.0
 10
206.2681060765184
 20
267.9618852313468
 30
0.0
  0
LINE
  5
C8
330
AB
100
AcDbEntity
  8
$DDT_AUDIT_GENERATED_(68)
  6
Continuous
 62
     7
100
AcDbLine
 10
211.8163812164
 20
279.6588674789
 30
0.0
 11
211.7579974813
 21
269.4620607001
 31
0.0
  0
SPLINE
  5
C9
330
AB
100
AcDbEntity
  8
$DDT_AUDIT_GENERATED_(68)
  6
Continuous
 62
     7
100
AcDbSpline
210
0.0
220
0.0
230
1.0
 70
     8
 71
     3
 72
     8
 73
     4
 74
     0
 42
0.0000000020183495
 43
0.0000000001
 40
0.0
 40
0.0
 40
0.0
 40
0.0
 40
1.0
 40
1.0
 40
1.0
 40
1.0
 10
273.3000211397626
 20
498.0115958737968
 30
0.0
 10
273.2276957050275
 20
499.4412429187237
 30
0.0
 10
272.9701696762218
 20
501.0677343021268
 30
0.0
 10
272.5274430533456
 20
502.8910700240059
 30
0.0
  0
ARC
  5
CA
330
AB
100
AcDbEntity
  8
$DDT_AUDIT_GENERATED_(68)
  6
Continuous
 62
     7
100
AcDbCircle
 10
210.2690641757
 20
269.4303271217
 30
0.0
 40
1.465669324244881
100
AcDbArc
 50
275.9404528758
 51
320.0453791908
  0
ARC
  5
CB
330
AB
100
AcDbEntity
  8
$DDT_AUDIT_GENERATED_(68)
  6
Continuous
 62
     7
100
AcDbCircle
 10
273.0362047424
 20
498.0047440669
 30
0.0
 40
0.2999999999999856
100
AcDbArc
 50
330.0
 51
5.380553555
  0
LINE
  5
CC
330
AB
100
AcDbEntity
  8
$DDT_AUDIT_GENERATED_(68)
  6
Continuous
 62
     7
100
AcDbLine
 10
236.0807262762
 20
433.3959777454
 30
0.0
 11
273.2960123636
 21
497.8547440669
 31
0.0
  0
ARC
  5
CD
330
AB
100
AcDbEntity
  8
$DDT_AUDIT_GENERATED_(68)
  6
Continuous
 62
     7
100
AcDbCircle
 10
365.9420864796
 20
354.1278588522
 30
0.0
 40
152.0993897940321
100
AcDbArc
 50
148.5967361962
 51
150.5344806929
  0
ARC
  5
CE
330
AB
100
AcDbEntity
  8
$DDT_AUDIT_GENERATED_(68)
  6
Continuous
 62
     7
100
AcDbCircle
 10
290.4574346132
 20
382.1189684064
 30
0.0
 40
72.70685959238394
100
AcDbArc
 50
149.5442005087
 51
151.6893353138
  0
ARC
  5
CF
330
AB
100
AcDbEntity
  8
$DDT_AUDIT_GENERATED_(68)
  6
Continuous
 62
     7
100
AcDbCircle
 10
186.1953968203
 20
439.094382893
 30
0.0
 40
46.06215348897421
100
AcDbArc
 50
329.8191905083
 51
330.7949034066
  0
ARC
  5
D0
330
AB
100
AcDbEntity
  8
$DDT_AUDIT_GENERATED_(68)
  6
Continuous
 62
     7
100
AcDbCircle
 10
210.2690641757
 20
269.4303271216
 30
0.0
 40
1.465669324216726
100
AcDbArc
 50
275.9404528748
 51
320.0453791907
  0
LINE
  5
D1
330
AB
100
AcDbEntity
  8
$DDT_AUDIT_GENERATED_(7E)
  6
Continuous
 62
     7
100
AcDbLine
 10
187.2739904602
 20
265.7570609001
 30
0.0
 11
192.7377088286
 21
265.7570609001
 31
0.0
  0
LINE
  5
D2
330
AB
100
AcDbEntity
  8
$DDT_AUDIT_GENERATED_(7E)
  6
Continuous
 62
     7
100
AcDbLine
 10
202.7652720919
 20
265.7570609001
 30
0.0
 11
208.2289904602
 21
265.7570609001
 31
0.0
  0
LINE
  5
D3
330
AB
100
AcDbEntity
  8
$DDT_AUDIT_GENERATED_(7E)
  6
Continuous
 62
     7
100
AcDbLine
 10
187.2739904602
 20
259.9345609001
 30
0.0
 11
192.7377088286
 21
259.9345609001
 31
0.0
  0
LINE
  5
D4
330
AB
100
AcDbEntity
  8
$DDT_AUDIT_GENERATED_(7E)
  6
Continuous
 62
     7
100
AcDbLine
 10
202.7652720919
 20
259.9345609001
 30
0.0
 11
208.2289904602
 21
259.9345609001
 31
0.0
  0
LINE
  5
D5
330
AB
100
AcDbEntity
  8
$DDT_AUDIT_GENERATED_(7E)
  6
Continuous
 62
     7
100
AcDbLine
 10
206.9514904602
 20
258.6570609001
 30
0.0
 11
188.5514904602
 21
258.6570609001
 31
0.0
  0
LINE
  5
D6
330
AB
100
AcDbEntity
  8
$DDT_AUDIT_GENERATED_(7E)
  6
Continuous
 62
     7
100
AcDbLine
 10
206.9514904602
 20
257.4570609001
 30
0.0
 11
188.5514904602
 21
257.4570609001
 31
0.0
  0
LINE
  5
D7
330
AB
100
AcDbEntity
  8
$DDT_AUDIT_GENERATED_(7E)
  6
Continuous
 62
     7
100
AcDbLine
 10
207.7824096102
 20
267.4570609001
 30
0.0
 11
186.5014904602
 21
267.4570609001
 31
0.0
  0
LINE
  5
D8
330
AB
100
AcDbEntity
  8
$DDT_AUDIT_GENERATED_(7E)
  6
Continuous
 62
     7
100
AcDbLine
 10
207.8879180588
 20
267.4570609001
 30
0.0
 11
207.7824096102
 21
267.4570609001
 31
0.0
  0
LINE
  5
D9
330
AB
100
AcDbEntity
  8
$DDT_AUDIT_GENERATED_(7E)
  6
Continuous
 62
     7
100
AcDbLine
 10
208.8221980082
 20
267.4570609001
 30
0.0
 11
207.8879180588
 21
267.4570609001
 31
0.0
  0
LINE
  5
DA
330
AB
100
AcDbEntity
  8
$DDT_AUDIT_GENERATED_(7E)
  6
Continuous
 62
     7
100
AcDbLine
 10
208.9693333901
 20
267.4570609001
 30
0.0
 11
208.8221980082
 21
267.4570609001
 31
0.0
  0
SPLINE
  5
DB
330
AB
100
AcDbEntity
  8
$DDT_AUDIT_GENERATED_(7E)
  6
Continuous
 62
     7
100
AcDbSpline
210
0.0
220
0.0
230
1.0
 70
     8
 71
     3
 72
    10
 73
     6
 74
     0
 42
0.0000000124002373
 43
0.0000000001
 40
0.0
 40
0.0
 40
0.0
 40
0.0
 40
0.5
 40
0.5
 40
1.0
 40
1.0
 40
1.0
 40
1.0
 10
209.4707054510082
 20
267.9570609000643
 30
0.0
 10
209.4707054510082
 20
267.8248223413968
 30
0.0
 10
209.4162281602765
 20
267.6955544070596
 30
0.0
 10
209.231264660617
 20
267.5112156402861
 30
0.0
 10
209.1015617378802
 20
267.4570609000643
 30
0.0
 10
208.9693333901376
 20
267.4570609000643
 30
0.0
  0
LINE
  5
DC
330
AB
100
AcDbEntity
  8
$DDT_AUDIT_GENERATED_(7E)
  6
Continuous
 62
     7
100
AcDbLine
 10
192.7377088286
 20
265.7570609001
 30
0.0
 11
192.7377088286
 21
259.9345609001
 31
0.0
  0
LINE
  5
DD
330
AB
100
AcDbEntity
  8
$DDT_AUDIT_GENERATED_(7E)
  6
Continuous
 62
     7
100
AcDbLine
 10
192.7377088286
 20
265.7570609001
 30
0.0
 11
195.0092286201
 21
265.7570609001
 31
0.0
  0
SPLINE
  5
DE
330
AB
100
AcDbEntity
  8
$DDT_AUDIT_GENERATED_(7E)
  6
Continuous
 62
     7
100
AcDbSpline
210
0.0
220
0.0
230
1.0
 70
     8
 71
     3
 72
    12
 73
     8
 74
     0
 42
0.0000000019142486
 43
0.0000000001
 40
0.0
 40
0.0
 40
0.0
 40
0.0
 40
0.5
 40
0.5
 40
0.75
 40
0.75
 40
1.0
 40
1.0
 40
1.0
 40
1.0
 10
202.7652720918963
 20
259.9345609000644
 30
0.0
 10
201.9756374806136
 20
259.5566982887759
 30
0.0
 10
201.1681090028155
 20
259.238137847886
 30
0.0
 10
199.9179923829132
 20
258.9001947326116
 30
0.0
 10
199.4946418002343
 20
258.8110015137734
 30
0.0
 10
198.6319036172065
 20
258.6892196799824
 30
0.0
 10
198.1887230515627
 20
258.6570609000643
 30
0.0
 10
197.7514904602334
 20
258.6570609000643
 30
0.0
  0
SPLINE
  5
DF
330
AB
100
AcDbEntity
  8
$DDT_AUDIT_GENERATED_(7E)
  6
Continuous
 62
     7
100
AcDbSpline
210
0.0
220
0.0
230
1.0
 70
     8
 71
     3
 72
    12
 73
     8
 74
     0
 42
0.0000000019132
 43
0.0000000001
 40
0.0
 40
0.0
 40
0.0
 40
0.0
 40
0.5
 40
0.5
 40
0.75
 40
0.75
 40
1.0
 40
1.0
 40
1.0
 40
1.0
 10
197.7514904602334
 20
258.6570609000643
 30
0.0
 10
196.8793313726564
 20
258.6570609000643
 30
0.0
 10
196.0220535963968
 20
258.7827504756405
 30
0.0
 10
194.7542671114819
 20
259.1244147960797
 30
0.0
 10
194.3374968785155
 20
259.2629174032758
 30
0.0
 10
193.5256907007367
 20
259.5742172788561
 30
0.0
 10
193.1284030502173
 20
259.7476026073334
 30
0.0
 10
192.7377088285706
 20
259.9345609000644
 30
0.0
  0
LINE
  5
E0
330
AB
100
AcDbEntity
  8
$DDT_AUDIT_GENERATED_(7E)
  6
Continuous
 62
     7
100
AcDbLine
 10
202.7652720919
 20
265.7570609001
 30
0.0
 11
202.7652720919
 21
259.9345609001
 31
0.0
  0
LINE
  5
E1
330
AB
100
AcDbEntity
  8
$DDT_AUDIT_GENERATED_(7E)
  6
Continuous
 62
     7
100
AcDbLine
 10
195.0092286201
 20
265.7570609001
 30
0.0
 11
200.4937523004
 21
265.7570609001
 31
0.0
  0
LINE
  5
E2
330
AB
100
AcDbEntity
  8
$DDT_AUDIT_GENERATED_(7E)
  6
Continuous
 62
     7
100
AcDbLine
 10
200.4937523004
 20
265.7570609001
 30
0.0
 11
202.7652720919
 21
265.7570609001
 31
0.0
  0
LINE
  5
E3
330
AB
100
AcDbEntity
  8
$DDT_AUDIT_GENERATED_(7E)
  6
Continuous
 62
     7
100
AcDbLine
 10
206.8514904602
 20
266.2570609001
 30
0.0
 11
206.8514904602
 21
266.9570609001
 31
0.0
  0
LINE
  5
E4
330
AB
100
AcDbEntity
  8
$DDT_AUDIT_GENERATED_(7E)
  6
Continuous
 62
     7
100
AcDbLine
 10
188.6514904602
 20
266.9570609001
 30
0.0
 11
188.6514904602
 21
266.2570609001
 31
0.0
  0
LINE
  5
E5
330
AB
100
AcDbEntity
  8
$DDT_AUDIT_GENERATED_(7E)
  6
Continuous
 62
     7
100
AcDbLine
 10
208.2289904602
 20
259.9345609001
 30
0.0
 11
208.2289904602
 21
265.7570609001
 31
0.0
  0
LINE
  5
E6
330
AB
100
AcDbEntity
  8
$DDT_AUDIT_GENERATED_(7E)
  6
Continuous
 62
     7
100
AcDbLine
 10
187.2739904602
 20
265.7570609001
 30
0.0
 11
187.2739904602
 21
259.9345609001
 31
0.0
  0
LINE
  5
E7
330
AB
100
AcDbEntity
  8
$DDT_AUDIT_GENERATED_(7E)
  6
Continuous
 62
     7
100
AcDbLine
 10
187.2739904602
 20
259.9345609001
 30
0.0
 11
188.5514904602
 21
258.6570609001
 31
0.0
  0
LINE
  5
E8
330
AB
100
AcDbEntity
  8
$DDT_AUDIT_GENERATED_(7E)
  6
Continuous
 62
     7
100
AcDbLine
 10
206.9514904602
 20
258.6570609001
 30
0.0
 11
208.2289904602
 21
259.9345609001
 31
0.0
  0
LINE
  5
E9
330
AB
100
AcDbEntity
  8
$DDT_AUDIT_GENERATED_(7E)
  6
Continuous
 62
     7
100
AcDbLine
 10
206.9514904602
 20
257.4570609001
 30
0.0
 11
206.9514904602
 21
258.6570609001
 31
0.0
  0
LINE
  5
EA
330
AB
100
AcDbEntity
  8
$DDT_AUDIT_GENERATED_(7E)
  6
Continuous
 62
     7
100
AcDbLine
 10
188.5514904602
 20
258.6570609001
 30
0.0
 11
188.5514904602
 21
257.4570609001
 31
0.0
  0
ARC
  5
EB
330
AB
100
AcDbEntity
  8
$DDT_AUDIT_GENERATED_(7E)
  6
Continuous
 62
     7
100
AcDbCircle
 10
188.1514904602
 20
266.9570609001
 30
0.0
 40
0.5000000000000004
100
AcDbArc
 50
0.0
 51
90.0
  0
ARC
  5
EC
330
AB
100
AcDbEntity
  8
$DDT_AUDIT_GENERATED_(7E)
  6
Continuous
 62
     7
100
AcDbCircle
 10
207.3514904602
 20
266.9570609001
 30
0.0
 40
0.4999999999999935
100
AcDbArc
 50
90.0
 51
180.0
  0
ARC
  5
ED
330
AB
100
AcDbEntity
  8
$DDT_AUDIT_GENERATED_(7E)
  6
Continuous
 62
     7
100
AcDbCircle
 10
207.7824096102
 20
267.9570609001
 30
0.0
 40
0.5000000000000004
100
AcDbArc
 50
270.0
 51
0.0
  0
ARC
  5
EE
330
AB
100
AcDbEntity
  8
$DDT_AUDIT_GENERATED_(7E)
  6
Continuous
 62
     7
100
AcDbCircle
 10
186.5014904602
 20
267.9570609001
 30
0.0
 40
0.5000000000000143
100
AcDbArc
 50
180.0
 51
270.0
  0
ARC
  5
EF
330
AB
100
AcDbEntity
  8
$DDT_AUDIT_GENERATED_(7E)
  6
Continuous
 62
     7
100
AcDbCircle
 10
207.3514904602
 20
266.2570609001
 30
0.0
 40
0.5000000000000004
100
AcDbArc
 50
180.0
 51
270.0
  0
ARC
  5
F0
330
AB
100
AcDbEntity
  8
$DDT_AUDIT_GENERATED_(7E)
  6
Continuous
 62
     7
100
AcDbCircle
 10
188.1514904602
 20
266.2570609001
 30
0.0
 40
0.5000000000000004
100
AcDbArc
 50
270.0
 51
0.0
  0
LINE
  5
F1
330
AB
100
AcDbEntity
  8
$DDT_AUDIT_GENERATED_(7E)
  6
Continuous
 62
     7
100
AcDbLine
 10
188.4359904602
 20
258.7725609001
 30
0.0
 11
188.4359904602
 21
265.7570609001
 31
0.0
  0
LINE
  5
F2
330
AB
100
AcDbEntity
  8
$DDT_AUDIT_GENERATED_(7E)
  6
Continuous
 62
     7
100
AcDbLine
 10
207.0669904602
 20
258.7725609001
 30
0.0
 11
207.0669904602
 21
265.7570609001
 31
0.0
  0
LINE
  5
F4
330
AB
100
AcDbEntity
  8
DV2_Standard
  6
Continuous
 62
     7
100
AcDbLine
 10
211.8772268157
 20
285.2337590575
 30
0.0
 11
211.8163812164
 21
279.6588674789
 31
0.0
  0
ARC
  5
F5
330
AB
100
AcDbEntity
  8
DV2_Standard
  6
Continuous
 62
     7
100
AcDbCircle
 10
173.0904724598
 20
495.3299412206
 30
0.0
 40
100.2990661365361
100
AcDbArc
 50
301.635368916
 51
358.8413178805
  0
LINE
  5
F6
330
AB
100
AcDbEntity
  8
DV2_Standard
  6
CENTER2
 62
     7
100
AcDbLine
 10
217.7514900132
 20
257.4570609001
 30
0.0
 11
177.7514909073
 21
257.4570609001
 31
0.0
  0
LINE
  5
F7
330
AB
100
AcDbEntity
  8
DV2_Standard
  6
CENTER2
 62
     7
100
AcDbLine
 10
197.7514904602
 20
277.457060453
 30
0.0
 11
197.7514904602
 21
237.4570613471
 31
0.0
  0
ENDBLK
  5
F9
330
AB
100
AcDbEntity
  8
0
100
AcDbBlockEnd
  0
BLOCK
  5
121
330
FA
100
AcDbEntity
  8
0
100
AcDbBlockBegin
  2
SE2
 70
     0
 10
0.0
 20
0.0
 30
0.0
  3
SE2
  1

  0
LINE
  5
FD
330
FA
100
AcDbEntity
  8
$DDT_AUDIT_GENERATED_(FC)
  6
Continuous
 62
     7
100
AcDbLine
 10
94.873817162
 20
112.4900906464
 30
0.0
 11
94.8808153338
 21
112.6636068505
 31
0.0
  0
SPLINE
  5
FE
330
FA
100
AcDbEntity
  8
$DDT_AUDIT_GENERATED_(68)
  6
Continuous
 62
     7
100
AcDbSpline
210
0.0
220
0.0
230
1.0
 70
     8
 71
     3
 72
    28
 73
    24
 74
     0
 42
0.000000000124126
 43
0.0000000001
 40
0.0
 40
0.0
 40
0.0
 40
0.0
 40
0.0209053875082014
 40
0.0416948241721573
 40
0.0624650779306887
 40
0.0937837726396069
 40
0.1247344092347094
 40
0.1874951787541823
 40
0.2492404255217714
 40
0.3114601185868114
 40
0.3740700549372717
 40
0.4364489768888039
 40
0.4994802401476985
 40
0.5626112152213699
 40
0.6252088161048248
 40
0.6877460644061995
 40
0.750200005547957
 40
0.8128477213794929
 40
0.8438994486272015
 40
0.8742104873628256
 40
0.9176566034303874
 40
0.9594815008174981
 40
1.0
 40
1.0
 40
1.0
 40
1.0
 10
63.8444486864313
 20
114.4378221370191
 30
0.0
 10
64.61982947444929
 20
114.4426034595574
 30
0.0
 10
66.166266367023
 20
114.4521395852316
 30
0.0
 10
68.47913023552528
 20
114.5307053700454
 30
0.0
 10
71.16815731820188
 20
114.6769087912278
 30
0.0
 10
74.2132221130922
 20
114.9251727243383
 30
0.0
 10
78.74338727294978
 20
115.4432832530928
 30
0.0
 10
84.24776616398638
 20
116.3470484007006
 30
0.0
 10
90.53609584267632
 20
117.8260942542426
 30
0.0
 10
96.39971565627512
 20
119.6834925481709
 30
0.0
 10
101.7650705500924
 20
121.911719101234
 30
0.0
 10
106.546442855337
 20
124.48001589196
 30
0.0
 10
110.6560680592464
 20
127.3365911522412
 30
0.0
 10
114.0218110618706
 20
130.4294914455143
 30
0.0
 10
116.5866002346997
 20
133.7045187412051
 30
0.0
 10
118.3145730987552
 20
137.1102030902528
 30
0.0
 10
119.1832156443165
 20
140.6023106193371
 30
0.0
 10
119.17744965775
 20
143.531676190805
 30
0.0
 10
118.7419198475159
 20
145.8392747259971
 30
0.0
 10
118.1383370088564
 20
147.7726890822553
 30
0.0
 10
117.1586747151396
 20
149.8704434022216
 30
0.0
 10
115.737354673152
 20
152.1010635630245
 30
0.0
 10
114.5215195680258
 20
153.5100096705488
 30
0.0
 10
113.9231336252808
 20
154.2033387849397
 30
0.0
  0
SPLINE
  5
FF
330
FA
100
AcDbEntity
  8
$DDT_AUDIT_GENERATED_(68)
  6
Continuous
 62
     7
100
AcDbSpline
210
0.0
220
0.0
230
1.0
 70
     8
 71
     3
 72
   100
 73
    96
 74
     0
 42
0.000000000222184
 43
0.0000000001
 40
0.0
 40
0.0
 40
0.0
 40
0.0
 40
0.0144120042678899
 40
0.0300844608203979
 40
0.0378603990106225
 40
0.0458009695950574
 40
0.0536636554762073
 40
0.0620300601739988
 40
0.0701014245641273
 40
0.0782924733003496
 40
0.0869134301093928
 40
0.0959433608943296
 40
0.1134654719974021
 40
0.1307885849894022
 40
0.13934790435557
 40
0.1480337735201659
 40
0.1657876630160597
 40
0.1743930091009351
 40
0.1827600631698619
 40
0.1883121141993994
 40
0.1997300993961603
 40
0.208000461337598
 40
0.2159978922960179
 40
0.2324536627623747
 40
0.2483666832557758
 40
0.2643321317741336
 40
0.2801851841076729
 40
0.2958301851473084
 40
0.3114794779675853
 40
0.3193769453169605
 40
0.3270761941599173
 40
0.3427894459957365
 40
0.3584090232431983
 40
0.365864341152996
 40
0.3734515944265041
 40
0.3891468454115682
 40
0.3972816017388603
 40
0.4048786857027257
 40
0.4199610596166403
 40
0.4325086564299005
 40
0.442210330679695
 40
0.4440871377618399
 40
0.4475995997520665
 40
0.4515500204055466
 40
0.4670751099838258
 40
0.4823844011199026
 40
0.4912273114671914
 40
0.4997468478571607
 40
0.5128028170719656
 40
0.5284777340149333
 40
0.5363819307787969
 40
0.5440445546583659
 40
0.5528266098484718
 40
0.5615037783282275
 40
0.5747494867483434
 40
0.5806980690612318
 40
0.5864971159309517
 40
0.5952906786721899
 40
0.6035245281371864
 40
0.6116649408085708
 40
0.624061237918527
 40
0.6301616068641614
 40
0.6362784990898313
 40
0.6517780760253681
 40
0.6555925731449115
 40
0.659428499892798
 40
0.6671659839420448
 40
0.6977229820850828
 40
0.7135203851158249
 40
0.7290100391088695
 40
0.7444135459067759
 40
0.7600724441337315
 40
0.7911694810424232
 40
0.7989828357190344
 40
0.8008787964479217
 40
0.8027652084021961
 40
0.8065533558159166
 40
0.8141959247926052
 40
0.8219378306514451
 40
0.837790153906215
 40
0.853156202764349
 40
0.8687452939914642
 40
0.8767308406925269
 40
0.8797883567465051
 40
0.8812451887953848
 40
0.8845326448447189
 40
0.9048640182671062
 40
0.9100698906447837
 40
0.9151839630022539
 40
0.9209135745646893
 40
0.9252043907539544
 40
0.9405052352990071
 40
0.9559146716771125
 40
0.9826389529941859
 40
1.0
 40
1.0
 40
1.0
 40
1.0
 10
98.30521781104362
 20
165.8256089481777
 30
0.0
 10
97.75669460315886
 20
166.1723949405442
 30
0.0
 10
96.61162860365498
 20
166.896309756594
 30
0.0
 10
95.15066575357442
 20
167.8326616319739
 30
0.0
 10
93.95360981285293
 20
168.6150268203762
 30
0.0
 10
93.06452394664443
 20
169.2045334054929
 30
0.0
 10
92.164730963474
 20
169.809416508066
 30
0.0
 10
91.26901498995552
 20
170.4185250691289
 30
0.0
 10
90.36447948444281
 20
171.038441568641
 30
0.0
 10
89.4606973346542
 20
171.664209756552
 30
0.0
 10
88.54384023507919
 20
172.3088165128983
 30
0.0
 10
87.34897189267905
 20
173.1694556167264
 30
0.0
 10
85.99149715385428
 20
174.1976358614829
 30
0.0
 10
84.82773756390814
 20
175.1549611178891
 30
0.0
 10
83.97474388015928
 20
175.901201140739
 30
0.0
 10
83.18020394327719
 20
176.6360517666603
 30
0.0
 10
82.46472523237358
 20
177.3534848290913
 30
0.0
 10
81.85959519827287
 20
178.0259331489819
 30
0.0
 10
81.51467487999398
 20
178.441203994958
 30
0.0
 10
81.16105521577741
 20
178.8927726819734
 30
0.0
 10
80.85072404284736
 20
179.3220610399273
 30
0.0
 10
80.54833541050573
 20
179.7726956685977
 30
0.0
 10
80.22302824225659
 20
180.2868280203753
 30
0.0
 10
79.89743358783669
 20
180.8719285580726
 30
0.0
 10
79.58091998500565
 20
181.5154939465791
 30
0.0
 10
79.34282465615436
 20
182.0872285622595
 30
0.0
 10
79.15289873195611
 20
182.610063609666
 30
0.0
 10
78.99296524430521
 20
183.0990686338465
 30
0.0
 10
78.87514819304984
 20
183.4870831104552
 30
0.0
 10
78.77890892012856
 20
183.7933941104835
 30
0.0
 10
78.67548064393397
 20
184.1023616911121
 30
0.0
 10
78.54584386615551
 20
184.4801040019742
 30
0.0
 10
78.40925533768484
 20
184.8494384654393
 30
0.0
 10
78.28640013835751
 20
185.1459944894529
 30
0.0
 10
78.16351389529015
 20
185.437987285808
 30
0.0
 10
78.03376023766143
 20
185.7318071092795
 30
0.0
 10
77.90866390612005
 20
186.0140851775556
 30
0.0
 10
77.76875690096897
 20
186.2996812728296
 30
0.0
 10
77.60408727325802
 20
186.6215962233244
 30
0.0
 10
77.43470225017609
 20
186.9487702835336
 30
0.0
 10
77.32618860140576
 20
187.1546523708768
 30
0.0
 10
77.26083297159438
 20
187.2800572105843
 30
0.0
 10
77.21581044399807
 20
187.3606964024967
 30
0.0
 10
77.108382993718
 20
187.55515492372
 30
0.0
 10
76.94983758138126
 20
187.8409059451227
 30
0.0
 10
76.76130251778551
 20
188.1632600462612
 30
0.0
 10
76.60718783770865
 20
188.4223957571203
 30
0.0
 10
76.44934291818505
 20
188.6701856012043
 30
0.0
 10
76.26038473924434
 20
188.9651303507726
 30
0.0
 10
76.07468299961366
 20
189.2485185233441
 30
0.0
 10
75.91776398749627
 20
189.4849449960019
 30
0.0
 10
75.78608179541916
 20
189.6731962783236
 30
0.0
 10
75.65284402784415
 20
189.8632992599488
 30
0.0
 10
75.48265387251179
 20
190.0973105532481
 30
0.0
 10
75.33156592219888
 20
190.3040679248443
 30
0.0
 10
75.19863556264586
 20
190.4853253402884
 30
0.0
 10
75.08277185808262
 20
190.6370365549144
 30
0.0
 10
74.95786193267047
 20
190.8014267435942
 30
0.0
 10
74.8207290658335
 20
190.9800457231797
 30
0.0
 10
74.65907379280793
 20
191.184535423578
 30
0.0
 10
74.51781988649283
 20
191.3660132035707
 30
0.0
 10
74.382104417393
 20
191.5342611895406
 30
0.0
 10
74.2315093866387
 20
191.720588586091
 30
0.0
 10
74.10149287180067
 20
191.8840914471465
 30
0.0
 10
73.98003561016806
 20
192.0322816524803
 30
0.0
 10
73.90098208679201
 20
192.1292373915463
 30
0.0
 10
73.69504987444496
 20
192.3865340336249
 30
0.0
 10
73.40000123650901
 20
192.7221588628209
 30
0.0
 10
73.04815786713672
 20
193.0955909179448
 30
0.0
 10
72.75408266186054
 20
193.3817066698675
 30
0.0
 10
72.44632253282143
 20
193.6630915385943
 30
0.0
 10
72.04444591170649
 20
194.0203941022619
 30
0.0
 10
71.67788759152677
 20
194.3201655624011
 30
0.0
 10
71.43510492555838
 20
194.5200252859663
 30
0.0
 10
71.36351303354388
 20
194.5770388997908
 30
0.0
 10
71.31703530070945
 20
194.6139483289636
 30
0.0
 10
71.23727321958256
 20
194.6775611734701
 30
0.0
 10
71.12792719301541
 20
194.7655061222126
 30
0.0
 10
70.96451916521222
 20
194.9000703108483
 30
0.0
 10
70.76149768431416
 20
195.061852060164
 30
0.0
 10
70.47467621875235
 20
195.2613805791365
 30
0.0
 10
70.23257535848053
 20
195.4196440826193
 30
0.0
 10
70.06491655126496
 20
195.5239555428447
 30
0.0
 10
69.98851013502268
 20
195.5712019965484
 30
0.0
 10
69.93520370489327
 20
195.602179301511
 30
0.0
 10
69.76658491104406
 20
195.6999728966883
 30
0.0
 10
69.56688977905816
 20
195.8088269256043
 30
0.0
 10
69.36203410843333
 20
195.9164224354769
 30
0.0
 10
69.25031525068268
 20
195.9727530355031
 30
0.0
 10
69.14082273218239
 20
196.0257037612873
 30
0.0
 10
68.95702684147162
 20
196.112405071584
 30
0.0
 10
68.70890424802342
 20
196.2253002634702
 30
0.0
 10
68.309838719446
 20
196.3948274599337
 30
0.0
 10
67.8629078279614
 20
196.5614713463681
 30
0.0
 10
67.4669616149137
 20
196.6765972845231
 30
0.0
 10
67.3112129914839
 20
196.7219055255406
 30
0.0
  0
SPLINE
  5
100
330
FA
100
AcDbEntity
  8
$DDT_AUDIT_GENERATED_(68)
  6
Continuous
 62
     7
100
AcDbSpline
210
0.0
220
0.0
230
1.0
 70
     8
 71
     3
 72
     8
 73
     4
 74
     0
 42
0.000000000121207
 43
0.0000000001
 40
0.5421067952495128
 40
0.5421067952495128
 40
0.5421067952495128
 40
0.5421067952495128
 40
0.5462375756229181
 40
0.5462375756229181
 40
0.5462375756229181
 40
0.5462375756229181
 10
108.6650620206732
 20
119.5525530697467
 30
0.0
 10
108.5706968409396
 20
119.4898837796384
 30
0.0
 10
108.4758142223159
 20
119.4274117474196
 30
0.0
 10
108.380418086724
 20
119.3651392752556
 30
0.0
  0
SPLINE
  5
101
330
FA
100
AcDbEntity
  8
$DDT_AUDIT_GENERATED_(68)
  6
Continuous
 62
     7
100
AcDbSpline
210
0.0
220
0.0
230
1.0
 70
     8
 71
     3
 72
    16
 73
    12
 74
     0
 42
0.0000000000975789
 43
0.0000000001
 40
0.5462375756229181
 40
0.5462375756229181
 40
0.5462375756229181
 40
0.5462375756229181
 40
0.6256173170482067
 40
0.6882803524120152
 40
0.750521812799218
 40
0.8083328025444508
 40
0.8749911470743943
 40
0.912900044307553
 40
0.9373494498539887
 40
0.9697707469763093
 40
1.0
 40
1.0
 40
1.0
 40
1.0
 10
108.380418086724
 20
119.3651392752556
 30
0.0
 10
106.5472243819687
 20
118.1684712630527
 30
0.0
 10
102.9275643666993
 20
116.1590111009889
 30
0.0
 10
96.97671425726995
 20
113.6836237107056
 30
0.0
 10
91.14225499859208
 20
111.822150703473
 30
0.0
 10
84.76665430276981
 20
110.2927988245049
 30
0.0
 10
78.9245936390603
 20
109.3163389977842
 30
0.0
 10
74.16040395922724
 20
108.7896710293513
 30
0.0
 10
70.62261234281205
 20
108.5162657653805
 30
0.0
 10
67.34841914574105
 20
108.3528091765645
 30
0.0
 10
64.98488121055136
 20
108.3313878877124
 30
0.0
 10
63.8444486864313
 20
108.3210519918691
 30
0.0
  0
ELLIPSE
  5
102
330
FA
100
AcDbEntity
  8
$DDT_AUDIT_GENERATED_(68)
  6
Continuous
 62
     7
100
AcDbEllipse
 10
96.4302238764
 20
162.1631654677
 30
0.0
 11
-2.203094836393339
 21
-3.518702729315567
 31
0.0
210
0.0
220
0.0
230
1.0
 40
0.5395443482
 41
3.030658926991851
 42
3.125889170184583
  0
ARC
  5
103
330
FA
100
AcDbEntity
  8
$DDT_AUDIT_GENERATED_(68)
  6
Continuous
 62
     7
100
AcDbCircle
 10
64.9068511117
 20
183.285958407
 30
0.0
 40
13.64938207468088
100
AcDbArc
 50
64.6157118786
 51
79.853546663
  0
ARC
  5
104
330
FA
100
AcDbEntity
  8
$DDT_AUDIT_GENERATED_(68)
  6
Continuous
 62
     7
100
AcDbCircle
 10
63.8462623846
 20
177.2988273062
 30
0.0
 40
19.72971997322583
100
AcDbArc
 50
79.8852090196
 51
90.0052670414
  0
ELLIPSE
  5
105
330
FA
100
AcDbEntity
  8
$DDT_AUDIT_GENERATED_(68)
  6
Continuous
 62
     7
100
AcDbEllipse
 10
63.8444486864
 20
133.5987215379
 30
0.0
 11
0.0
 21
36.97817113334473
 31
0.0
210
0.0
220
0.0
230
1.0
 40
1.0
 41
2.181642700794788
 42
4.10250796955777
  0
LINE
  5
106
330
FA
100
AcDbEntity
  8
$DDT_AUDIT_GENERATED_(68)
  6
Continuous
 62
     7
100
AcDbLine
 10
63.8444486864
 20
197.0286224537
 30
0.0
 11
63.8444486864
 21
197.0285471961
 31
0.0
  0
ARC
  5
107
330
FA
100
AcDbEntity
  8
$DDT_AUDIT_GENERATED_(68)
  6
Continuous
 62
     7
100
AcDbCircle
 10
63.8426349882
 20
177.2988273062
 30
0.0
 40
19.72971997322584
100
AcDbArc
 50
89.9947329586
 51
100.1147909804
  0
SPLINE
  5
108
330
FA
100
AcDbEntity
  8
$DDT_AUDIT_GENERATED_(68)
  6
Continuous
 62
     7
100
AcDbSpline
210
0.0
220
0.0
230
1.0
 70
    12
 71
     3
 72
   372
 73
   368
 74
     0
 42
0.0000000001243564
 43
0.0000000001
 40
0.0
 40
0.0
 40
0.0
 40
0.0
 40
0.0312499999999999
 40
0.0312499999999999
 40
0.046875
 40
0.046875
 40
0.0546875
 40
0.0546875
 40
0.05859375
 40
0.05859375
 40
0.060546875
 40
0.060546875
 40
0.0615234374999999
 40
0.0615234374999999
 40
0.0620117187499999
 40
0.0620117187499999
 40
0.062255859375
 40
0.062255859375
 40
0.0623779296875
 40
0.0623779296875
 40
0.0625
 40
0.0625
 40
0.0626220703124999
 40
0.0626220703124999
 40
0.062744140625
 40
0.062744140625
 40
0.06298828125
 40
0.06298828125
 40
0.0634765625
 40
0.0634765625
 40
0.0644531249999999
 40
0.0644531249999999
 40
0.06640625
 40
0.06640625
 40
0.0703124999999999
 40
0.0703124999999999
 40
0.0781249999999999
 40
0.0781249999999999
 40
0.0859375
 40
0.0859375
 40
0.08984375
 40
0.08984375
 40
0.0917968749999999
 40
0.0917968749999999
 40
0.0927734375
 40
0.0927734375
 40
0.0932617187500001
 40
0.0932617187500001
 40
0.093505859375
 40
0.093505859375
 40
0.09375
 40
0.09375
 40
0.09423828125
 40
0.09423828125
 40
0.0947265625
 40
0.0947265625
 40
0.0957031250000001
 40
0.0957031250000001
 40
0.09765625
 40
0.09765625
 40
0.1015625000000001
 40
0.1015625000000001
 40
0.109375
 40
0.109375
 40
0.1171874999999999
 40
0.1171874999999999
 40
0.1210937499999999
 40
0.1210937499999999
 40
0.1230468749999999
 40
0.1230468749999999
 40
0.1240234374999999
 40
0.1240234374999999
 40
0.12451171875
 40
0.12451171875
 40
0.124755859375
 40
0.124755859375
 40
0.1249999999999999
 40
0.1249999999999999
 40
0.1254882812499999
 40
0.1254882812499999
 40
0.1259765625
 40
0.1259765625
 40
0.126953125
 40
0.126953125
 40
0.12890625
 40
0.12890625
 40
0.1328125
 40
0.1328125
 40
0.140625
 40
0.140625
 40
0.15625
 40
0.15625
 40
0.1718749999999999
 40
0.1718749999999999
 40
0.1796875
 40
0.1796875
 40
0.18359375
 40
0.18359375
 40
0.185546875
 40
0.185546875
 40
0.1865234375
 40
0.1865234375
 40
0.1870117187500001
 40
0.1870117187500001
 40
0.1872558593750001
 40
0.1872558593750001
 40
0.1875
 40
0.1875
 40
0.18798828125
 40
0.18798828125
 40
0.1884765625000001
 40
0.1884765625000001
 40
0.1894531250000001
 40
0.1894531250000001
 40
0.1914062500000001
 40
0.1914062500000001
 40
0.1953125000000001
 40
0.1953125000000001
 40
0.203125
 40
0.203125
 40
0.21875
 40
0.21875
 40
0.25
 40
0.25
 40
0.2812500000000001
 40
0.2812500000000001
 40
0.296875
 40
0.296875
 40
0.3046874999999999
 40
0.3046874999999999
 40
0.3085937499999999
 40
0.3085937499999999
 40
0.3105468749999999
 40
0.3105468749999999
 40
0.3115234374999999
 40
0.3115234374999999
 40
0.31201171875
 40
0.31201171875
 40
0.312255859375
 40
0.312255859375
 40
0.3125
 40
0.3125
 40
0.3134765625
 40
0.3134765625
 40
0.3144531250000001
 40
0.3144531250000001
 40
0.31640625
 40
0.31640625
 40
0.3203125
 40
0.3203125
 40
0.3281250000000001
 40
0.3281250000000001
 40
0.34375
 40
0.34375
 40
0.359375
 40
0.359375
 40
0.3671875
 40
0.3671875
 40
0.3710937500000001
 40
0.3710937500000001
 40
0.373046875
 40
0.373046875
 40
0.3740234375
 40
0.3740234375
 40
0.3745117187500001
 40
0.3745117187500001
 40
0.3747558593750001
 40
0.3747558593750001
 40
0.3750000000000001
 40
0.3750000000000001
 40
0.3759765625000001
 40
0.3759765625000001
 40
0.3769531250000001
 40
0.3769531250000001
 40
0.3789062500000001
 40
0.3789062500000001
 40
0.3828125000000001
 40
0.3828125000000001
 40
0.390625
 40
0.390625
 40
0.40625
 40
0.40625
 40
0.4218750000000001
 40
0.4218750000000001
 40
0.4296875000000001
 40
0.4296875000000001
 40
0.43359375
 40
0.43359375
 40
0.4355468750000001
 40
0.4355468750000001
 40
0.4365234375
 40
0.4365234375
 40
0.4375
 40
0.4375
 40
0.4687500000000001
 40
0.4687500000000001
 40
0.4843750000000001
 40
0.4843750000000001
 40
0.4921875000000001
 40
0.4921875000000001
 40
0.4960937500000001
 40
0.4960937500000001
 40
0.4980468750000001
 40
0.4980468750000001
 40
0.4990234375000001
 40
0.4990234375000001
 40
0.5
 40
0.5
 40
0.5078125
 40
0.5078125
 40
0.5156250000000001
 40
0.5156250000000001
 40
0.53125
 40
0.53125
 40
0.5468750000000001
 40
0.5468750000000001
 40
0.5546875
 40
0.5546875
 40
0.5585937500000001
 40
0.5585937500000001
 40
0.5605468750000001
 40
0.5605468750000001
 40
0.5615234375
 40
0.5615234375
 40
0.56201171875
 40
0.56201171875
 40
0.5622558593750001
 40
0.5622558593750001
 40
0.5625000000000001
 40
0.5625000000000001
 40
0.5937500000000001
 40
0.5937500000000001
 40
0.6093750000000001
 40
0.6093750000000001
 40
0.6171875
 40
0.6171875
 40
0.62109375
 40
0.62109375
 40
0.623046875
 40
0.623046875
 40
0.6240234375
 40
0.6240234375
 40
0.6245117187500001
 40
0.6245117187500001
 40
0.6247558593750001
 40
0.6247558593750001
 40
0.625
 40
0.625
 40
0.65625
 40
0.65625
 40
0.6718750000000001
 40
0.6718750000000001
 40
0.6796875000000001
 40
0.6796875000000001
 40
0.68359375
 40
0.68359375
 40
0.6855468750000001
 40
0.6855468750000001
 40
0.6865234375
 40
0.6865234375
 40
0.68701171875
 40
0.68701171875
 40
0.687255859375
 40
0.687255859375
 40
0.6873779296875001
 40
0.6873779296875001
 40
0.6875
 40
0.6875
 40
0.687744140625
 40
0.687744140625
 40
0.6879882812500001
 40
0.6879882812500001
 40
0.6884765625000001
 40
0.6884765625000001
 40
0.689453125
 40
0.689453125
 40
0.69140625
 40
0.69140625
 40
0.6953125000000001
 40
0.6953125000000001
 40
0.703125
 40
0.703125
 40
0.7187500000000001
 40
0.7187500000000001
 40
0.734375
 40
0.734375
 40
0.7421875000000001
 40
0.7421875000000001
 40
0.7460937500000001
 40
0.7460937500000001
 40
0.748046875
 40
0.748046875
 40
0.7490234375000001
 40
0.7490234375000001
 40
0.74951171875
 40
0.74951171875
 40
0.749755859375
 40
0.749755859375
 40
0.7498779296875001
 40
0.7498779296875001
 40
0.75
 40
0.75
 40
0.78125
 40
0.78125
 40
0.796875
 40
0.796875
 40
0.8046875
 40
0.8046875
 40
0.8085937500000001
 40
0.8085937500000001
 40
0.810546875
 40
0.810546875
 40
0.8115234375
 40
0.8115234375
 40
0.8120117187500001
 40
0.8120117187500001
 40
0.812255859375
 40
0.812255859375
 40
0.8125000000000001
 40
0.8125000000000001
 40
0.84375
 40
0.84375
 40
0.8593750000000001
 40
0.8593750000000001
 40
0.8671875000000001
 40
0.8671875000000001
 40
0.87109375
 40
0.87109375
 40
0.8730468750000001
 40
0.8730468750000001
 40
0.8740234375
 40
0.8740234375
 40
0.87451171875
 40
0.87451171875
 40
0.875
 40
0.875
 40
0.9062500000000001
 40
0.9062500000000001
 40
0.9218750000000001
 40
0.9218750000000001
 40
0.9296875000000001
 40
0.9296875000000001
 40
0.9335937500000001
 40
0.9335937500000001
 40
0.9355468750000001
 40
0.9355468750000001
 40
0.9365234375000001
 40
0.9365234375000001
 40
0.9375
 40
0.9375
 40
0.9531250000000001
 40
0.9531250000000001
 40
0.9609375
 40
0.9609375
 40
0.96484375
 40
0.96484375
 40
0.9667968750000001
 40
0.9667968750000001
 40
0.9677734375
 40
0.9677734375
 40
0.9682617187500001
 40
0.9682617187500001
 40
0.9685058593750001
 40
0.9685058593750001
 40
0.9687500000000001
 40
0.9687500000000001
 40
1.0
 40
1.0
 40
1.0
 40
1.0
 10
63.8444486864313
 20
114.4378221370191
 30
0.0
 41
1.0
 10
62.82527581185765
 20
114.437822220369
 30
0.0
 41
1.0
 10
61.73672550845605
 20
114.4524207093192
 30
0.0
 41
1.0
 10
60.0023775164787
 20
114.5056578751866
 30
0.0
 41
1.0
 10
59.40735084585938
 20
114.5286367572058
 30
0.0
 41
1.0
 10
58.48996032283161
 20
114.5722092794887
 30
0.0
 41
1.0
 10
58.18002344668703
 20
114.5882512525004
 30
0.0
 41
1.0
 10
57.70898944911974
 20
114.6147511413639
 30
0.0
 41
1.0
 10
57.55095679494438
 20
114.6239906136585
 30
0.0
 41
1.0
 10
57.3123871846479
 20
114.6384792927405
 30
0.0
 41
1.0
 10
57.23261055150886
 20
114.643413765306
 30
0.0
 41
1.0
 10
57.11256695455658
 20
114.6509753794339
 30
0.0
 41
1.0
 10
57.07248931490665
 20
114.6535225683961
 30
0.0
 41
1.0
 10
57.01227838662687
 20
114.6573836458492
 30
0.0
 41
1.0
 10
56.99219233243095
 20
114.6586773873279
 30
0.0
 41
1.0
 10
56.96203965833023
 20
114.6606281127925
 30
0.0
 41
1.0
 10
56.95198483482896
 20
114.6612800401497
 30
0.0
 41
1.0
 10
56.93689670444292
 20
114.6622604644705
 30
0.0
 41
1.0
 10
56.9318663451239
 20
114.6625876947882
 30
0.0
 41
1.0
 10
56.92180366195461
 20
114.6632430006826
 30
0.0
 41
1.0
 10
56.91537335672831
 20
114.6636623431997
 30
0.0
 41
1.0
 10
56.90829502741337
 20
114.6641242548899
 30
0.0
 41
1.0
 10
56.90725875580768
 20
114.6641919845172
 30
0.0
 41
1.0
 10
56.90265789068182
 20
114.6644925545631
 30
0.0
 41
1.0
 10
56.90034898137873
 20
114.6646434683009
 30
0.0
 41
1.0
 10
56.89339681887309
 20
114.6650981011951
 30
0.0
 41
1.0
 10
56.8887281311738
 20
114.6654037117592
 30
0.0
 41
1.0
 10
56.87462029790088
 20
114.6663281523727
 30
0.0
 41
1.0
 10
56.86507938167048
 20
114.6669545906739
 30
0.0
 41
1.0
 10
56.83604932492191
 20
114.668864685598
 30
0.0
 41
1.0
 10
56.81615286697621
 20
114.6701791186732
 30
0.0
 41
1.0
 10
56.75483282813687
 20
114.6742483815302
 30
0.0
 41
1.0
 10
56.71177847577616
 20
114.6771291290452
 30
0.0
 41
1.0
 10
56.57608606908528
 20
114.6862994360569
 30
0.0
 41
1.0
 10
56.47691774626078
 20
114.6931163081133
 30
0.0
 41
1.0
 10
56.15329091762733
 20
114.7158977327068
 30
0.0
 41
1.0
 10
55.90270273899373
 20
114.7341808640091
 30
0.0
 41
1.0
 10
55.33213079615
 20
114.7784054073172
 30
0.0
 41
1.0
 10
55.01214786158586
 20
114.8043470859528
 30
0.0
 41
1.0
 10
54.48054259485296
 20
114.8503934388119
 30
0.0
 41
1.0
 10
54.29473776453495
 20
114.8669341836142
 30
0.0
 41
1.0
 10
54.00319805559224
 20
114.8937333682972
 30
0.0
 41
1.0
 10
53.90387955946749
 20
114.9029979547629
 30
0.0
 41
1.0
 10
53.75170438147356
 20
114.917418746046
 30
0.0
 41
1.0
 10
53.70044642688364
 20
114.922313005956
 30
0.0
 41
1.0
 10
53.62276155569547
 20
114.9297888173138
 30
0.0
 41
1.0
 10
53.59673360941568
 20
114.9323031586109
 30
0.0
 41
1.0
 10
53.55749238790943
 20
114.9361087114969
 30
0.0
 41
1.0
 10
53.54437876376073
 20
114.9373829026156
 30
0.0
 41
1.0
 10
53.51808511234502
 20
114.939942704872
 30
0.0
 41
1.0
 10
53.50337965632306
 20
114.9413774181245
 30
0.0
 41
1.0
 10
53.46850241673182
 20
114.9447859954908
 30
0.0
 41
1.0
 10
53.44869852854432
 20
114.9467281504101
 30
0.0
 41
1.0
 10
53.40582856905476
 20
114.950944336365
 30
0.0
 41
1.0
 10
53.3844553903434
 20
114.9530529413568
 30
0.0
 41
1.0
 10
53.32052120053918
 20
114.9593799635827
 30
0.0
 41
1.0
 10
53.27814553602992
 20
114.9635995875843
 30
0.0
 41
1.0
 10
53.15175946590333
 20
114.9762606826116
 30
0.0
 41
1.0
 10
53.06848998712853
 20
114.9847043661955
 30
0.0
 41
1.0
 10
52.82164142378005
 20
115.0100238360096
 30
0.0
 41
1.0
 10
52.66102225605265
 20
115.0268878702992
 30
0.0
 41
1.0
 10
52.19097193102609
 20
115.0772758338545
 30
0.0
 41
1.0
 10
51.89334828232954
 20
115.1105929480924
 30
0.0
 41
1.0
 10
51.32940146159564
 20
115.1759037403108
 30
0.0
 41
1.0
 10
51.06307771921826
 20
115.2078975304308
 30
0.0
 41
1.0
 10
50.68692434994526
 20
115.254378765956
 30
0.0
 41
1.0
 10
50.565428622958
 20
115.2696215854861
 30
0.0
 41
1.0
 10
50.38900121230061
 20
115.2920505092843
 30
0.0
 41
1.0
 10
50.3311614484218
 20
115.2994543055778
 30
0.0
 41
1.0
 10
50.24585386066551
 20
115.3104442138763
 30
0.0
 41
1.0
 10
50.21766000870169
 20
115.314088221475
 30
0.0
 41
1.0
 10
50.17573200573033
 20
115.3195244338277
 30
0.0
 41
1.0
 10
50.16181646731427
 20
115.3213315383242
 30
0.0
 41
1.0
 10
50.14103382407204
 20
115.3240346398052
 30
0.0
 41
1.0
 10
50.13412138706463
 20
115.3249344144675
 30
0.0
 41
1.0
 10
50.12032672966473
 20
115.3267314278594
 30
0.0
 41
1.0
 10
50.1148191635353
 20
115.3274492991696
 30
0.0
 41
1.0
 10
50.08987675099416
 20
115.3307036141066
 30
0.0
 41
1.0
 10
50.07040276994862
 20
115.3332492075592
 30
0.0
 41
1.0
 10
50.03432214227811
 20
115.337975901572
 30
0.0
 41
1.0
 10
50.01628904009304
 20
115.340343097813
 30
0.0
 41
1.0
 10
49.96221138809999
 20
115.3474562055189
 30
0.0
 41
1.0
 10
49.92618849286485
 20
115.3522136359729
 30
0.0
 41
1.0
 10
49.81820658146329
 20
115.3665317741122
 30
0.0
 41
1.0
 10
49.74633433994024
 20
115.3761383283937
 30
0.0
 41
1.0
 10
49.53106594862123
 20
115.4051395519177
 30
0.0
 41
1.0
 10
49.38801813805718
 20
115.4247157785777
 30
0.0
 41
1.0
 10
48.96027772366308
 20
115.4841562036159
 30
0.0
 41
1.0
 10
48.67698823976763
 20
115.5247320925563
 30
0.0
 41
1.0
 10
47.83280591939496
 20
115.6491926169191
 30
0.0
 41
1.0
 10
47.27760103723296
 20
115.7358092257251
 30
0.0
 41
1.0
 10
46.18270993699725
 20
115.9157416263023
 30
0.0
 41
1.0
 10
45.64302390474302
 20
116.0090574587502
 30
0.0
 41
1.0
 10
44.84535274253031
 20
116.1536364437283
 30
0.0
 41
1.0
 10
44.58143817835499
 20
116.2025971911887
 30
0.0
 41
1.0
 10
44.18855285727321
 20
116.2771393819902
 30
0.0
 41
1.0
 10
44.05808880565586
 20
116.3021703029471
 30
0.0
 41
1.0
 10
43.86314186903239
 20
116.3399857590547
 30
0.0
 41
1.0
 10
43.79828441158297
 20
116.3526357576273
 30
0.0
 41
1.0
 10
43.70118580892744
 20
116.3716772553941
 30
0.0
 41
1.0
 10
43.66885087183013
 20
116.3780355046898
 30
0.0
 41
1.0
 10
43.62039539839426
 20
116.3875894078423
 30
0.0
 41
1.0
 10
43.60425139594096
 20
116.3907767971029
 30
0.0
 41
1.0
 10
43.5800471297956
 20
116.3955620013427
 30
0.0
 41
1.0
 10
43.57198099733495
 20
116.3971577561507
 30
0.0
 41
1.0
 10
43.55585264566702
 20
116.4003506372249
 30
0.0
 41
1.0
 10
43.54655863337691
 20
116.4021919626829
 30
0.0
 41
1.0
 10
43.52636524681497
 20
116.4061949100853
 30
0.0
 41
1.0
 10
43.51541327710382
 20
116.408368414289
 30
0.0
 41
1.0
 10
43.49089398107967
 20
116.4132388272366
 30
0.0
 41
1.0
 10
43.47859932335538
 20
116.4156834716624
 30
0.0
 41
1.0
 10
43.44161044032415
 20
116.423045830187
 30
0.0
 41
1.0
 10
43.41681130485905
 20
116.4279919691157
 30
0.0
 41
1.0
 10
43.34199521855243
 20
116.4429449838737
 30
0.0
 41
1.0
 10
43.29155958420564
 20
116.4530664536951
 30
0.0
 41
1.0
 10
43.13858574903036
 20
116.4838965574041
 30
0.0
 41
1.0
 10
43.03438055395618
 20
116.5050708282598
 30
0.0
 41
1.0
 10
42.71516150363916
 20
116.5705168152361
 30
0.0
 41
1.0
 10
42.49354298553318
 20
116.6167108314733
 30
0.0
 41
1.0
 10
41.80282442489068
 20
116.7634995671298
 30
0.0
 41
1.0
 10
41.30783691508464
 20
116.8722878293307
 30
0.0
 41
1.0
 10
39.72455765312542
 20
117.2360626661976
 30
0.0
 41
1.0
 10
38.53736510899235
 20
117.528293551315
 30
0.0
 41
1.0
 10
35.9385349412201
 20
118.2415057532763
 30
0.0
 41
1.0
 10
34.81156908848757
 20
118.584423806699
 30
0.0
 41
1.0
 10
33.35655301302942
 20
119.0548592468466
 30
0.0
 41
1.0
 10
32.91077759696068
 20
119.2044193205187
 30
0.0
 41
1.0
 10
32.29815527401987
 20
119.4155872366027
 30
0.0
 41
1.0
 10
32.10328960708771
 20
119.4837854529277
 30
0.0
 41
1.0
 10
31.8246706573222
 20
119.5825477676704
 30
0.0
 41
1.0
 10
31.7340777341033
 20
119.6148796389843
 30
0.0
 41
1.0
 10
31.60156803122349
 20
119.6624654832015
 30
0.0
 41
1.0
 10
31.55796141935665
 20
119.6781754547229
 30
0.0
 41
1.0
 10
31.49339146095729
 20
119.7015090250964
 30
0.0
 41
1.0
 10
31.47200813532158
 20
119.709248318576
 30
0.0
 41
1.0
 10
31.44014252044636
 20
119.7207989957109
 30
0.0
 41
1.0
 10
31.42955554448571
 20
119.7246395110229
 30
0.0
 41
1.0
 10
31.41372734713172
 20
119.7303856666714
 30
0.0
 41
1.0
 10
31.40845999246465
 20
119.7322986156957
 30
0.0
 41
1.0
 10
31.39794269253571
 20
119.7361196327436
 30
0.0
 41
1.0
 10
31.39433651487324
 20
119.7374300328041
 30
0.0
 41
1.0
 10
31.35908793453695
 20
119.7502459031209
 30
0.0
 41
1.0
 10
31.32921475183888
 20
119.7611293693472
 30
0.0
 41
1.0
 10
31.27118862288345
 20
119.7823150199926
 30
0.0
 41
1.0
 10
31.24219088948694
 20
119.7929243418229
 30
0.0
 41
1.0
 10
31.15524390843456
 20
119.8248018003394
 30
0.0
 41
1.0
 10
31.09734087984761
 20
119.8461194302451
 30
0.0
 41
1.0
 10
30.92381847865918
 20
119.9102703135795
 30
0.0
 41
1.0
 10
30.8083857898861
 20
119.9533015638723
 30
0.0
 41
1.0
 10
30.46284894747151
 20
120.0831873514002
 30
0.0
 41
1.0
 10
30.23350600436005
 20
120.1708339795383
 30
0.0
 41
1.0
 10
29.54863835682572
 20
120.4369406885099
 30
0.0
 41
1.0
 10
29.09627455230762
 20
120.6185685220111
 30
0.0
 41
1.0
 10
28.2006024198016
 20
120.9902415207751
 30
0.0
 41
1.0
 10
27.75729402707763
 20
121.1802867313086
 30
0.0
 41
1.0
 10
27.09959993406563
 20
121.4716229214863
 30
0.0
 41
1.0
 10
26.88158006848791
 20
121.5697794732944
 30
0.0
 41
1.0
 10
26.5564279134434
 20
121.7185732733639
 30
0.0
 41
1.0
 10
26.44835680777888
 20
121.7684310203098
 30
0.0
 41
1.0
 10
26.28672716716651
 20
121.8436062555012
 30
0.0
 41
1.0
 10
26.23293012360248
 20
121.8687294354167
 30
0.0
 41
1.0
 10
26.15235476616985
 20
121.906511210956
 30
0.0
 41
1.0
 10
26.12551634835748
 20
121.919121303687
 30
0.0
 41
1.0
 10
26.08528889295734
 20
121.9380606752624
 30
0.0
 41
1.0
 10
26.07188476970801
 20
121.9443778378632
 30
0.0
 41
1.0
 10
26.05178614259267
 20
121.9538596374895
 30
0.0
 41
1.0
 10
26.04508785984553
 20
121.9570212466522
 30
0.0
 41
1.0
 10
26.03169381609364
 20
121.9633464831511
 30
0.0
 41
1.0
 10
26.02352200681014
 20
121.9672079015867
 30
0.0
 41
1.0
 10
25.99839913268305
 20
121.9790838827895
 30
0.0
 41
1.0
 10
25.98073015337922
 20
121.9874490458451
 30
0.0
 41
1.0
 10
25.942649792392
 20
122.0055020545455
 30
0.0
 41
1.0
 10
25.92350540397798
 20
122.0145909986175
 30
0.0
 41
1.0
 10
25.86576101749347
 20
122.0420459320571
 30
0.0
 41
1.0
 10
25.82684978936711
 20
122.0606000204474
 30
0.0
 41
1.0
 10
25.70888271933078
 20
122.1170210040059
 30
0.0
 41
1.0
 10
25.6285933561835
 20
122.1556465876629
 30
0.0
 41
1.0
 10
25.38288840199323
 20
122.2746097322482
 30
0.0
 41
1.0
 10
25.21263379038203
 20
122.3580332402166
 30
0.0
 41
1.0
 10
24.68337035750307
 20
122.6210773369023
 30
0.0
 41
1.0
 10
24.30582635522144
 20
122.8134657947962
 30
0.0
 41
1.0
 10
23.50673029680599
 20
123.2347400923599
 30
0.0
 41
1.0
 10
23.08517561369494
 20
123.4636287174809
 30
0.0
 41
1.0
 10
22.42476028137263
 20
123.8362835068677
 30
0.0
 41
1.0
 10
22.1999507043196
 20
123.9653896321965
 30
0.0
 41
1.0
 10
21.85643306744445
 20
124.1666285717508
 30
0.0
 41
1.0
 10
21.74087726669745
 20
124.2349715269384
 30
0.0
 41
1.0
 10
21.56606230912082
 20
124.3394119702362
 30
0.0
 41
1.0
 10
21.50754382043214
 20
124.3745464528212
 30
0.0
 41
1.0
 10
21.41940789925297
 20
124.4277335553469
 30
0.0
 41
1.0
 10
21.38996956331354
 20
124.4455434858676
 30
0.0
 41
1.0
 10
21.33097554194965
 20
124.4813257850518
 30
0.0
 41
1.0
 10
21.30266745389371
 20
124.498537510065
 30
0.0
 41
1.0
 10
20.28305144536403
 20
125.120152674338
 30
0.0
 41
1.0
 10
19.46645867988117
 20
125.6688862890541
 30
0.0
 41
1.0
 10
18.45258997693419
 20
126.3888878396127
 30
0.0
 41
1.0
 10
18.14988519783752
 20
126.6118120854462
 30
0.0
 41
1.0
 10
17.74374103139943
 20
126.9186552148137
 30
0.0
 41
1.0
 10
17.61635266236265
 20
127.0163507158505
 30
0.0
 41
1.0
 10
17.43671210309878
 20
127.1558152395538
 30
0.0
 41
1.0
 10
17.37873945132162
 20
127.2011238861659
 30
0.0
 41
1.0
 10
17.29457832510764
 20
127.2672947002215
 30
0.0
 41
1.0
 10
17.26699096077018
 20
127.2890529601901
 30
0.0
 41
1.0
 10
17.22630182582598
 20
127.3212395990934
 30
0.0
 41
1.0
 10
17.21285410184971
 20
127.3318933544907
 30
0.0
 41
1.0
 10
17.18618805606598
 20
127.353050170722
 30
0.0
 41
1.0
 10
17.17206556637051
 20
127.3642727378271
 30
0.0
 41
1.0
 10
17.06257077097938
 20
127.4514013159839
 30
0.0
 41
1.0
 10
16.96020261739809
 20
127.533678913397
 30
0.0
 41
1.0
 10
16.74098665504545
 20
127.7122240699675
 30
0.0
 41
1.0
 10
16.62500239892695
 20
127.8078044976323
 30
0.0
 41
1.0
 10
16.2592579731502
 20
128.1138242171774
 30
0.0
 41
1.0
 10
15.99164492754642
 20
128.3435318532394
 30
0.0
 41
1.0
 10
15.41739576752752
 20
128.8565160855901
 30
0.0
 41
1.0
 10
15.11075494439353
 20
129.1397968056181
 30
0.0
 41
1.0
 10
14.62943462396128
 20
129.6067469763485
 30
0.0
 41
1.0
 10
14.46545082305388
 20
129.7694036352505
 30
0.0
 41
1.0
 10
14.21529877472856
 20
130.0241400374673
 30
0.0
 41
1.0
 10
14.13121976422328
 20
130.1108441214674
 30
0.0
 41
1.0
 10
14.00421087093741
 20
130.2436186203819
 30
0.0
 41
1.0
 10
13.96172624497072
 20
130.2883298496063
 30
0.0
 41
1.0
 10
13.89779644668583
 20
130.3560800959854
 30
0.0
 41
1.0
 10
13.87645270827267
 20
130.3787774118022
 30
0.0
 41
1.0
 10
13.84438888542576
 20
130.4129947118057
 30
0.0
 41
1.0
 10
13.83369290883979
 20
130.4244290328279
 30
0.0
 41
1.0
 10
13.81763720466747
 20
130.4416234053556
 30
0.0
 41
1.0
 10
13.81228334672518
 20
130.4473620113522
 30
0.0
 41
1.0
 10
13.80157177034303
 20
130.4588535302513
 30
0.0
 41
1.0
 10
13.79563049624109
 20
130.4652336553985
 30
0.0
 41
1.0
 10
13.19234076767661
 20
131.1135915923404
 30
0.0
 41
1.0
 10
12.69537859356758
 20
131.7109626828963
 30
0.0
 41
1.0
 10
12.06812083140669
 20
132.5283850684808
 30
0.0
 41
1.0
 10
11.87878273470881
 20
132.7877910257737
 30
0.0
 41
1.0
 10
11.62060672463867
 20
133.1563942216961
 30
0.0
 41
1.0
 10
11.53885691765514
 20
133.2758463120757
 30
0.0
 41
1.0
 10
11.42225579262544
 20
133.4498051455556
 30
0.0
 41
1.0
 10
11.3843929247063
 20
133.5069216546536
 30
0.0
 41
1.0
 10
11.32905213105221
 20
133.5912807989095
 30
0.0
 41
1.0
 10
11.31084746685584
 20
133.6191812507913
 30
0.0
 41
1.0
 10
11.28389741724439
 20
133.6607017253318
 30
0.0
 41
1.0
 10
11.27497355953844
 20
133.674486850104
 30
0.0
 41
1.0
 10
11.26167621322625
 20
133.6950818272902
 30
0.0
 41
1.0
 10
11.25725850459443
 20
133.7019330347406
 30
0.0
 41
1.0
 10
11.25065395260398
 20
133.7121891487185
 30
0.0
 41
1.0
 10
11.24845610378913
 20
133.7156044038583
 30
0.0
 41
1.0
 10
11.24406772665696
 20
133.7224280117983
 30
0.0
 41
1.0
 10
11.24222285953811
 20
133.7252981274191
 30
0.0
 41
1.0
 10
10.9069311681461
 20
134.2473440768714
 30
0.0
 41
1.0
 10
10.59195358928171
 20
134.7893917457523
 30
0.0
 41
1.0
 10
10.15729816615502
 20
135.6387549146144
 30
0.0
 41
1.0
 10
10.01872629436808
 20
135.9279180724083
 30
0.0
 41
1.0
 10
9.821842304246369
 20
136.3706840013949
 30
0.0
 41
1.0
 10
9.75804394350676
 20
136.5197756362455
 30
0.0
 41
1.0
 10
9.665284541070754
 20
136.745657147026
 30
0.0
 41
1.0
 10
9.634854467841631
 20
136.8213249559323
 30
0.0
 41
1.0
 10
9.589968487359393
 20
136.9353859748835
 30
0.0
 41
1.0
 10
9.575133017583774
 20
136.9734995296532
 30
0.0
 41
1.0
 10
9.553072685097106
 20
137.030809455465
 30
0.0
 41
1.0
 10
9.545751386408272
 20
137.0499360295158
 30
0.0
 41
1.0
 10
9.534818043601497
 20
137.0786607587168
 30
0.0
 41
1.0
 10
9.531181696869186
 20
137.0882414797921
 30
0.0
 41
1.0
 10
9.525739376538729
 20
137.1026212745768
 30
0.0
 41
1.0
 10
9.523927303051634
 20
137.1074159916982
 30
0.0
 41
1.0
 10
9.521212248826446
 20
137.1146102451863
 30
0.0
 41
1.0
 10
9.52030774008316
 20
137.1170086926493
 30
0.0
 41
1.0
 10
9.51849974227651
 20
137.1218063134295
 30
0.0
 41
1.0
 10
9.517338251342503
 20
137.1248913317861
 30
0.0
 41
1.0
 10
9.516114405043387
 20
137.1281429194638
 30
0.0
 41
1.0
 10
9.51598129698969
 20
137.128497194041
 30
0.0
 41
1.0
 10
9.515018699762095
 20
137.1310567740503
 30
0.0
 41
1.0
 10
9.514532873002628
 20
137.1323490934059
 30
0.0
 41
1.0
 10
9.513061832619734
 20
137.1362636640657
 30
0.0
 41
1.0
 10
9.512063058015476
 20
137.138923527472
 30
0.0
 41
1.0
 10
9.509012697161083
 20
137.1470537399944
 30
0.0
 41
1.0
 10
9.506907067487456
 20
137.1526747148057
 30
0.0
 41
1.0
 10
9.500375860634742
 20
137.1701412974556
 30
0.0
 41
1.0
 10
9.495735891933213
 20
137.1825906039299
 30
0.0
 41
1.0
 10
9.480976140541157
 20
137.2223602376047
 30
0.0
 41
1.0
 10
9.470015551845567
 20
137.2521024685973
 30
0.0
 41
1.0
 10
9.433951018783977
 20
137.3510550873728
 30
0.0
 41
1.0
 10
9.405650310197174
 20
137.4299910320253
 30
0.0
 41
1.0
 10
9.309945168047792
 20
137.7059426839458
 30
0.0
 41
1.0
 10
9.231514115284625
 20
137.9420966851871
 30
0.0
 41
1.0
 10
9.06131506224163
 20
138.5200931252229
 30
0.0
 41
1.0
 10
8.96954419365939
 20
138.8619527580021
 30
0.0
 41
1.0
 10
8.839245850240152
 20
139.454908093577
 30
0.0
 41
1.0
 10
8.797096273047652
 20
139.6659181057275
 30
0.0
 41
1.0
 10
8.738479518381796
 20
140.0025308511947
 30
0.0
 41
1.0
 10
8.719712092465192
 20
140.1180842494685
 30
0.0
 41
1.0
 10
8.693085454628415
 20
140.296440482823
 30
0.0
 41
1.0
 10
8.684464212929933
 20
140.3567302092848
 30
0.0
 41
1.0
 10
8.671961698277144
 20
140.4484211784704
 30
0.0
 41
1.0
 10
8.667865764993564
 20
140.4791942284838
 30
0.0
 41
1.0
 10
8.661835332555553
 20
140.525667855166
 30
0.0
 41
1.0
 10
8.659844100451224
 20
140.5412114057829
 30
0.0
 41
1.0
 10
8.656886391909701
 20
140.5646052377085
 30
0.0
 41
1.0
 10
8.655905345688074
 20
140.5724162659922
 30
0.0
 41
1.0
 10
8.654441158262632
 20
140.5841524339614
 30
0.0
 41
1.0
 10
8.653954326093963
 20
140.5880677608683
 30
0.0
 41
1.0
 10
8.652983138600426
 20
140.595904956366
 30
0.0
 41
1.0
 10
8.652419050004411
 20
140.6004753675549
 30
0.0
 41
1.0
 10
8.56171330667483
 20
141.3372620165232
 30
0.0
 41
1.0
 10
8.537389064230496
 20
141.9984914952349
 30
0.0
 41
1.0
 10
8.55288595932236
 20
142.8777616231946
 30
0.0
 41
1.0
 10
8.566819112304739
 20
143.1521296081269
 30
0.0
 41
1.0
 10
8.595952084152001
 20
143.5354342242068
 30
0.0
 41
1.0
 10
8.607042137937789
 20
143.6584960177342
 30
0.0
 41
1.0
 10
8.625193061469576
 20
143.836019278498
 30
0.0
 41
1.0
 10
8.631496442273018
 20
143.8940155210826
 30
0.0
 41
1.0
 10
8.64126591799324
 20
143.9792418481149
 30
0.0
 41
1.0
 10
8.6445748378561
 20
144.0073559537718
 30
0.0
 41
1.0
 10
8.649608951662266
 20
144.0490850321534
 30
0.0
 41
1.0
 10
8.651298780383003
 20
144.0629210451072
 30
0.0
 41
1.0
 10
8.653850236180059
 20
144.0835645364259
 30
0.0
 41
1.0
 10
8.654703507052192
 20
144.0904272788758
 30
0.0
 41
1.0
 10
8.655987470962073
 20
144.1006937595496
 30
0.0
 41
1.0
 10
8.656416135229875
 20
144.1041113142858
 30
0.0
 41
1.0
 10
8.65727479625695
 20
144.1109372125939
 30
0.0
 41
1.0
 10
8.657557075982945
 20
144.1131788739901
 30
0.0
 41
1.0
 10
8.737219158813529
 20
144.7426915856687
 30
0.0
 41
1.0
 10
8.854418982006049
 20
145.3395858765215
 30
0.0
 41
1.0
 10
9.07199679236892
 20
146.1919986188891
 30
0.0
 41
1.0
 10
9.151498507003149
 20
146.4689916992655
 30
0.0
 41
1.0
 10
9.279401400938358
 20
146.873685612542
 30
0.0
 41
1.0
 10
9.323478261409313
 20
147.0067848666088
 30
0.0
 41
1.0
 10
9.391538424104603
 20
147.2037306956437
 30
0.0
 41
1.0
 10
9.414549344537933
 20
147.2689288295075
 30
0.0
 41
1.0
 10
9.449525143565708
 20
147.3660499820604
 30
0.0
 41
1.0
 10
9.461260316458677
 20
147.3983110268547
 30
0.0
 41
1.0
 10
9.478974606388448
 20
147.4465335604434
 30
0.0
 41
1.0
 10
9.484897958378507
 20
147.4625795661735
 30
0.0
 41
1.0
 10
9.493810455125221
 20
147.4866063145458
 30
0.0
 41
1.0
 10
9.496785865530551
 20
147.494608187314
 30
0.0
 41
1.0
 10
9.502745773742237
 20
147.5105978458743
 30
0.0
 41
1.0
 10
9.505398352011571
 20
147.5176995969734
 30
0.0
 41
1.0
 10
9.724001897953693
 20
148.1013647380246
 30
0.0
 41
1.0
 10
9.976385903470671
 20
148.6761835662711
 30
0.0
 41
1.0
 10
10.41169494808455
 20
149.5365856214995
 30
0.0
 41
1.0
 10
10.56624776588102
 20
149.8230829121843
 30
0.0
 41
1.0
 10
10.81231911378058
 20
150.2521406794162
 30
0.0
 41
1.0
 10
10.89671612213592
 20
150.3950454430312
 30
0.0
 41
1.0
 10
11.02687550021858
 20
150.6092039500051
 30
0.0
 41
1.0
 10
11.07085590526822
 20
150.6805570303452
 30
0.0
 41
1.0
 10
11.13771764030209
 20
150.787533828532
 30
0.0
 41
1.0
 10
11.16015340447277
 20
150.8231839588213
 30
0.0
 41
1.0
 10
11.19402983660842
 20
150.8766455638313
 30
0.0
 41
1.0
 10
11.20535911150088
 20
150.8944638338526
 30
0.0
 41
1.0
 10
11.22809192256553
 20
150.9300957805004
 30
0.0
 41
1.0
 10
11.23989458193125
 20
150.9485307435489
 30
0.0
 41
1.0
 10
11.42716448375494
 20
151.2400825048497
 30
0.0
 41
1.0
 10
11.61168152163363
 20
151.5130705265857
 30
0.0
 41
1.0
 10
11.9005933999615
 20
151.9203190621372
 30
0.0
 41
1.0
 10
11.99891966490296
 20
152.055696704417
 30
0.0
 41
1.0
 10
12.14940655861893
 20
152.2581951829711
 30
0.0
 41
1.0
 10
12.20006841440763
 20
152.3256000442058
 30
0.0
 41
1.0
 10
12.27680582482556
 20
152.426564409359
 30
0.0
 41
1.0
 10
12.3025090646437
 20
152.4601953786658
 30
0.0
 41
1.0
 10
12.34124947736637
 20
152.510605999792
 30
0.0
 41
1.0
 10
12.35419387369059
 20
152.527403568159
 30
0.0
 41
1.0
 10
12.37365678032547
 20
152.5525909507926
 30
0.0
 41
1.0
 10
12.38015213455926
 20
152.5609852500278
 30
0.0
 41
1.0
 10
12.38990673439513
 20
152.5735744549959
 30
0.0
 41
1.0
 10
12.39316019575488
 20
152.5777704826725
 30
0.0
 41
1.0
 10
12.39967097304122
 20
152.5861617898346
 30
0.0
 41
1.0
 10
12.402403310419
 20
152.5896815012546
 30
0.0
 41
1.0
 10
12.91312713412614
 20
153.2470078555818
 30
0.0
 41
1.0
 10
13.37938571547063
 20
153.7804868225975
 30
0.0
 41
1.0
 10
13.76576374758177
 20
154.2033387849397
 30
0.0
 41
1.0
  0
SPLINE
  5
109
330
FA
100
AcDbEntity
  8
$DDT_AUDIT_GENERATED_(68)
  6
Continuous
 62
     7
100
AcDbSpline
210
0.0
220
0.0
230
1.0
 70
    12
 71
     3
 72
     8
 73
     4
 74
     0
 42
0.0000000001031395
 43
0.0000000001
 40
0.5454998460990494
 40
0.5454998460990494
 40
0.5454998460990494
 40
0.5454998460990494
 40
0.5489691026928295
 40
0.5489691026928295
 40
0.5489691026928295
 40
0.5489691026928295
 10
19.02200813380243
 20
119.5525387548429
 30
0.0
 41
1.0
 10
19.11367830565875
 20
119.4916281074399
 30
0.0
 41
1.0
 10
19.20729513176133
 20
119.4299420566406
 30
0.0
 41
1.0
 10
19.3029023727808
 20
119.3675008255839
 30
0.0
 41
1.0
  0
SPLINE
  5
10A
330
FA
100
AcDbEntity
  8
$DDT_AUDIT_GENERATED_(68)
  6
Continuous
 62
     7
100
AcDbSpline
210
0.0
220
0.0
230
1.0
 70
    12
 71
     3
 72
   200
 73
   196
 74
     0
 42
0.0000000000970405
 43
0.0000000001
 40
0.5489691026928295
 40
0.5489691026928295
 40
0.5489691026928295
 40
0.5489691026928295
 40
0.5625
 40
0.5625
 40
0.5634765624999999
 40
0.5634765624999999
 40
0.5644531249999998
 40
0.5644531249999998
 40
0.5664062499999999
 40
0.5664062499999999
 40
0.5703124999999998
 40
0.5703124999999998
 40
0.5781249999999998
 40
0.5781249999999998
 40
0.5937499999999999
 40
0.5937499999999999
 40
0.609375
 40
0.609375
 40
0.6171874999999998
 40
0.6171874999999998
 40
0.6210937499999999
 40
0.6210937499999999
 40
0.6230468749999998
 40
0.6230468749999998
 40
0.6240234374999999
 40
0.6240234374999999
 40
0.6249999999999999
 40
0.6249999999999999
 40
0.6252441406249999
 40
0.6252441406249999
 40
0.6254882812499998
 40
0.6254882812499998
 40
0.6259765625
 40
0.6259765625
 40
0.6269531249999999
 40
0.6269531249999999
 40
0.62890625
 40
0.62890625
 40
0.6328124999999999
 40
0.6328124999999999
 40
0.6406249999999999
 40
0.6406249999999999
 40
0.65625
 40
0.65625
 40
0.6718749999999999
 40
0.6718749999999999
 40
0.6796874999999999
 40
0.6796874999999999
 40
0.68359375
 40
0.68359375
 40
0.6855468749999999
 40
0.6855468749999999
 40
0.6865234375
 40
0.6865234375
 40
0.6874999999999999
 40
0.6874999999999999
 40
0.687744140625
 40
0.687744140625
 40
0.6879882812499999
 40
0.6879882812499999
 40
0.6884765625000001
 40
0.6884765625000001
 40
0.689453125
 40
0.689453125
 40
0.69140625
 40
0.69140625
 40
0.6953125
 40
0.6953125
 40
0.703125
 40
0.703125
 40
0.7187499999999999
 40
0.7187499999999999
 40
0.75
 40
0.75
 40
0.7812499999999999
 40
0.7812499999999999
 40
0.796875
 40
0.796875
 40
0.8046874999999998
 40
0.8046874999999998
 40
0.80859375
 40
0.80859375
 40
0.8105468749999998
 40
0.8105468749999998
 40
0.8115234374999999
 40
0.8115234374999999
 40
0.8120117187499999
 40
0.8120117187499999
 40
0.8124999999999999
 40
0.8124999999999999
 40
0.812744140625
 40
0.812744140625
 40
0.8129882812499998
 40
0.8129882812499998
 40
0.8134765625
 40
0.8134765625
 40
0.8144531249999999
 40
0.8144531249999999
 40
0.81640625
 40
0.81640625
 40
0.8203124999999999
 40
0.8203124999999999
 40
0.8281249999999999
 40
0.8281249999999999
 40
0.84375
 40
0.84375
 40
0.8593749999999999
 40
0.8593749999999999
 40
0.8671874999999999
 40
0.8671874999999999
 40
0.87109375
 40
0.87109375
 40
0.8730468749999999
 40
0.8730468749999999
 40
0.8740234375
 40
0.8740234375
 40
0.87451171875
 40
0.87451171875
 40
0.875
 40
0.875
 40
0.875244140625
 40
0.875244140625
 40
0.87548828125
 40
0.87548828125
 40
0.8759765625000001
 40
0.8759765625000001
 40
0.8769531250000001
 40
0.8769531250000001
 40
0.8789062500000001
 40
0.8789062500000001
 40
0.8828125000000001
 40
0.8828125000000001
 40
0.890625
 40
0.890625
 40
0.8984375
 40
0.8984375
 40
0.90234375
 40
0.90234375
 40
0.9042968749999999
 40
0.9042968749999999
 40
0.9052734375
 40
0.9052734375
 40
0.90576171875
 40
0.90576171875
 40
0.90625
 40
0.90625
 40
0.906494140625
 40
0.906494140625
 40
0.90673828125
 40
0.90673828125
 40
0.9072265625
 40
0.9072265625
 40
0.908203125
 40
0.908203125
 40
0.91015625
 40
0.91015625
 40
0.9140625
 40
0.9140625
 40
0.9218750000000001
 40
0.9218750000000001
 40
0.9296875000000001
 40
0.9296875000000001
 40
0.93359375
 40
0.93359375
 40
0.9355468750000001
 40
0.9355468750000001
 40
0.9365234375
 40
0.9365234375
 40
0.93701171875
 40
0.93701171875
 40
0.937255859375
 40
0.937255859375
 40
0.9373779296875001
 40
0.9373779296875001
 40
0.9375
 40
0.9375
 40
0.9376220703125
 40
0.9376220703125
 40
0.937744140625
 40
0.937744140625
 40
0.9379882812500001
 40
0.9379882812500001
 40
0.9384765625000001
 40
0.9384765625000001
 40
0.939453125
 40
0.939453125
 40
0.94140625
 40
0.94140625
 40
0.9453125
 40
0.9453125
 40
0.953125
 40
0.953125
 40
0.9687500000000001
 40
0.9687500000000001
 40
1.0
 40
1.0
 40
1.0
 40
1.0
 10
19.30290237278079
 20
119.3675008255839
 30
0.0
 41
1.0
 10
19.67579256556032
 20
119.1239656870542
 30
0.0
 41
1.0
 10
20.07896053414918
 20
118.8689429042467
 30
0.0
 41
1.0
 10
20.5464729434873
 20
118.5844841014477
 30
0.0
 41
1.0
 10
20.57530594080566
 20
118.5669878780891
 30
0.0
 41
1.0
 10
20.63539388117226
 20
118.5306141339679
 30
0.0
 41
1.0
 10
20.66537809341681
 20
118.5125098305755
 30
0.0
 41
1.0
 10
20.75514832236927
 20
118.4584436086879
 30
0.0
 41
1.0
 10
20.81475192098901
 20
118.4227283780783
 30
0.0
 41
1.0
 10
20.9928083617422
 20
118.3165613055276
 30
0.0
 41
1.0
 10
21.11050668363947
 20
118.2470880757021
 30
0.0
 41
1.0
 10
21.46039218612258
 20
118.0425179875306
 30
0.0
 41
1.0
 10
21.68936732415461
 20
117.9112705527462
 30
0.0
 41
1.0
 10
22.36200901312352
 20
117.532412331959
 30
0.0
 41
1.0
 10
22.79135288393572
 20
117.2996807950446
 30
0.0
 41
1.0
 10
23.60516897049715
 20
116.8712479023632
 30
0.0
 41
1.0
 10
23.98964401006887
 20
116.6755443475588
 30
0.0
 41
1.0
 10
24.52858815188793
 20
116.4079056906879
 30
0.0
 41
1.0
 10
24.7019506394727
 20
116.3230138838885
 30
0.0
 41
1.0
 10
24.9521321390424
 20
116.2019422626081
 30
0.0
 41
1.0
 10
25.03388282075692
 20
116.1626295222361
 30
0.0
 41
1.0
 10
25.15399486172315
 20
116.1052012549874
 30
0.0
 41
1.0
 10
25.19361324648554
 20
116.0863153139993
 30
0.0
 41
1.0
 10
25.252406536084
 20
116.0583684610412
 30
0.0
 41
1.0
 10
25.27189858692311
 20
116.0491165202489
 30
0.0
 41
1.0
 10
25.31067031598228
 20
116.0307394708509
 30
0.0
 41
1.0
 10
25.32866001567582
 20
116.022224060695
 30
0.0
 41
1.0
 10
25.35423877251754
 20
116.0101344982137
 30
0.0
 41
1.0
 10
25.36255886212389
 20
116.0062036359392
 30
0.0
 41
1.0
 10
25.37619591710933
 20
115.9997645919038
 30
0.0
 41
1.0
 10
25.38301571752053
 20
115.9965460791379
 30
0.0
 41
1.0
 10
25.40347893356298
 20
115.9868935691139
 30
0.0
 41
1.0
 10
25.41712616400861
 20
115.9804626001274
 30
0.0
 41
1.0
 10
25.45808308307339
 20
115.9611818103697
 30
0.0
 41
1.0
 10
25.48540799942696
 20
115.9483441068028
 30
0.0
 41
1.0
 10
25.56744340752845
 20
115.9098794974575
 30
0.0
 41
1.0
 10
25.62221455824039
 20
115.8843010931669
 30
0.0
 41
1.0
 10
25.78676863510798
 20
115.8077601410594
 30
0.0
 41
1.0
 10
25.89679218430967
 20
115.7569918563522
 30
0.0
 41
1.0
 10
26.22780929800778
 20
115.605466006653
 30
0.0
 41
1.0
 10
26.44974929953197
 20
115.5054874842531
 30
0.0
 41
1.0
 10
27.11922788235346
 20
115.2086823133228
 30
0.0
 41
1.0
 10
27.57042455406306
 20
115.0149866703884
 30
0.0
 41
1.0
 10
28.48190617055524
 20
114.6360057418289
 30
0.0
 41
1.0
 10
28.9421911270517
 20
114.4507204328048
 30
0.0
 41
1.0
 10
29.63894612383168
 20
114.1791318720698
 30
0.0
 41
1.0
 10
29.87225250279461
 20
114.0896587710347
 30
0.0
 41
1.0
 10
30.22373409236189
 20
113.9570364150602
 30
0.0
 41
1.0
 10
30.34114829937428
 20
113.9130935035618
 30
0.0
 41
1.0
 10
30.51764267998025
 20
113.8475762031508
 30
0.0
 41
1.0
 10
30.57653631895369
 20
113.8258032802858
 30
0.0
 41
1.0
 10
30.66496911846378
 20
113.7932431892166
 30
0.0
 41
1.0
 10
30.6944621085083
 20
113.7824063743625
 30
0.0
 41
1.0
 10
30.75347871477323
 20
113.7607658464997
 30
0.0
 41
1.0
 10
30.78386151898586
 20
113.7496483686871
 30
0.0
 41
1.0
 10
30.81971109939044
 20
113.7365566245174
 30
0.0
 41
1.0
 10
30.82337875297011
 20
113.7352180009029
 30
0.0
 41
1.0
 10
30.83407533825338
 20
113.7313146877376
 30
0.0
 41
1.0
 10
30.83943247481637
 20
113.7293605283836
 30
0.0
 41
1.0
 10
30.85553043555102
 20
113.7234905548679
 30
0.0
 41
1.0
 10
30.86629781071447
 20
113.719567245267
 30
0.0
 41
1.0
 10
30.89870629447915
 20
113.7077674384092
 30
0.0
 41
1.0
 10
30.92045376113373
 20
113.6998610628805
 30
0.0
 41
1.0
 10
30.98612283156979
 20
113.6760232636813
 30
0.0
 41
1.0
 10
31.03047110355228
 20
113.6599731630558
 30
0.0
 41
1.0
 10
31.16523257210875
 20
113.6113550420218
 30
0.0
 41
1.0
 10
31.25736238672355
 20
113.5783191319128
 30
0.0
 41
1.0
 10
31.54069937196409
 20
113.4773975521424
 30
0.0
 41
1.0
 10
31.73885354531443
 20
113.4076969116603
 30
0.0
 41
1.0
 10
32.36177246072817
 20
113.1918379431026
 30
0.0
 41
1.0
 10
32.81498678536421
 20
113.0389044989213
 30
0.0
 41
1.0
 10
34.29405961224973
 20
112.5576835392201
 30
0.0
 41
1.0
 10
35.43936326483585
 20
112.2066665873076
 30
0.0
 41
1.0
 10
38.07982083700419
 20
111.4762316698729
 30
0.0
 41
1.0
 10
39.28579725343547
 20
111.1768072181254
 30
0.0
 41
1.0
 10
40.89423258269703
 20
110.8041527893718
 30
0.0
 41
1.0
 10
41.39709947383665
 20
110.6927194081743
 30
0.0
 41
1.0
 10
42.0988549944015
 20
110.542385943575
 30
0.0
 41
1.0
 10
42.3240219659808
 20
110.4950807482335
 30
0.0
 41
1.0
 10
42.64836358912165
 20
110.4280669489434
 30
0.0
 41
1.0
 10
42.75424294858208
 20
110.4063865646845
 30
0.0
 41
1.0
 10
42.90967738181359
 20
110.3748211936995
 30
0.0
 41
1.0
 10
42.96092477361854
 20
110.3644586183771
 30
0.0
 41
1.0
 10
43.03694575339188
 20
110.3491498174973
 30
0.0
 41
1.0
 10
43.06214439618591
 20
110.3440860617663
 30
0.0
 41
1.0
 10
43.09972934428195
 20
110.3365487332312
 30
0.0
 41
1.0
 10
43.112222157699
 20
110.3340460079391
 30
0.0
 41
1.0
 10
43.13713669807935
 20
110.3290599162188
 30
0.0
 41
1.0
 10
43.14826523738471
 20
110.3268348253758
 30
0.0
 41
1.0
 10
43.1687842339499
 20
110.3227368245807
 30
0.0
 41
1.0
 10
43.17822812446512
 20
110.3208518104254
 30
0.0
 41
1.0
 10
43.19461659584908
 20
110.3175831696192
 30
0.0
 41
1.0
 10
43.20281283327976
 20
110.3159495587893
 30
0.0
 41
1.0
 10
43.22740754996978
 20
110.3110508581924
 30
0.0
 41
1.0
 10
43.24381203363277
 20
110.3077879003188
 30
0.0
 41
1.0
 10
43.29304949563938
 20
110.2980075796814
 30
0.0
 41
1.0
 10
43.32590648503869
 20
110.2914987698953
 30
0.0
 41
1.0
 10
43.42457344363694
 20
110.2720067560857
 30
0.0
 41
1.0
 10
43.49047940374425
 20
110.2590579674694
 30
0.0
 41
1.0
 10
43.68858079941634
 20
110.2203508977455
 30
0.0
 41
1.0
 10
43.82115975824999
 20
110.1947319104297
 30
0.0
 41
1.0
 10
44.22042685502861
 20
110.1184452851346
 30
0.0
 41
1.0
 10
44.48864534068819
 20
110.0683479463629
 30
0.0
 41
1.0
 10
45.29938658147346
 20
109.9204437867502
 30
0.0
 41
1.0
 10
45.84799717356368
 20
109.8250242323856
 30
0.0
 41
1.0
 10
46.96121292004281
 20
109.6411345089677
 30
0.0
 41
1.0
 10
47.52581804859159
 20
109.5526643730687
 30
0.0
 41
1.0
 10
48.38449391314566
 20
109.4256223188293
 30
0.0
 41
1.0
 10
48.67268005509044
 20
109.3842189671747
 30
0.0
 41
1.0
 10
49.10786757438755
 20
109.3235875413595
 30
0.0
 41
1.0
 10
49.25341476761302
 20
109.3036226745394
 30
0.0
 41
1.0
 10
49.47245818982819
 20
109.2740510585612
 30
0.0
 41
1.0
 10
49.54559310073978
 20
109.2642564677619
 30
0.0
 41
1.0
 10
49.6554755556001
 20
109.2496594165684
 30
0.0
 41
1.0
 10
49.69213305519032
 20
109.2448095387018
 30
0.0
 41
1.0
 10
49.74716425461976
 20
109.2375585451092
 30
0.0
 41
1.0
 10
49.76551547943264
 20
109.235145517782
 30
0.0
 41
1.0
 10
49.8022329003187
 20
109.2303274232902
 30
0.0
 41
1.0
 10
49.82205074965351
 20
109.2277326499715
 30
0.0
 41
1.0
 10
49.84743378323127
 20
109.2244155929084
 30
0.0
 41
1.0
 10
49.85303866398141
 20
109.2236838722503
 30
0.0
 41
1.0
 10
49.86707709636591
 20
109.2218522286779
 30
0.0
 41
1.0
 10
49.87411170935172
 20
109.2209351227436
 30
0.0
 41
1.0
 10
49.89526174699632
 20
109.2181799794934
 30
0.0
 41
1.0
 10
49.90942337031338
 20
109.2163381167254
 30
0.0
 41
1.0
 10
49.95209310208655
 20
109.2107974441152
 30
0.0
 41
1.0
 10
49.98078607204528
 20
109.2070835494352
 30
0.0
 41
1.0
 10
50.06760497696197
 20
109.1958832883202
 30
0.0
 41
1.0
 10
50.12647090278833
 20
109.1883383352862
 30
0.0
 41
1.0
 10
50.30603320166499
 20
109.165483579115
 30
0.0
 41
1.0
 10
50.42969405095135
 20
109.149953721541
 30
0.0
 41
1.0
 10
50.81257302893982
 20
109.1026052176132
 30
0.0
 41
1.0
 10
51.08368741956995
 20
109.0700250374394
 30
0.0
 41
1.0
 10
51.65785639765416
 20
109.0035430592589
 30
0.0
 41
1.0
 10
51.96091159730457
 20
108.9696411790804
 30
0.0
 41
1.0
 10
52.43961177901711
 20
108.9183907475336
 30
0.0
 41
1.0
 10
52.60319799970044
 20
108.9012416678269
 30
0.0
 41
1.0
 10
52.85462557854196
 20
108.8754999145037
 30
0.0
 41
1.0
 10
52.9394428019364
 20
108.8669163501829
 30
0.0
 41
1.0
 10
53.06818294518135
 20
108.8540469504837
 30
0.0
 41
1.0
 10
53.11134871008212
 20
108.8497581444024
 30
0.0
 41
1.0
 10
53.17647620762546
 20
108.8433277521046
 30
0.0
 41
1.0
 10
53.1982485151111
 20
108.8411847576537
 30
0.0
 41
1.0
 10
53.24191945835642
 20
108.8368999310524
 30
0.0
 41
1.0
 10
53.26209353973138
 20
108.8349262371035
 30
0.0
 41
1.0
 10
53.29762310451129
 20
108.8314623216225
 30
0.0
 41
1.0
 10
53.31260368346388
 20
108.8300043708551
 30
0.0
 41
1.0
 10
53.3393894317818
 20
108.827403132917
 30
0.0
 41
1.0
 10
53.35274856116045
 20
108.8261083389405
 30
0.0
 41
1.0
 10
53.39272466401092
 20
108.8222413192556
 30
0.0
 41
1.0
 10
53.41924035204339
 20
108.819686455569
 30
0.0
 41
1.0
 10
53.49838187389605
 20
108.8120904171703
 30
0.0
 41
1.0
 10
53.55060216263585
 20
108.8071177921391
 30
0.0
 41
1.0
 10
53.70563775230974
 20
108.7924670569177
 30
0.0
 41
1.0
 10
53.80682773261519
 20
108.7830560397186
 30
0.0
 41
1.0
 10
54.10387327824871
 20
108.7558365842221
 30
0.0
 41
1.0
 10
54.29320380261727
 20
108.7390409823605
 30
0.0
 41
1.0
 10
54.83493509649657
 20
108.6922947900275
 30
0.0
 41
1.0
 10
55.16106662140277
 20
108.6659723638207
 30
0.0
 41
1.0
 10
55.74266015352394
 20
108.6211110483436
 30
0.0
 41
1.0
 10
55.99812134341047
 20
108.6025720054635
 30
0.0
 41
1.0
 10
56.32806370912889
 20
108.57947601143
 30
0.0
 41
1.0
 10
56.42917171038268
 20
108.572565931852
 30
0.0
 41
1.0
 10
56.56752230876803
 20
108.5632710494678
 30
0.0
 41
1.0
 10
56.61142084886249
 20
108.5603513202507
 30
0.0
 41
1.0
 10
56.67394409227909
 20
108.5562271648839
 30
0.0
 41
1.0
 10
56.69423110649915
 20
108.554895030702
 30
0.0
 41
1.0
 10
56.7238312065959
 20
108.5529592526302
 30
0.0
 41
1.0
 10
56.73355950549457
 20
108.552324397753
 30
0.0
 41
1.0
 10
56.74794446293098
 20
108.5513875463214
 30
0.0
 41
1.0
 10
56.75270486704472
 20
108.5510778343414
 30
0.0
 41
1.0
 10
56.75979361649878
 20
108.5506171025154
 30
0.0
 41
1.0
 10
56.76214789017008
 20
108.5504641645885
 30
0.0
 41
1.0
 10
56.76683915477762
 20
108.5501595638817
 30
0.0
 41
1.0
 10
56.76789578809809
 20
108.5500909559751
 30
0.0
 41
1.0
 10
56.77511320513722
 20
108.5496227921942
 30
0.0
 41
1.0
 10
56.78166987589002
 20
108.5491978600896
 30
0.0
 41
1.0
 10
56.79193032767289
 20
108.5485337767914
 30
0.0
 41
1.0
 10
56.79705956118266
 20
108.5482021652145
 30
0.0
 41
1.0
 10
56.8124442837029
 20
108.5472086194069
 30
0.0
 41
1.0
 10
56.82269679470841
 20
108.5465479740955
 30
0.0
 41
1.0
 10
56.85344240884169
 20
108.5445711834756
 30
0.0
 41
1.0
 10
56.87392359308603
 20
108.5432601834728
 30
0.0
 41
1.0
 10
56.9353194157861
 20
108.5393476817755
 30
0.0
 41
1.0
 10
56.97618632408597
 20
108.5367666783525
 30
0.0
 41
1.0
 10
57.09859569779844
 20
108.5291049986947
 30
0.0
 41
1.0
 10
57.17994680980166
 20
108.5241056526177
 30
0.0
 41
1.0
 10
57.42323137137358
 20
108.509427650296
 30
0.0
 41
1.0
 10
57.58439601142555
 20
108.5000690227909
 30
0.0
 41
1.0
 10
58.06478911256602
 20
108.4732312303421
 30
0.0
 41
1.0
 10
58.38091622544537
 20
108.4569900317809
 30
0.0
 41
1.0
 10
59.31670750321345
 20
108.4128864177289
 30
0.0
 41
1.0
 10
59.92377412734716
 20
108.3896417032588
 30
0.0
 41
1.0
 10
61.69339899765945
 20
108.3358005449887
 30
0.0
 41
1.0
 10
62.80433703937059
 20
108.3210520688376
 30
0.0
 41
1.0
 10
63.8444486864313
 20
108.3210519918691
 30
0.0
 41
1.0
  0
ELLIPSE
  5
10B
330
FA
100
AcDbEntity
  8
$DDT_AUDIT_GENERATED_(68)
  6
Continuous
 62
     7
100
AcDbEllipse
 10
31.2590007903
 20
162.1633682634
 30
0.0
 11
2.2035936254666
 21
-3.5183811843932
 31
0.0
210
0.0
220
0.0
230
1.0
 40
0.5396403188
 41
3.157203329095351
 42
3.252462804891181
  0
SPLINE
  5
10C
330
FA
100
AcDbEntity
  8
$DDT_AUDIT_GENERATED_(68)
  6
Continuous
 62
     7
100
AcDbSpline
210
0.0
220
0.0
230
1.0
 70
    12
 71
     3
 72
   414
 73
   410
 74
     0
 42
0.000000000222203
 43
0.0000000001
 40
0.0
 40
0.0
 40
0.0
 40
0.0
 40
0.0020705589698746
 40
0.0020705589698746
 40
0.0031058384548119
 40
0.0031058384548119
 40
0.0041411179397491
 40
0.0041411179397491
 40
0.0082822358794981
 40
0.0082822358794981
 40
0.0103527948493726
 40
0.0103527948493726
 40
0.0108704345918413
 40
0.0108704345918413
 40
0.0113880743343099
 40
0.0113880743343099
 40
0.0124233538192471
 40
0.0124233538192471
 40
0.0165644717589961
 40
0.0165644717589961
 40
0.0248467076384942
 40
0.0248467076384942
 40
0.0331289435179922
 40
0.0331289435179922
 40
0.0372700614577412
 40
0.0372700614577412
 40
0.0414111793974902
 40
0.0414111793974902
 40
0.0455522973372392
 40
0.0455522973372392
 40
0.0476228563071137
 40
0.0476228563071137
 40
0.048658135792051
 40
0.048658135792051
 40
0.0496934152769883
 40
0.0496934152769883
 40
0.0579756511564865
 40
0.0579756511564865
 40
0.0662578870359845
 40
0.0662578870359845
 40
0.0703990049757335
 40
0.0703990049757335
 40
0.072469563945608
 40
0.072469563945608
 40
0.0735048434305452
 40
0.0735048434305452
 40
0.0745401229154825
 40
0.0745401229154825
 40
0.0828223587949806
 40
0.0828223587949806
 40
0.0911045946744788
 40
0.0911045946744788
 40
0.0952457126142278
 40
0.0952457126142278
 40
0.0973162715841023
 40
0.0973162715841023
 40
0.0978339113265709
 40
0.0978339113265709
 40
0.0983515510690395
 40
0.0983515510690395
 40
0.0993868305539768
 40
0.0993868305539768
 40
0.100422110038914
 40
0.100422110038914
 40
0.1014573895238513
 40
0.1014573895238513
 40
0.1035279484937258
 40
0.1035279484937258
 40
0.1076690664334748
 40
0.1076690664334748
 40
0.1159513023129729
 40
0.1159513023129729
 40
0.120092420252722
 40
0.120092420252722
 40
0.1242335381924711
 40
0.1242335381924711
 40
0.1325157740719691
 40
0.1325157740719691
 40
0.1407980099514671
 40
0.1407980099514671
 40
0.1490802458309652
 40
0.1490802458309652
 40
0.1573624817104634
 40
0.1573624817104634
 40
0.1656447175899614
 40
0.1656447175899614
 40
0.1739269534694594
 40
0.1739269534694594
 40
0.1759975124393339
 40
0.1759975124393339
 40
0.1770327919242712
 40
0.1770327919242712
 40
0.1780680714092084
 40
0.1780680714092084
 40
0.1791033508941456
 40
0.1791033508941456
 40
0.1801386303790829
 40
0.1801386303790829
 40
0.1822091893489575
 40
0.1822091893489575
 40
0.1987736611079537
 40
0.1987736611079537
 40
0.2029147790477027
 40
0.2029147790477027
 40
0.2039500585326399
 40
0.2039500585326399
 40
0.2044676982751086
 40
0.2044676982751086
 40
0.2049853380175772
 40
0.2049853380175772
 40
0.2070558969874517
 40
0.2070558969874517
 40
0.2153381328669498
 40
0.2153381328669498
 40
0.2236203687464479
 40
0.2236203687464479
 40
0.2277614866861969
 40
0.2277614866861969
 40
0.2298320456560715
 40
0.2298320456560715
 40
0.231902604625946
 40
0.231902604625946
 40
0.236043722565695
 40
0.236043722565695
 40
0.240184840505444
 40
0.240184840505444
 40
0.2484670763849421
 40
0.2484670763849421
 40
0.2526081943246912
 40
0.2526081943246912
 40
0.2567493122644403
 40
0.2567493122644403
 40
0.2650315481439383
 40
0.2650315481439383
 40
0.2733137840234363
 40
0.2733137840234363
 40
0.2774549019631853
 40
0.2774549019631853
 40
0.2815960199029344
 40
0.2815960199029344
 40
0.2981604916619305
 40
0.2981604916619305
 40
0.3064427275414286
 40
0.3064427275414286
 40
0.3105838454811776
 40
0.3105838454811776
 40
0.3147249634209267
 40
0.3147249634209267
 40
0.3230071993004248
 40
0.3230071993004248
 40
0.3271483172401738
 40
0.3271483172401738
 40
0.3292188762100484
 40
0.3292188762100484
 40
0.3302541556949856
 40
0.3302541556949856
 40
0.3312894351799229
 40
0.3312894351799229
 40
0.3354305531196718
 40
0.3354305531196718
 40
0.3395716710594209
 40
0.3395716710594209
 40
0.3437127889991699
 40
0.3437127889991699
 40
0.3457833479690444
 40
0.3457833479690444
 40
0.347853906938919
 40
0.347853906938919
 40
0.3644183786979152
 40
0.3644183786979152
 40
0.3809828504569112
 40
0.3809828504569112
 40
0.3851239683966602
 40
0.3851239683966602
 40
0.3871945273665347
 40
0.3871945273665347
 40
0.3892650863364092
 40
0.3892650863364092
 40
0.3903003658213465
 40
0.3903003658213465
 40
0.3913356453062837
 40
0.3913356453062837
 40
0.3934062042761582
 40
0.3934062042761582
 40
0.3975473222159073
 40
0.3975473222159073
 40
0.4306762657338995
 40
0.4306762657338995
 40
0.432746824703774
 40
0.432746824703774
 40
0.4337821041887113
 40
0.4337821041887113
 40
0.4342997439311799
 40
0.4342997439311799
 40
0.4348173836736485
 40
0.4348173836736485
 40
0.4389585016133976
 40
0.4389585016133976
 40
0.4472407374928957
 40
0.4472407374928957
 40
0.4493112964627703
 40
0.4493112964627703
 40
0.4513818554326448
 40
0.4513818554326448
 40
0.4555229733723938
 40
0.4555229733723938
 40
0.4575935323422683
 40
0.4575935323422683
 40
0.4596640913121428
 40
0.4596640913121428
 40
0.4638052092518918
 40
0.4638052092518918
 40
0.4720874451313898
 40
0.4720874451313898
 40
0.4762285630711388
 40
0.4762285630711388
 40
0.4782991220410133
 40
0.4782991220410133
 40
0.4793344015259506
 40
0.4793344015259506
 40
0.480369681010888
 40
0.480369681010888
 40
0.4969341527698841
 40
0.4969341527698841
 40
0.5134986245288803
 40
0.5134986245288803
 40
0.5217808604083782
 40
0.5217808604083782
 40
0.5259219783481274
 40
0.5259219783481274
 40
0.526439618090596
 40
0.526439618090596
 40
0.5269572578330647
 40
0.5269572578330647
 40
0.5279925373180019
 40
0.5279925373180019
 40
0.5300630962878764
 40
0.5300630962878764
 40
0.5383453321673746
 40
0.5383453321673746
 40
0.5424864501071236
 40
0.5424864501071236
 40
0.5435217295920608
 40
0.5435217295920608
 40
0.544557009076998
 40
0.544557009076998
 40
0.5466275680468725
 40
0.5466275680468725
 40
0.5631920398058687
 40
0.5631920398058687
 40
0.5714742756853668
 40
0.5714742756853668
 40
0.5735448346552413
 40
0.5735448346552413
 40
0.5756153936251158
 40
0.5756153936251158
 40
0.5797565115648649
 40
0.5797565115648649
 40
0.5880387474443629
 40
0.5880387474443629
 40
0.5921798653841118
 40
0.5921798653841118
 40
0.5942504243539863
 40
0.5942504243539863
 40
0.5963209833238609
 40
0.5963209833238609
 40
0.6128854550828571
 40
0.6128854550828571
 40
0.617026573022606
 40
0.617026573022606
 40
0.6190971319924805
 40
0.6190971319924805
 40
0.6211676909623551
 40
0.6211676909623551
 40
0.6294499268418532
 40
0.6294499268418532
 40
0.6377321627213512
 40
0.6377321627213512
 40
0.6418732806611003
 40
0.6418732806611003
 40
0.6439438396309748
 40
0.6439438396309748
 40
0.6460143986008493
 40
0.6460143986008493
 40
0.6625788703598455
 40
0.6625788703598455
 40
0.6646494293297199
 40
0.6646494293297199
 40
0.6656847088146572
 40
0.6656847088146572
 40
0.6667199882995944
 40
0.6667199882995944
 40
0.6708611062393435
 40
0.6708611062393435
 40
0.6791433421188416
 40
0.6791433421188416
 40
0.6957078138778378
 40
0.6957078138778378
 40
0.7039900497573358
 40
0.7039900497573358
 40
0.708131167697085
 40
0.708131167697085
 40
0.7102017266669595
 40
0.7102017266669595
 40
0.7112370061518967
 40
0.7112370061518967
 40
0.7122722856368339
 40
0.7122722856368339
 40
0.720554521516332
 40
0.720554521516332
 40
0.7246956394560811
 40
0.7246956394560811
 40
0.7267661984259556
 40
0.7267661984259556
 40
0.7278014779108928
 40
0.7278014779108928
 40
0.7288367573958301
 40
0.7288367573958301
 40
0.7454012291548262
 40
0.7454012291548262
 40
0.7536834650343244
 40
0.7536834650343244
 40
0.7557540240041989
 40
0.7557540240041989
 40
0.7578245829740734
 40
0.7578245829740734
 40
0.7619657009138223
 40
0.7619657009138223
 40
0.7785301726728184
 40
0.7785301726728184
 40
0.7868124085523165
 40
0.7868124085523165
 40
0.7909535264920655
 40
0.7909535264920655
 40
0.7930240854619401
 40
0.7930240854619401
 40
0.7940593649468775
 40
0.7940593649468775
 40
0.7950946444318147
 40
0.7950946444318147
 40
0.796129923916752
 40
0.796129923916752
 40
0.7971652034016892
 40
0.7971652034016892
 40
0.7992357623715637
 40
0.7992357623715637
 40
0.8033768803113127
 40
0.8033768803113127
 40
0.8116591161908107
 40
0.8116591161908107
 40
0.8199413520703088
 40
0.8199413520703088
 40
0.828223587949807
 40
0.828223587949807
 40
0.8365058238293049
 40
0.8365058238293049
 40
0.8385763827991795
 40
0.8385763827991795
 40
0.840646941769054
 40
0.840646941769054
 40
0.844788059708803
 40
0.844788059708803
 40
0.8613525314677991
 40
0.8613525314677991
 40
0.8779170032267953
 40
0.8779170032267953
 40
0.8789522827117325
 40
0.8789522827117325
 40
0.8799875621966698
 40
0.8799875621966698
 40
0.8820581211665443
 40
0.8820581211665443
 40
0.8861992391062933
 40
0.8861992391062933
 40
0.8944814749857914
 40
0.8944814749857914
 40
0.9027637108652896
 40
0.9027637108652896
 40
0.9069048288050385
 40
0.9069048288050385
 40
0.908975387774913
 40
0.908975387774913
 40
0.9100106672598504
 40
0.9100106672598504
 40
0.9110459467447876
 40
0.9110459467447876
 40
0.9151870646845366
 40
0.9151870646845366
 40
0.9172576236544111
 40
0.9172576236544111
 40
0.9193281826242856
 40
0.9193281826242856
 40
0.9276104185037838
 40
0.9276104185037838
 40
0.9441748902627799
 40
0.9441748902627799
 40
0.952457126142278
 40
0.952457126142278
 40
0.9545276851121524
 40
0.9545276851121524
 40
0.9565982440820269
 40
0.9565982440820269
 40
0.960739362021776
 40
0.960739362021776
 40
0.9773038337807721
 40
0.9773038337807721
 40
0.9938683055397683
 40
0.9938683055397683
 40
1.0
 40
1.0
 40
1.0
 40
1.0
 10
29.38367956181897
 20
165.8256089481777
 30
0.0
 41
1.0
 10
29.45719425828049
 20
165.8721455530265
 30
0.0
 41
1.0
 10
29.53068564373854
 20
165.9186506657054
 30
0.0
 41
1.0
 10
29.64084108699747
 20
165.9883534496493
 30
0.0
 41
1.0
 10
29.67754596258922
 20
166.0115785591562
 30
0.0
 41
1.0
 10
29.75092630530359
 20
166.0580107579254
 30
0.0
 41
1.0
 10
29.78355893738295
 20
166.0786548558954
 30
0.0
 41
1.0
 10
29.95272718530727
 20
166.1856808160019
 30
0.0
 41
1.0
 10
30.08836854500196
 20
166.2714970142263
 30
0.0
 41
1.0
 10
30.29272022835204
 20
166.4008553789942
 30
0.0
 41
1.0
 10
30.36098523016583
 20
166.4440801948872
 30
0.0
 41
1.0
 10
30.44654196601851
 20
166.4982759578315
 30
0.0
 41
1.0
 10
30.46366457635408
 20
166.5091233408214
 30
0.0
 41
1.0
 10
30.49793329881386
 20
166.5308353670454
 30
0.0
 41
1.0
 10
30.51764629649472
 20
166.5433355492462
 30
0.0
 41
1.0
 10
30.57573565398076
 20
166.5801736134454
 30
0.0
 41
1.0
 10
30.61453716275358
 20
166.6047878442314
 30
0.0
 41
1.0
 10
30.80888696436128
 20
166.7281196935989
 30
0.0
 41
1.0
 10
30.96546001383189
 20
166.8276185682698
 30
0.0
 41
1.0
 10
31.43719887954063
 20
167.1279871971436
 30
0.0
 41
1.0
 10
31.75436267001108
 20
167.3307228773799
 30
0.0
 41
1.0
 10
32.38788706671131
 20
167.7380242995396
 30
0.0
 41
1.0
 10
32.7042168946626
 20
167.9425817471976
 30
0.0
 41
1.0
 10
33.17425366086569
 20
168.248635309165
 30
0.0
 41
1.0
 10
33.33020067918706
 20
168.350525757393
 30
0.0
 41
1.0
 10
33.64012832999088
 20
168.5537357793324
 30
0.0
 41
1.0
 10
33.79160591109291
 20
168.6533788762968
 30
0.0
 41
1.0
 10
34.1090830274932
 20
168.8631145666855
 30
0.0
 41
1.0
 10
34.26732614141429
 20
168.9680500033592
 30
0.0
 41
1.0
 10
34.50293004855708
 20
169.1248605769912
 30
0.0
 41
1.0
 10
34.58107733450469
 20
169.1769685576248
 30
0.0
 41
1.0
 10
34.69750694275862
 20
169.2547400898996
 30
0.0
 41
1.0
 10
34.73231808002912
 20
169.2779860076561
 30
0.0
 41
1.0
 10
34.80587127016328
 20
169.3271742701874
 30
0.0
 41
1.0
 10
34.8430331708221
 20
169.3520503960771
 30
0.0
 41
1.0
 10
35.18056758208273
 20
169.5782201794725
 30
0.0
 41
1.0
 10
35.50223282187748
 20
169.7953723088409
 30
0.0
 41
1.0
 10
36.15212290997345
 20
170.2363727552097
 30
0.0
 41
1.0
 10
36.48003765224085
 20
170.4600974578233
 30
0.0
 41
1.0
 10
36.95185006096865
 20
170.7833626602226
 30
0.0
 41
1.0
 10
37.1058222781304
 20
170.8890899462326
 30
0.0
 41
1.0
 10
37.32934213115318
 20
171.0428581452116
 30
0.0
 41
1.0
 10
37.40261386514455
 20
171.093313612173
 30
0.0
 41
1.0
 10
37.51041686299477
 20
171.1676128226343
 30
0.0
 41
1.0
 10
37.55150812153713
 20
171.1960177599646
 30
0.0
 41
1.0
 10
37.63065338930921
 20
171.2507378760542
 30
0.0
 41
1.0
 10
37.67024377863343
 20
171.2781309011512
 30
0.0
 41
1.0
 10
38.02675200000408
 20
171.5249984043818
 30
0.0
 41
1.0
 10
38.34531177397158
 20
171.7469222351691
 30
0.0
 41
1.0
 10
38.98602890375086
 20
172.1977199316081
 30
0.0
 41
1.0
 10
39.30800736456047
 20
172.4265122661054
 30
0.0
 41
1.0
 10
39.7901407869323
 20
172.7745007215889
 30
0.0
 41
1.0
 10
39.95069105925292
 20
172.8912851149871
 30
0.0
 41
1.0
 10
40.19077010430313
 20
173.0675577176701
 30
0.0
 41
1.0
 10
40.27067193216536
 20
173.126497877266
 30
0.0
 41
1.0
 10
40.37034390903407
 20
173.2003941145811
 30
0.0
 41
1.0
 10
40.39137862077752
 20
173.2160278567081
 30
0.0
 41
1.0
 10
40.42878278696439
 20
173.2437906932273
 30
0.0
 41
1.0
 10
40.44744467099079
 20
173.2576584091619
 30
0.0
 41
1.0
 10
40.50331411478251
 20
173.2992241797263
 30
0.0
 41
1.0
 10
40.54040545248122
 20
173.3268848415526
 30
0.0
 41
1.0
 10
40.61430183839235
 20
173.3821266394144
 30
0.0
 41
1.0
 10
40.64902421636582
 20
173.4081110181911
 30
0.0
 41
1.0
 10
40.71853967492518
 20
173.4602556476098
 30
0.0
 41
1.0
 10
40.75323782243946
 20
173.4863458211368
 30
0.0
 41
1.0
 10
40.85712425188944
 20
173.5646519815146
 30
0.0
 41
1.0
 10
40.92610398308199
 20
173.6169034578161
 30
0.0
 41
1.0
 10
41.13199008082646
 20
173.7736591070104
 30
0.0
 41
1.0
 10
41.26782819930794
 20
173.8781581367132
 30
0.0
 41
1.0
 10
41.6697430631835
 20
174.1906634733655
 30
0.0
 41
1.0
 10
41.93019633178247
 20
174.3976617304966
 30
0.0
 41
1.0
 10
42.30706152851079
 20
174.7034814211447
 30
0.0
 41
1.0
 10
42.43039989197631
 20
174.804651147114
 30
0.0
 41
1.0
 10
42.67217338962335
 20
175.0050567533305
 30
0.0
 41
1.0
 10
42.79003526929552
 20
175.1037895867614
 30
0.0
 41
1.0
 10
43.13962253361758
 20
175.3999138734927
 30
0.0
 41
1.0
 10
43.36248987417493
 20
175.5929072059383
 30
0.0
 41
1.0
 10
43.79657465845174
 20
175.9788491323091
 30
0.0
 41
1.0
 10
44.00491048347497
 20
176.1698458790218
 30
0.0
 41
1.0
 10
44.41323806653966
 20
176.5537988068004
 30
0.0
 41
1.0
 10
44.61312360593515
 20
176.746737094617
 30
0.0
 41
1.0
 10
45.00053757868189
 20
177.1335326658624
 30
0.0
 41
1.0
 10
45.18161430781885
 20
177.3205398918593
 30
0.0
 41
1.0
 10
45.52050550046931
 20
177.6828320442193
 30
0.0
 41
1.0
 10
45.67818360467456
 20
177.8579448634702
 30
0.0
 41
1.0
 10
45.97028199573565
 20
178.1950435444035
 30
0.0
 41
1.0
 10
46.1036869533077
 20
178.3564054457491
 30
0.0
 41
1.0
 10
46.2595461417335
 20
178.5512986861831
 30
0.0
 41
1.0
 10
46.29018634925719
 20
178.5899460288119
 30
0.0
 41
1.0
 10
46.3353793157009
 20
178.647426216737
 30
0.0
 41
1.0
 10
46.35106956951228
 20
178.6676020358145
 30
0.0
 41
1.0
 10
46.38160950722257
 20
178.70695763654
 30
0.0
 41
1.0
 10
46.39674010430058
 20
178.7265426517898
 30
0.0
 41
1.0
 10
46.42672824887964
 20
178.7655282847461
 30
0.0
 41
1.0
 10
46.44158579623586
 20
178.7849289023518
 30
0.0
 41
1.0
 10
46.47103341803064
 20
178.8235468825154
 30
0.0
 41
1.0
 10
46.48549574029474
 20
178.842566359604
 30
0.0
 41
1.0
 10
46.53042622376596
 20
178.9023259617055
 30
0.0
 41
1.0
 10
46.55982957838354
 20
178.9418052971212
 30
0.0
 41
1.0
 10
46.81968783761963
 20
179.2938916387907
 30
0.0
 41
1.0
 10
47.01692062672823
 20
179.5838785036703
 30
0.0
 41
1.0
 10
47.2324814698756
 20
179.9189559658824
 30
0.0
 41
1.0
 10
47.27403399800543
 20
179.9846024249709
 30
0.0
 41
1.0
 10
47.32417460429214
 20
180.0649722857206
 30
0.0
 41
1.0
 10
47.33411268568003
 20
180.0809618494503
 30
0.0
 41
1.0
 10
47.34888744162327
 20
180.10482002154
 30
0.0
 41
1.0
 10
47.35358598265823
 20
180.1123024865339
 30
0.0
 41
1.0
 10
47.36381638800814
 20
180.1291536424794
 30
0.0
 41
1.0
 10
47.36890966383522
 20
180.1375625934707
 30
0.0
 41
1.0
 10
47.39426709803568
 20
180.1795239733511
 30
0.0
 41
1.0
 10
47.41420441395924
 20
180.2128262516563
 30
0.0
 41
1.0
 10
47.5121922448893
 20
180.3779891559932
 30
0.0
 41
1.0
 10
47.58514473466916
 20
180.5057974344888
 30
0.0
 41
1.0
 10
47.72133997547967
 20
180.7525102902948
 30
0.0
 41
1.0
 10
47.78458235789597
 20
180.8714142625694
 30
0.0
 41
1.0
 10
47.87307329367234
 20
181.0430356068991
 30
0.0
 41
1.0
 10
47.90150858488384
 20
181.0991217988552
 30
0.0
 41
1.0
 10
47.94268720838716
 20
181.1815768566382
 30
0.0
 41
1.0
 10
47.956029088741
 20
181.208242626876
 30
0.0
 41
1.0
 10
47.98302410170307
 20
181.2640542053418
 30
0.0
 41
1.0
 10
47.99628362192413
 20
181.291729987756
 30
0.0
 41
1.0
 10
48.03537212227197
 20
181.374066537664
 30
0.0
 41
1.0
 10
48.06043306593315
 20
181.427667481239
 30
0.0
 41
1.0
 10
48.10923256523942
 20
181.5348428033005
 30
0.0
 41
1.0
 10
48.1327903708073
 20
181.5876359456316
 30
0.0
 41
1.0
 10
48.20112396396391
 20
181.7436550158614
 30
0.0
 41
1.0
 10
48.24355807097677
 20
181.8445148204247
 30
0.0
 41
1.0
 10
48.3033377354644
 20
181.991298407248
 30
0.0
 41
1.0
 10
48.32264793943958
 20
182.0396819943047
 30
0.0
 41
1.0
 10
48.36017485264015
 20
182.1357667994157
 30
0.0
 41
1.0
 10
48.37836538888563
 20
182.1832361028716
 30
0.0
 41
1.0
 10
48.43139696918131
 20
182.3240139531094
 30
0.0
 41
1.0
 10
48.46470199316435
 20
182.4156934804934
 30
0.0
 41
1.0
 10
48.52811224172367
 20
182.5952081782523
 30
0.0
 41
1.0
 10
48.55822201956954
 20
182.6829849059624
 30
0.0
 41
1.0
 10
48.60155476454923
 20
182.8129617134457
 30
0.0
 41
1.0
 10
48.61568983052745
 20
182.855950899672
 30
0.0
 41
1.0
 10
48.64340769124991
 20
182.9412985056163
 30
0.0
 41
1.0
 10
48.65697710868437
 20
182.9827251800754
 30
0.0
 41
1.0
 10
48.72361936305982
 20
183.1905759237006
 30
0.0
 41
1.0
 10
48.77241151436995
 20
183.3529391404578
 30
0.0
 41
1.0
 10
48.84869109578157
 20
183.5977951066002
 30
0.0
 41
1.0
 10
48.87434403907223
 20
183.6793973510545
 30
0.0
 41
1.0
 10
48.91332745686758
 20
183.8017586767552
 30
0.0
 41
1.0
 10
48.92639761480359
 20
183.8409583454166
 30
0.0
 41
1.0
 10
48.95272684928797
 20
183.9204002382407
 30
0.0
 41
1.0
 10
48.9659840902187
 20
183.9601788258521
 30
0.0
 41
1.0
 10
49.00605998992248
 20
184.0797015423966
 30
0.0
 41
1.0
 10
49.03318387581772
 20
184.1596336323033
 30
0.0
 41
1.0
 10
49.07456374287113
 20
184.2799375395023
 30
0.0
 41
1.0
 10
49.08847237682914
 20
184.3201061141471
 30
0.0
 41
1.0
 10
49.10951736496603
 20
184.380462869112
 30
0.0
 41
1.0
 10
49.1165626975078
 20
184.4005991090136
 30
0.0
 41
1.0
 10
49.12717729049245
 20
184.4308298690936
 30
0.0
 41
1.0
 10
49.13071687939134
 20
184.4404615346881
 30
0.0
 41
1.0
 10
49.13781671099672
 20
184.4601124530346
 30
0.0
 41
1.0
 10
49.1413743342502
 20
184.469942485925
 30
0.0
 41
1.0
 10
49.1592014036494
 20
184.5191157854222
 30
0.0
 41
1.0
 10
49.17358774753633
 20
184.5585284557682
 30
0.0
 41
1.0
 10
49.20261987786972
 20
184.63750872822
 30
0.0
 41
1.0
 10
49.21727038839349
 20
184.6772953236683
 30
0.0
 41
1.0
 10
49.2468032312166
 20
184.755260968415
 30
0.0
 41
1.0
 10
49.26170211254359
 20
184.7943220696815
 30
0.0
 41
1.0
 10
49.28425455844985
 20
184.853035741628
 30
0.0
 41
1.0
 10
49.29180604994385
 20
184.8726272986388
 30
0.0
 41
1.0
 10
49.30697781511704
 20
184.9118517931996
 30
0.0
 41
1.0
 10
49.31460893604719
 20
184.9319103493109
 30
0.0
 41
1.0
 10
49.38329631232571
 20
185.1005659255604
 30
0.0
 41
1.0
 10
49.44651315990248
 20
185.2517070467802
 30
0.0
 41
1.0
 10
49.57733023527756
 20
185.5565012839156
 30
0.0
 41
1.0
 10
49.64493384968912
 20
185.7101576276657
 30
0.0
 41
1.0
 10
49.73190659504159
 20
185.9036513286113
 30
0.0
 41
1.0
 10
49.74942318164798
 20
185.9424203498329
 30
0.0
 41
1.0
 10
49.77587154291547
 20
186.0006735869553
 30
0.0
 41
1.0
 10
49.78471655692644
 20
186.0201079370255
 30
0.0
 41
1.0
 10
49.80246253561141
 20
186.0590087376988
 30
0.0
 41
1.0
 10
49.81130978794786
 20
186.0772925804366
 30
0.0
 41
1.0
 10
49.82464584577292
 20
186.1052994812947
 30
0.0
 41
1.0
 10
49.82910369828059
 20
186.1147659811685
 30
0.0
 41
1.0
 10
49.83798477980528
 20
186.1326642236781
 30
0.0
 41
1.0
 10
49.84243180278793
 20
186.1416165325158
 30
0.0
 41
1.0
 10
49.85579200200146
 20
186.1684827069567
 30
0.0
 41
1.0
 10
49.86472431212137
 20
186.186405822521
 30
0.0
 41
1.0
 10
49.89159511888592
 20
186.2402095790421
 30
0.0
 41
1.0
 10
49.90960754642309
 20
186.2761246584748
 30
0.0
 41
1.0
 10
50.07253671078075
 20
186.5997082100593
 30
0.0
 41
1.0
 10
50.22332556799624
 20
186.8898386173746
 30
0.0
 41
1.0
 10
50.38435986292408
 20
187.1964265280335
 30
0.0
 41
1.0
 10
50.39383500561897
 20
187.2144549377743
 30
0.0
 41
1.0
 10
50.40804938175133
 20
187.2414868249371
 30
0.0
 41
1.0
 10
50.41278778396669
 20
187.2504956661916
 30
0.0
 41
1.0
 10
50.4198955333633
 20
187.2640060641572
 30
0.0
 41
1.0
 10
50.42226480749591
 20
187.2685090528318
 30
0.0
 41
1.0
 10
50.42700335948838
 20
187.2775140453041
 30
0.0
 41
1.0
 10
50.42936758996969
 20
187.2817933008205
 30
0.0
 41
1.0
 10
50.45064755335833
 20
187.3203190205275
 30
0.0
 41
1.0
 10
50.46957094380006
 20
187.3545372182615
 30
0.0
 41
1.0
 10
50.52633420432606
 20
187.4570893664591
 30
0.0
 41
1.0
 10
50.56416719641241
 20
187.5253207068449
 30
0.0
 41
1.0
 10
50.61134417932259
 20
187.610368540725
 30
0.0
 41
1.0
 10
50.62077386030396
 20
187.6273660532172
 30
0.0
 41
1.0
 10
50.63961921553373
 20
187.661335262611
 30
0.0
 41
1.0
 10
50.64903472447509
 20
187.6780836948461
 30
0.0
 41
1.0
 10
50.6772603486043
 20
187.7280968264555
 30
0.0
 41
1.0
 10
50.69604835262437
 20
187.7613867266361
 30
0.0
 41
1.0
 10
50.72417190315305
 20
187.81123383167
 30
0.0
 41
1.0
 10
50.73353381445021
 20
187.8280430124242
 30
0.0
 41
1.0
 10
50.75225049858805
 20
187.8605392648837
 30
0.0
 41
1.0
 10
50.76159915367547
 20
187.8767725526243
 30
0.0
 41
1.0
 10
50.78961252851023
 20
187.9254258390979
 30
0.0
 41
1.0
 10
50.80832220334547
 20
187.9578566659423
 30
0.0
 41
1.0
 10
50.86486608604919
 20
188.0553649726202
 30
0.0
 41
1.0
 10
50.90298018685722
 20
188.1205584874216
 30
0.0
 41
1.0
 10
50.96070794304175
 20
188.2185760702048
 30
0.0
 41
1.0
 10
50.98004329276858
 20
188.2512865016273
 30
0.0
 41
1.0
 10
51.00917663399004
 20
188.3004023529633
 30
0.0
 41
1.0
 10
51.01890946741991
 20
188.3167826721324
 30
0.0
 41
1.0
 10
51.03354019582866
 20
188.3413648844851
 30
0.0
 41
1.0
 10
51.03842235173268
 20
188.3495609109787
 30
0.0
 41
1.0
 10
51.04819697316344
 20
188.3659567398232
 30
0.0
 41
1.0
 10
51.05308425558716
 20
188.3742366835953
 30
0.0
 41
1.0
 10
51.13667847446823
 20
188.5083130549696
 30
0.0
 41
1.0
 10
51.21685793005037
 20
188.634947960858
 30
0.0
 41
1.0
 10
51.37957044622003
 20
188.8887539109446
 30
0.0
 41
1.0
 10
51.46210329027117
 20
189.0159250641776
 30
0.0
 41
1.0
 10
51.58716890823941
 20
189.2068321302056
 30
0.0
 41
1.0
 10
51.62906842276502
 20
189.2704930109471
 30
0.0
 41
1.0
 10
51.69217127045331
 20
189.3659916758976
 30
0.0
 41
1.0
 10
51.71324781241983
 20
189.3978257943113
 30
0.0
 41
1.0
 10
51.73700055179485
 20
189.4336377445768
 30
0.0
 41
1.0
 10
51.73964032323576
 20
189.4376168302818
 30
0.0
 41
1.0
 10
51.74492100192013
 20
189.4455749521883
 30
0.0
 41
1.0
 10
51.74760453926373
 20
189.4493389150363
 30
0.0
 41
1.0
 10
51.75559819034542
 20
189.4609309479461
 30
0.0
 41
1.0
 10
51.76093037569592
 20
189.4686585608028
 30
0.0
 41
1.0
 10
51.7769359531661
 20
189.4918401050055
 30
0.0
 41
1.0
 10
51.78761836722519
 20
189.5072927421575
 30
0.0
 41
1.0
 10
51.84108746154752
 20
189.5845464004721
 30
0.0
 41
1.0
 10
51.88404534381473
 20
189.6463188774832
 30
0.0
 41
1.0
 10
51.94869468415675
 20
189.7389142838068
 30
0.0
 41
1.0
 10
51.9702798581307
 20
189.7697688603457
 30
0.0
 41
1.0
 10
51.9972989671289
 20
189.8083219751561
 30
0.0
 41
1.0
 10
52.00276508104364
 20
189.8157932710785
 30
0.0
 41
1.0
 10
52.01364915337552
 20
189.8309441020905
 30
0.0
 41
1.0
 10
52.01909357934205
 20
189.8385182780976
 30
0.0
 41
1.0
 10
52.03543379134621
 20
189.8612370198179
 30
0.0
 41
1.0
 10
52.04633651219687
 20
189.8763777995765
 30
0.0
 41
1.0
 10
52.14453850633495
 20
190.0125977286586
 30
0.0
 41
1.0
 10
52.23238392596606
 20
190.1333489738183
 30
0.0
 41
1.0
 10
52.36446117654669
 20
190.3138177676077
 30
0.0
 41
1.0
 10
52.40853776022498
 20
190.3738640257761
 30
0.0
 41
1.0
 10
52.46363697365571
 20
190.4487651703123
 30
0.0
 41
1.0
 10
52.47463020186546
 20
190.463811035469
 30
0.0
 41
1.0
 10
52.49686123863646
 20
190.4932053464776
 30
0.0
 41
1.0
 10
52.507978652891
 20
190.5078926067081
 30
0.0
 41
1.0
 10
52.54133431416079
 20
190.5519238311915
 30
0.0
 41
1.0
 10
52.56357599530169
 20
190.5812372461903
 30
0.0
 41
1.0
 10
52.63029608313408
 20
190.6690480945203
 30
0.0
 41
1.0
 10
52.67476978501484
 20
190.7274162391003
 30
0.0
 41
1.0
 10
52.74139173768619
 20
190.814679165597
 30
0.0
 41
1.0
 10
52.76358422627843
 20
190.8437185657294
 30
0.0
 41
1.0
 10
52.79684026305686
 20
190.8872012269256
 30
0.0
 41
1.0
 10
52.80792015533406
 20
190.9016827058133
 30
0.0
 41
1.0
 10
52.83006724145629
 20
190.930619480055
 30
0.0
 41
1.0
 10
52.8412384581491
 20
190.9448322135801
 30
0.0
 41
1.0
 10
52.94159474055589
 20
191.0729421211327
 30
0.0
 41
1.0
 10
53.03045970441372
 20
191.1858862415399
 30
0.0
 41
1.0
 10
53.14049315212465
 20
191.3256325405736
 30
0.0
 41
1.0
 10
53.16244708477637
 20
191.3535099703418
 30
0.0
 41
1.0
 10
53.1952860634774
 20
191.395212899983
 30
0.0
 41
1.0
 10
53.20621706482867
 20
191.4090950055922
 30
0.0
 41
1.0
 10
53.22804622923832
 20
191.4368205423983
 30
0.0
 41
1.0
 10
53.23910172528059
 20
191.4503514410055
 30
0.0
 41
1.0
 10
53.2940404590051
 20
191.5184221794589
 30
0.0
 41
1.0
 10
53.33773629058656
 20
191.5725503411349
 30
0.0
 41
1.0
 10
53.42447046269222
 20
191.6800812884491
 30
0.0
 41
1.0
 10
53.46750880567284
 20
191.733484071565
 30
0.0
 41
1.0
 10
53.53145513505866
 20
191.812990454907
 30
0.0
 41
1.0
 10
53.55266863325861
 20
191.8393929261447
 30
0.0
 41
1.0
 10
53.58432048202487
 20
191.8788402110463
 30
0.0
 41
1.0
 10
53.59484302703167
 20
191.8919632342883
 30
0.0
 41
1.0
 10
53.6158293340429
 20
191.918155963033
 30
0.0
 41
1.0
 10
53.62624458441207
 20
191.9313105442489
 30
0.0
 41
1.0
 10
53.72105939688159
 20
192.047084706011
 30
0.0
 41
1.0
 10
53.80343746722767
 20
192.1482457641632
 30
0.0
 41
1.0
 10
53.89315597090628
 20
192.2597023264753
 30
0.0
 41
1.0
 10
53.90308352841246
 20
192.2720537306202
 30
0.0
 41
1.0
 10
53.9179108639464
 20
192.2905308241765
 30
0.0
 41
1.0
 10
53.92285040452202
 20
192.2966686813016
 30
0.0
 41
1.0
 10
53.93284450270274
 20
192.3087046990893
 30
0.0
 41
1.0
 10
53.93785630150368
 20
192.3147281996496
 30
0.0
 41
1.0
 10
53.96300041628717
 20
192.344878930783
 30
0.0
 41
1.0
 10
53.98337547124088
 20
192.3690990876126
 30
0.0
 41
1.0
 10
54.04525713739521
 20
192.4420337893858
 30
0.0
 41
1.0
 10
54.08752065427537
 20
192.4910227584433
 30
0.0
 41
1.0
 10
54.21714281250723
 20
192.63888445367
 30
0.0
 41
1.0
 10
54.30734141070441
 20
192.7386550310074
 30
0.0
 41
1.0
 10
54.44740141619107
 20
192.8892388427719
 30
0.0
 41
1.0
 10
54.4948797971226
 20
192.9395873313833
 30
0.0
 41
1.0
 10
54.56715067444499
 20
193.0152259090941
 30
0.0
 41
1.0
 10
54.59141636668184
 20
193.0404580309574
 30
0.0
 41
1.0
 10
54.62805978707387
 20
193.0783203426045
 30
0.0
 41
1.0
 10
54.64031506415597
 20
193.0909434654512
 30
0.0
 41
1.0
 10
54.65875681241661
 20
193.1098798089803
 30
0.0
 41
1.0
 10
54.66504302044492
 20
193.1160090420148
 30
0.0
 41
1.0
 10
54.67753514729064
 20
193.1284099201613
 30
0.0
 41
1.0
 10
54.68379084941218
 20
193.1346108087978
 30
0.0
 41
1.0
 10
54.74017706318869
 20
193.1904214595379
 30
0.0
 41
1.0
 10
54.79090279045735
 20
193.2400499719438
 30
0.0
 41
1.0
 10
54.86773072008169
 20
193.3144006619716
 30
0.0
 41
1.0
 10
54.89346307303025
 20
193.339168845354
 30
0.0
 41
1.0
 10
54.93222353730141
 20
193.3762826904199
 30
0.0
 41
1.0
 10
54.94517066897266
 20
193.3886475651503
 30
0.0
 41
1.0
 10
54.96462889431191
 20
193.4071833312983
 30
0.0
 41
1.0
 10
54.97108451496899
 20
193.413409064412
 30
0.0
 41
1.0
 10
54.98420241249385
 20
193.4255961165889
 30
0.0
 41
1.0
 10
54.99076744923477
 20
193.4316877440263
 30
0.0
 41
1.0
 10
55.10247224169559
 20
193.5352104502328
 30
0.0
 41
1.0
 10
55.20911749044075
 20
193.6321187505201
 30
0.0
 41
1.0
 10
55.3696188022229
 20
193.7757078651531
 30
0.0
 41
1.0
 10
55.42320475535134
 20
193.823275042262
 30
0.0
 41
1.0
 10
55.49008708827383
 20
193.8822598355604
 30
0.0
 41
1.0
 10
55.50359351265705
 20
193.8938701476859
 30
0.0
 41
1.0
 10
55.53055794266356
 20
193.9170836572675
 30
0.0
 41
1.0
 10
55.54403293717683
 20
193.9286659378334
 30
0.0
 41
1.0
 10
55.58442779389044
 20
193.9633356247759
 30
0.0
 41
1.0
 10
55.61131758756376
 20
193.9863458766705
 30
0.0
 41
1.0
 10
55.74544961439637
 20
194.1008329646591
 30
0.0
 41
1.0
 10
55.85228593311712
 20
194.190005009011
 30
0.0
 41
1.0
 10
56.00923066532125
 20
194.3195305833027
 30
0.0
 41
1.0
 10
56.06100435866219
 20
194.361984243126
 30
0.0
 41
1.0
 10
56.13752747392174
 20
194.4244720955129
 30
0.0
 41
1.0
 10
56.16284532996619
 20
194.4451026914082
 30
0.0
 41
1.0
 10
56.20049468593565
 20
194.4757369911665
 30
0.0
 41
1.0
 10
56.21298987861445
 20
194.4858965022263
 30
0.0
 41
1.0
 10
56.23164532785184
 20
194.5010562051006
 30
0.0
 41
1.0
 10
56.23784925238688
 20
194.5060961799874
 30
0.0
 41
1.0
 10
56.25022706638232
 20
194.5161493322097
 30
0.0
 41
1.0
 10
56.25644073933206
 20
194.5211228760635
 30
0.0
 41
1.0
 10
56.26867798748462
 20
194.5312014259886
 30
0.0
 41
1.0
 10
56.27477916687621
 20
194.5362289084468
 30
0.0
 41
1.0
 10
56.28694565261247
 20
194.5462600016818
 30
0.0
 41
1.0
 10
56.2929727588504
 20
194.5513011351734
 30
0.0
 41
1.0
 10
56.31144097898368
 20
194.5659532395294
 30
0.0
 41
1.0
 10
56.32368287905547
 20
194.5756718849168
 30
0.0
 41
1.0
 10
56.360185744505
 20
194.6046765008568
 30
0.0
 41
1.0
 10
56.38422392656572
 20
194.6238111502292
 30
0.0
 41
1.0
 10
56.45534864199261
 20
194.6805854796381
 30
0.0
 41
1.0
 10
56.50144606039559
 20
194.717595537717
 30
0.0
 41
1.0
 10
56.59045809204445
 20
194.7898071419588
 30
0.0
 41
1.0
 10
56.63253211112065
 20
194.8246986250216
 30
0.0
 41
1.0
 10
56.7189028810326
 20
194.8947560324806
 30
0.0
 41
1.0
 10
56.76288851984405
 20
194.9297974170566
 30
0.0
 41
1.0
 10
56.85232495874099
 20
194.9998285975506
 30
0.0
 41
1.0
 10
56.8977757759166
 20
195.0348183893284
 30
0.0
 41
1.0
 10
56.95541675075557
 20
195.0784743458634
 30
0.0
 41
1.0
 10
56.96685146606469
 20
195.0873056303761
 30
0.0
 41
1.0
 10
56.99062257890681
 20
195.1043233629935
 30
0.0
 41
1.0
 10
57.0025555581569
 20
195.1128249361628
 30
0.0
 41
1.0
 10
57.03849330945084
 20
195.1383066621147
 30
0.0
 41
1.0
 10
57.06263691147413
 20
195.1552638263245
 30
0.0
 41
1.0
 10
57.18423357381113
 20
195.2398812893588
 30
0.0
 41
1.0
 10
57.28432774801983
 20
195.3070379084819
 30
0.0
 41
1.0
 10
57.48887237336766
 20
195.4398683109897
 30
0.0
 41
1.0
 10
57.59332360377213
 20
195.5055421533683
 30
0.0
 41
1.0
 10
57.7058619214569
 20
195.5742966086118
 30
0.0
 41
1.0
 10
57.7126742070672
 20
195.5782301173068
 30
0.0
 41
1.0
 10
57.72619734459801
 20
195.5861557948294
 30
0.0
 41
1.0
 10
57.73296717595115
 20
195.590113888782
 30
0.0
 41
1.0
 10
57.75330089893154
 20
195.601973875799
 30
0.0
 41
1.0
 10
57.76688902178081
 20
195.6098614747344
 30
0.0
 41
1.0
 10
57.80774578713924
 20
195.6334665933018
 30
0.0
 41
1.0
 10
57.83510685399929
 20
195.6491264430519
 30
0.0
 41
1.0
 10
57.91752252071323
 20
195.6958709859216
 30
0.0
 41
1.0
 10
57.97291009113944
 20
195.7267208168433
 30
0.0
 41
1.0
 10
58.08436290555541
 20
195.7877676480359
 30
0.0
 41
1.0
 10
58.14042821698366
 20
195.817964657068
 30
0.0
 41
1.0
 10
58.22486440965561
 20
195.8627471975187
 30
0.0
 41
1.0
 10
58.2530660402147
 20
195.8775891780283
 30
0.0
 41
1.0
 10
58.29543026202784
 20
195.8997205815744
 30
0.0
 41
1.0
 10
58.30956195573756
 20
195.9070757857085
 30
0.0
 41
1.0
 10
58.33077201730569
 20
195.9180752652921
 30
0.0
 41
1.0
 10
58.33784412417813
 20
195.9217362039252
 30
0.0
 41
1.0
 10
58.35199201790414
 20
195.9290468981762
 30
0.0
 41
1.0
 10
58.35921245201236
 20
195.9326338317484
 30
0.0
 41
1.0
 10
58.39501528432171
 20
195.9506762135012
 30
0.0
 41
1.0
 10
58.42371408368845
 20
195.9650119722808
 30
0.0
 41
1.0
 10
58.46682610143405
 20
195.9863650548492
 30
0.0
 41
1.0
 10
58.48119093049247
 20
195.9934640066124
 30
0.0
 41
1.0
 10
58.5103169168714
 20
196.0074577440215
 30
0.0
 41
1.0
 10
58.5248825962524
 20
196.0144330119926
 30
0.0
 41
1.0
 10
58.59772229123485
 20
196.0491962309698
 30
0.0
 41
1.0
 10
58.6560304992439
 20
196.0766443662556
 30
0.0
 41
1.0
 10
58.83097650561248
 20
196.1577158984256
 30
0.0
 41
1.0
 10
58.94764662553317
 20
196.2100613936027
 30
0.0
 41
1.0
 10
59.12223030126081
 20
196.2853822509097
 30
0.0
 41
1.0
 10
59.18035236628955
 20
196.3099576181288
 30
0.0
 41
1.0
 10
59.25283777996633
 20
196.339953920324
 30
0.0
 41
1.0
 10
59.26730200225687
 20
196.3459241409512
 30
0.0
 41
1.0
 10
59.29647625786418
 20
196.3577130213785
 30
0.0
 41
1.0
 10
59.31102269756228
 20
196.3635701268227
 30
0.0
 41
1.0
 10
59.35497760015694
 20
196.3811298670776
 30
0.0
 41
1.0
 10
59.38458958066132
 20
196.3927945410435
 30
0.0
 41
1.0
 10
59.53430614742721
 20
196.4509020535078
 30
0.0
 41
1.0
 10
59.65935539670738
 20
196.4967004812712
 30
0.0
 41
1.0
 10
59.92330183380806
 20
196.5867123427785
 30
0.0
 41
1.0
 10
60.06228434884022
 20
196.6309130062478
 30
0.0
 41
1.0
 10
60.26447278156569
 20
196.6902383253141
 30
0.0
 41
1.0
 10
60.32032606405744
 20
196.7061312739833
 30
0.0
 41
1.0
 10
60.37768438137866
 20
196.7219055255406
 30
0.0
 41
1.0
  0
ARC
  5
10D
330
FA
100
AcDbEntity
  8
$DDT_AUDIT_GENERATED_(68)
  6
Continuous
 62
     7
100
AcDbCircle
 10
62.7820462612
 20
183.285958407
 30
0.0
 40
13.64938207468089
100
AcDbArc
 50
100.146453337
 51
115.3848775712
  0
ARC
  5
10E
330
FA
100
AcDbEntity
  8
$DDT_AUDIT_GENERATED_(68)
  6
Continuous
 62
     7
100
AcDbCircle
 10
71.9252437542
 20
175.823306138
 30
0.0
 40
67.20387466698834
100
AcDbArc
 50
289.3303034244
 51
301.8396476051
  0
ARC
  5
110
330
FA
100
AcDbEntity
  8
$DDT_AUDIT_GENERATED_(68)
  6
HIDDEN2
 62
     7
100
AcDbCircle
 10
71.9252437542
 20
175.823306138
 30
0.0
 40
67.20387466698834
100
AcDbArc
 50
301.8396476051
 51
302.6637648517
  0
ARC
  5
111
330
FA
100
AcDbEntity
  8
$DDT_AUDIT_GENERATED_(68)
  6
Continuous
 62
     7
100
AcDbCircle
 10
71.9252437542
 20
175.823306138
 30
0.0
 40
67.20387466698834
100
AcDbArc
 50
302.6637648517
 51
302.8482608296
  0
ARC
  5
112
330
FA
100
AcDbEntity
  8
$DDT_AUDIT_GENERATED_(68)
  6
HIDDEN2
 62
     7
100
AcDbCircle
 10
55.7034875894
 20
175.6210079203
 30
0.0
 40
66.99579144073198
100
AcDbArc
 50
237.0972839853
 51
238.1249493203
  0
ARC
  5
113
330
FA
100
AcDbEntity
  8
$DDT_AUDIT_GENERATED_(68)
  6
Continuous
 62
     7
100
AcDbCircle
 10
55.7034875894
 20
175.6210079203
 30
0.0
 40
66.99579144073198
100
AcDbArc
 50
238.1249493203
 51
250.7038460612
  0
SPLINE
  5
114
330
FA
100
AcDbEntity
  8
$DDT_AUDIT_GENERATED_(68)
  6
Continuous
 62
     7
100
AcDbSpline
210
0.0
220
0.0
230
1.0
 70
     8
 71
     3
 72
    57
 73
    53
 74
     0
 42
0.0000000002459458
 43
0.0000000001
 40
0.0
 40
0.0
 40
0.0
 40
0.0
 40
0.0212385450632378
 40
0.0412413261271738
 40
0.0597304599862441
 40
0.0764178236676969
 40
0.0913277988667872
 40
0.109119878443204
 40
0.1309279093030314
 40
0.15402391981809
 40
0.1777833528397647
 40
0.1996221547861875
 40
0.215626062910128
 40
0.2276996769655895
 40
0.2373184126503979
 40
0.2500362358402388
 40
0.2790531562708883
 40
0.3081924955298855
 40
0.3360822627093122
 40
0.3628354017842875
 40
0.3926744767589102
 40
0.4263412744584997
 40
0.4413208075084603
 40
0.4632703289009634
 40
0.4806793539385053
 40
0.496524754988627
 40
0.5139080713881228
 40
0.5355207753347386
 40
0.5556844385149868
 40
0.5749904134730794
 40
0.5937563280074
 40
0.6131075956502992
 40
0.6325743659821804
 40
0.6516318318114428
 40
0.6752249068073969
 40
0.7020564174573743
 40
0.7239793626224498
 40
0.742572195347629
 40
0.7529042303450973
 40
0.7627999148666046
 40
0.772757669669428
 40
0.7866561964983307
 40
0.8045661929394452
 40
0.8265243045252997
 40
0.8525782049938403
 40
0.8827784724957052
 40
0.8997542958406103
 40
0.917626472697796
 40
0.9365358217268488
 40
0.9586783416260013
 40
0.9805138895508996
 40
1.0
 40
1.0
 40
1.0
 40
1.0
 10
108.3923676271195
 20
119.3716636047293
 30
0.0
 10
108.7173942003694
 20
119.5870246729057
 30
0.0
 10
109.2475545991442
 20
119.9396035930856
 30
0.0
 10
110.0591268001928
 20
120.5151835049267
 30
0.0
 10
110.7683323133205
 20
121.0426138113813
 30
0.0
 10
111.3952845458133
 20
121.5301042973992
 30
0.0
 10
111.9971832110349
 20
122.0179747833897
 30
0.0
 10
112.6224118821995
 20
122.5430619948699
 30
0.0
 10
113.3018427388935
 20
123.1402281005386
 30
0.0
 10
114.0128100464572
 20
123.8018733735479
 30
0.0
 10
114.6899341177764
 20
124.4723187256362
 30
0.0
 10
115.2661952224146
 20
125.0795513474551
 30
0.0
 10
115.7183643868953
 20
125.5824483905202
 30
0.0
 10
116.0502893020951
 20
125.9671236161577
 30
0.0
 10
116.3497983105816
 20
126.325724395368
 30
0.0
 10
116.7917971989396
 20
126.8735002112842
 30
0.0
 10
117.3758858394466
 20
127.6465958466627
 30
0.0
 10
118.0460492600431
 20
128.6276078578131
 30
0.0
 10
118.6354915897448
 20
129.5896292650096
 30
0.0
 10
119.1743633358698
 20
130.5702500261939
 30
0.0
 10
119.6920544643627
 20
131.6474510399216
 30
0.0
 10
120.0468440203808
 20
132.4986380166268
 30
0.0
 10
120.4011544359262
 20
133.4885140390912
 30
0.0
 10
120.5998961163403
 20
134.1290177057789
 30
0.0
 10
120.7837882676307
 20
134.8038927437161
 30
0.0
 10
120.9319938967224
 20
135.4362256755894
 30
0.0
 10
121.0671821951675
 20
136.1182001224821
 30
0.0
 10
121.1784042283189
 20
136.8269730572747
 30
0.0
 10
121.2643635707031
 20
137.5834942092931
 30
0.0
 10
121.3164446500487
 20
138.3137356410193
 30
0.0
 10
121.3384090224919
 20
139.0357882086656
 30
0.0
 10
121.330747993218
 20
139.7692534840793
 30
0.0
 10
121.2921056459294
 20
140.5118245814062
 30
0.0
 10
121.2133096202333
 20
141.3363416157481
 30
0.0
 10
121.0870219757532
 20
142.212509776956
 30
0.0
 10
120.907952742892
 20
143.1158500086745
 30
0.0
 10
120.6970011824061
 20
143.9528268548669
 30
0.0
 10
120.5109944779645
 20
144.5793615825581
 30
0.0
 10
120.3535672156815
 20
145.0575058551817
 30
0.0
 10
120.2228734153128
 20
145.4286952768915
 30
0.0
 10
120.0676531869954
 20
145.8427461334644
 30
0.0
 10
119.8680762031519
 20
146.3392964114383
 30
0.0
 10
119.5893152710431
 20
146.9762658736182
 30
0.0
 10
119.2168473645525
 20
147.7471394727063
 30
0.0
 10
118.7300167996819
 20
148.6511034244923
 30
0.0
 10
118.2272483594774
 20
149.4831261429416
 30
0.0
 10
117.7430853903567
 20
150.2165843273757
 30
0.0
 10
117.322142236838
 20
150.816345395939
 30
0.0
 10
116.8333375911708
 20
151.4708709120333
 30
0.0
 10
116.2972816082969
 20
152.1437444631785
 30
0.0
 10
115.7078027373862
 20
152.8389542580654
 30
0.0
 10
115.330929406587
 20
153.2530706686177
 30
0.0
 10
115.1196017529715
 20
153.4843853855796
 30
0.0
  0
ARC
  5
115
330
FA
100
AcDbEntity
  8
$DDT_AUDIT_GENERATED_(68)
  6
Continuous
 62
     7
100
AcDbCircle
 10
66.9333630604
 20
105.3513480261
 30
0.0
 40
68.1077981211707
100
AcDbArc
 50
44.965991185
 51
62.073437507
  0
SPLINE
  5
116
330
FA
100
AcDbEntity
  8
$DDT_AUDIT_GENERATED_(68)
  6
Continuous
 62
     7
100
AcDbSpline
210
0.0
220
0.0
230
1.0
 70
     8
 71
     3
 72
   100
 73
    96
 74
     0
 42
0.0000000002362375
 43
0.0000000001
 40
0.0
 40
0.0
 40
0.0
 40
0.0
 40
0.0173360559989696
 40
0.0342279832453361
 40
0.0494225995550102
 40
0.0638133696387319
 40
0.0761985835645014
 40
0.083458202136738
 40
0.0902370765209351
 40
0.0965309364774157
 40
0.1020521022549558
 40
0.1079468301987583
 40
0.1127705542007941
 40
0.1164396201508243
 40
0.119934325215476
 40
0.1242758204529464
 40
0.1298456463722155
 40
0.1366288142801248
 40
0.1447057336110542
 40
0.1555367495433426
 40
0.1648546815471281
 40
0.1725525114956711
 40
0.1816542248590117
 40
0.1917107078610228
 40
0.2026904540263374
 40
0.2149856599022342
 40
0.2297670013251595
 40
0.2404094220775351
 40
0.2515959431361038
 40
0.2614633776329681
 40
0.2700159243271581
 40
0.2771977883181102
 40
0.2830506562766337
 40
0.292996427923421
 40
0.3047938593377881
 40
0.3183512656147421
 40
0.3337322074855421
 40
0.3507598603973999
 40
0.3673840346897063
 40
0.3876270960671334
 40
0.406440785409067
 40
0.4248649744976417
 40
0.4430454890442423
 40
0.4596242501525511
 40
0.4714913973997728
 40
0.4827873587762079
 40
0.4927782998924639
 40
0.5023983451526656
 40
0.512989578112232
 40
0.5294837302753035
 40
0.5473219474245525
 40
0.5670570029642277
 40
0.5886975068372008
 40
0.6119489614855114
 40
0.6354777172817672
 40
0.6590993767177039
 40
0.6772977654240044
 40
0.6959040653787816
 40
0.7146079833310917
 40
0.7330337339508861
 40
0.751669726168597
 40
0.7701748377050953
 40
0.787829464809273
 40
0.798536193146701
 40
0.8081124941592508
 40
0.8166475333021022
 40
0.8240996128287996
 40
0.830697087588039
 40
0.8356544853073565
 40
0.8393640995710985
 40
0.8410121243548949
 40
0.8432092920093679
 40
0.8466452245450831
 40
0.8513448388960319
 40
0.8573440616843622
 40
0.8645536348563728
 40
0.8728573064764197
 40
0.8807683544395204
 40
0.8884743713375047
 40
0.9020316076425642
 40
0.9144839219409046
 40
0.9261876330931404
 40
0.9375495458406283
 40
0.9484926611580378
 40
0.9515086846656549
 40
0.9537385104359983
 40
0.9549912419145218
 40
0.9559694214663219
 40
0.957412162545114
 40
0.9595898025100538
 40
0.9646158323260756
 40
0.9717991150991468
 40
0.9811221309813
 40
0.9926019287222556
 40
1.0
 40
1.0
 40
1.0
 40
1.0
 10
98.66242500660898
 20
165.6630723009427
 30
0.0
 10
97.93615080146611
 20
166.1164169620891
 30
0.0
 10
96.73088115436812
 20
166.870713858798
 30
0.0
 10
94.7943599261806
 20
168.1046592959515
 30
0.0
 10
93.0596480554911
 20
169.2460053501808
 30
0.0
 10
91.52094211404834
 20
170.286165798513
 30
0.0
 10
90.28341362453337
 20
171.1355454544118
 30
0.0
 10
89.34545666422444
 20
171.7907232541063
 30
0.0
 10
88.6446237898272
 20
172.2882554633077
 30
0.0
 10
88.02915946761618
 20
172.7341956254452
 30
0.0
 10
87.46841332037485
 20
173.1493507380204
 30
0.0
 10
86.97655446535488
 20
173.5214442589809
 30
0.0
 10
86.56271811628486
 20
173.8426257518901
 30
0.0
 10
86.23040246048245
 20
174.105578197143
 30
0.0
 10
85.92414699984992
 20
174.351938441311
 30
0.0
 10
85.58747938516159
 20
174.627587842806
 30
0.0
 10
85.187501877587
 20
174.9625368874582
 30
0.0
 10
84.7250861848974
 20
175.361496816511
 30
0.0
 10
84.1916698343627
 20
175.8435295107707
 30
0.0
 10
83.65990172877406
 20
176.3516530923711
 30
0.0
 10
83.20960015882454
 20
176.8149421393644
 30
0.0
 10
82.85026208993939
 20
177.2121409870384
 30
0.0
 10
82.55916045853986
 20
177.5615772040164
 30
0.0
 10
82.27538315558245
 20
177.933031026637
 30
0.0
 10
82.02041726512392
 20
178.2996093953333
 30
0.0
 10
81.7860910543538
 20
178.6678625211758
 30
0.0
 10
81.60220433536453
 20
178.9968709871067
 30
0.0
 10
81.46655095856062
 20
179.2591003873847
 30
0.0
 10
81.37191940322599
 20
179.4601911241886
 30
0.0
 10
81.30152164138312
 20
179.6192930062342
 30
0.0
 10
81.24927499460156
 20
179.7460461270274
 30
0.0
 10
81.20948136288712
 20
179.8482381372622
 30
0.0
 10
81.16839054355475
 20
179.9606547477544
 30
0.0
 10
81.11523476623294
 20
180.1162765794541
 30
0.0
 10
81.04592463983367
 20
180.3431135981427
 30
0.0
 10
80.96519287045221
 20
180.6195912874885
 30
0.0
 10
80.8747980553474
 20
180.9422852120607
 30
0.0
 10
80.77846473700006
 20
181.2912383014716
 30
0.0
 10
80.66939325077921
 20
181.6647072845229
 30
0.0
 10
80.55974771291434
 20
182.051093775243
 30
0.0
 10
80.43569038055374
 20
182.4495376732015
 30
0.0
 10
80.31121265285446
 20
182.8421490148281
 30
0.0
 10
80.18476339021316
 20
183.2353933403535
 30
0.0
 10
80.06928709946503
 20
183.5777225862302
 30
0.0
 10
79.96902781110651
 20
183.8633490722071
 30
0.0
 10
79.88779506081696
 20
184.0936262588537
 30
0.0
 10
79.80611344562772
 20
184.307425005992
 30
0.0
 10
79.72889861144012
 20
184.5094874788647
 30
0.0
 10
79.63777268348632
 20
184.7437002481512
 30
0.0
 10
79.531197639203
 20
185.0163629002435
 30
0.0
 10
79.3985916593339
 20
185.3334045028264
 30
0.0
 10
79.25728696261083
 20
185.6668943200459
 30
0.0
 10
79.10497463266978
 20
186.0197886123092
 30
0.0
 10
78.9471669021632
 20
186.381803844345
 30
0.0
 10
78.78562459828484
 20
186.7521387794149
 30
0.0
 10
78.64441248538147
 20
187.0887234787315
 30
0.0
 10
78.51111250548496
 20
187.397083510994
 30
0.0
 10
78.38222355160403
 20
187.6784595556702
 30
0.0
 10
78.2477912573251
 20
187.9580580777745
 30
0.0
 10
78.10412606332423
 20
188.2355719819062
 30
0.0
 10
77.96365183697706
 20
188.5034838161632
 30
0.0
 10
77.82405971460324
 20
188.7577795420918
 30
0.0
 10
77.71030105458634
 20
188.9668691457526
 30
0.0
 10
77.60849619955299
 20
189.1502212498152
 30
0.0
 10
77.52807095400973
 20
189.2978656517468
 30
0.0
 10
77.45099279087127
 20
189.4393117826748
 30
0.0
 10
77.36975307225727
 20
189.5815035423321
 30
0.0
 10
77.29348547099812
 20
189.7137346742683
 30
0.0
 10
77.20517897994513
 20
189.8566116480257
 30
0.0
 10
77.13274894357924
 20
189.9720490350548
 30
0.0
 10
77.04919692844439
 20
190.1023869305517
 30
0.0
 10
76.97176592138536
 20
190.2209428746762
 30
0.0
 10
76.87408257091889
 20
190.3672316773446
 30
0.0
 10
76.74180676061411
 20
190.5598542944116
 30
0.0
 10
76.57658046674464
 20
190.7920808512171
 30
0.0
 10
76.37685763936967
 20
191.0611670161288
 30
0.0
 10
76.15963489810369
 20
191.3418440752199
 30
0.0
 10
75.92124620459235
 20
191.629801969854
 30
0.0
 10
75.64159533774206
 20
191.9534263592839
 30
0.0
 10
75.32830511898955
 20
192.2958444524862
 30
0.0
 10
75.02481796100058
 20
192.6055635835348
 30
0.0
 10
74.62372858830265
 20
192.9928250305926
 30
0.0
 10
74.09046843623491
 20
193.4707366159848
 30
0.0
 10
73.57797031416116
 20
193.8857143490884
 30
0.0
 10
73.17610476325437
 20
194.1822206946423
 30
0.0
 10
72.9863343772491
 20
194.3167040914732
 30
0.0
 10
72.83249957111842
 20
194.4224750426531
 30
0.0
 10
72.67222499662593
 20
194.5293670944601
 30
0.0
 10
72.5475672724872
 20
194.6108208470257
 30
0.0
 10
72.3621324514992
 20
194.7299171462384
 30
0.0
 10
72.12495937921469
 20
194.8771888679811
 30
0.0
 10
71.81680964168721
 20
195.060918928618
 30
0.0
 10
71.453036816262
 20
195.2655610821669
 30
0.0
 10
71.08881022187192
 20
195.4584727177337
 30
0.0
 10
70.86142655080373
 20
195.5659986689427
 30
0.0
 10
70.75649207521624
 20
195.6153944885555
 30
0.0
  0
SPLINE
  5
117
330
FA
100
AcDbEntity
  8
$DDT_AUDIT_GENERATED_(68)
  6
Continuous
 62
     7
100
AcDbSpline
210
0.0
220
0.0
230
1.0
 70
     8
 71
     3
 72
    54
 73
    50
 74
     0
 42
0.0000000002459389
 43
0.0000000001
 40
0.0
 40
0.0
 40
0.0
 40
0.0
 40
0.025758035557926
 40
0.0548883834178648
 40
0.0795020313847517
 40
0.1017416939009702
 40
0.1222487706254748
 40
0.1409779666213964
 40
0.1659421594441327
 40
0.1855024359274136
 40
0.2009762626079791
 40
0.220397832883309
 40
0.2376843294845846
 40
0.2558915291917742
 40
0.2781583888794072
 40
0.2967347637423167
 40
0.3153862868297442
 40
0.3337813791975051
 40
0.3492580071542292
 40
0.3626129418770706
 40
0.3772909814238595
 40
0.3935910867971694
 40
0.4075990627308057
 40
0.4227151058630585
 40
0.4389865249646175
 40
0.4556541334572716
 40
0.47494754926733
 40
0.491422435688624
 40
0.5045025080731678
 40
0.5242793600328235
 40
0.5499444402905821
 40
0.5716470461680663
 40
0.6030830513137142
 40
0.6350695770623763
 40
0.6633972327877428
 40
0.6884964164088526
 40
0.709644554635544
 40
0.7422567675515247
 40
0.7784977011820043
 40
0.8178992966344832
 40
0.8371353602290483
 40
0.8589579860669375
 40
0.8819043339664291
 40
0.9042246578578256
 40
0.9170328002892982
 40
0.931698813578466
 40
0.9500565406253527
 40
0.972629782671104
 40
1.0
 40
1.0
 40
1.0
 40
1.0
 10
12.56929561989113
 20
153.4843853855796
 30
0.0
 10
12.2926557761294
 20
153.180276090223
 30
0.0
 10
11.79634914510545
 20
152.6316823425376
 30
0.0
 10
11.0863765087681
 20
151.7700993683466
 30
0.0
 10
10.45284058590781
 20
150.938554964807
 30
0.0
 10
9.92419389547458
 20
150.1880816111372
 30
0.0
 10
9.472406160263493
 20
149.4965400039515
 30
0.0
 10
9.030191557828491
 20
148.7678695213804
 30
0.0
 10
8.625435908992147
 20
148.0395980606847
 30
0.0
 10
8.27191017481519
 20
147.3383115234123
 30
0.0
 10
7.971742555048227
 20
146.6907976317335
 30
0.0
 10
7.707950878847479
 20
146.0681636975223
 30
0.0
 10
7.453508209757813
 20
145.4024272104456
 30
0.0
 10
7.209892220843832
 20
144.6897808685878
 30
0.0
 10
6.993253463381518
 20
143.9582002182135
 30
0.0
 10
6.807703606838189
 20
143.2184468541065
 30
0.0
 10
6.66211549749221
 20
142.524243917616
 30
0.0
 10
6.551738877799099
 20
141.8736103666349
 30
0.0
 10
6.471392080271234
 20
141.2703312022945
 30
0.0
 10
6.4138726488564
 20
140.6962756791224
 30
0.0
 10
6.374502244182713
 20
140.1224185544321
 30
0.0
 10
6.354467470643138
 20
139.5424766544017
 30
0.0
 10
6.35348471614678
 20
138.9614767668326
 30
0.0
 10
6.370777580875169
 20
138.3838083542835
 30
0.0
 10
6.409311185028438
 20
137.7781749910393
 30
0.0
 10
6.475386518925021
 20
137.1163374640543
 30
0.0
 10
6.560925789600019
 20
136.4908007910518
 30
0.0
 10
6.664350991986506
 20
135.8968651404404
 30
0.0
 10
6.788316405679319
 20
135.2935917234568
 30
0.0
 10
6.966342736848465
 20
134.5580045152552
 30
0.0
 10
7.1947159470927
 20
133.7696925258404
 30
0.0
 10
7.549068547395739
 20
132.7381437881251
 30
0.0
 10
7.95092765341527
 20
131.7491259287709
 30
0.0
 10
8.466532236359402
 20
130.6614911922276
 30
0.0
 10
9.012934188882722
 20
129.6599545566065
 30
0.0
 10
9.53677041164113
 20
128.7986640265625
 30
0.0
 10
10.14722551188572
 20
127.8823081175378
 30
0.0
 10
10.862897599632
 20
126.9056392405829
 30
0.0
 10
11.79012882476788
 20
125.7702558418871
 30
0.0
 10
12.65898273767192
 20
124.8198223507182
 30
0.0
 10
13.44726065075851
 20
124.0244485582639
 30
0.0
 10
14.11013387851279
 20
123.3906426723125
 30
0.0
 10
14.84384780584231
 20
122.7284181645964
 30
0.0
 10
15.51341292902154
 20
122.157473211532
 30
0.0
 10
16.12003995298874
 20
121.6623553918074
 30
0.0
 10
16.68826472801635
 20
121.2155083602953
 30
0.0
 10
17.38398875158702
 20
120.691266026713
 30
0.0
 10
18.27845929708783
 20
120.0494907910863
 30
0.0
 10
18.89418906091523
 20
119.6388141339071
 30
0.0
 10
19.29652974574309
 20
119.3716636047294
 30
0.0
  0
ARC
  5
118
330
FA
100
AcDbEntity
  8
$DDT_AUDIT_GENERATED_(68)
  6
Continuous
 62
     7
100
AcDbCircle
 10
60.6742724419
 20
105.4612462042
 30
0.0
 40
67.97264263734871
100
AcDbArc
 50
117.9094265566
 51
135.0511447513
  0
SPLINE
  5
119
330
FA
100
AcDbEntity
  8
$DDT_AUDIT_GENERATED_(68)
  6
Continuous
 62
     7
100
AcDbSpline
210
0.0
220
0.0
230
1.0
 70
     8
 71
     3
 72
   102
 73
    98
 74
     0
 42
0.0000000002362411
 43
0.0000000001
 40
0.0
 40
0.0
 40
0.0
 40
0.0
 40
0.0064304019364023
 40
0.0172646111486469
 40
0.0262537609643743
 40
0.0334147253517832
 40
0.0387704221946525
 40
0.0411948295889444
 40
0.0429803731321813
 40
0.0446446993048057
 40
0.0461303591380202
 40
0.0483173972603729
 40
0.0535411336545542
 40
0.0596995477747986
 40
0.0659712776860039
 40
0.0723553738808089
 40
0.0788480352692176
 40
0.0862142485494754
 40
0.0938762708899064
 40
0.1020994807232072
 40
0.1106144384658775
 40
0.1193607695249617
 40
0.1283713470438226
 40
0.1376699736237348
 40
0.1453219401058846
 40
0.1519307223315008
 40
0.1565477191236858
 40
0.1592302379028908
 40
0.1614406354598082
 40
0.1644958447714429
 40
0.1683172626281934
 40
0.1731570519555358
 40
0.1809330874114206
 40
0.1900405424239847
 40
0.2004239410790757
 40
0.2121580994981449
 40
0.2348618701992404
 40
0.2585070564480779
 40
0.2820008156733566
 40
0.3057983093938224
 40
0.3293232205112135
 40
0.3526914476594873
 40
0.3762832918615837
 40
0.3978844207194288
 40
0.4187221312841604
 40
0.4381051933179159
 40
0.4557207787309766
 40
0.4719011510777773
 40
0.4870016128548326
 40
0.4983874384472688
 40
0.5087697985686269
 40
0.5198192047616654
 40
0.5322380127615197
 40
0.545413603687031
 40
0.5594665904474482
 40
0.5747655068964043
 40
0.5901458128256392
 40
0.6053162836338961
 40
0.6225046735873017
 40
0.6395329364881727
 40
0.6568559554335012
 40
0.6735981484561278
 40
0.6882805573010901
 40
0.7013272477356797
 40
0.71237870635149
 40
0.7185693597857278
 40
0.7259389440531706
 40
0.735125127677811
 40
0.7461136935312818
 40
0.7589053144272355
 40
0.7712380143820832
 40
0.7825407185704719
 40
0.7933753501983756
 40
0.8028046558817361
 40
0.811771380327459
 40
0.8198418463624925
 40
0.8274442941204455
 40
0.8331823091692897
 40
0.8398422331373453
 40
0.847497333394982
 40
0.8559141619042261
 40
0.8638967769828757
 40
0.870482445613252
 40
0.8758993973658235
 40
0.8801309854892088
 40
0.8835595974576517
 40
0.8872287117508174
 40
0.8920524993096133
 40
0.8979473049215845
 40
0.9034685434452867
 40
0.9097624863288478
 40
0.9165414500306122
 40
0.9238011642546385
 40
0.9396606444910762
 40
0.9579554070085531
 40
0.9782767138207069
 40
1.0
 40
1.0
 40
1.0
 40
1.0
 10
56.93213427764103
 20
195.6156844199554
 30
0.0
 10
56.84078539013643
 20
195.5727509089928
 30
0.0
 10
56.63242896603882
 20
195.4744462025047
 30
0.0
 10
56.29343395735938
 20
195.2963984462591
 30
0.0
 10
55.94573528888261
 20
195.1032054353433
 30
0.0
 10
55.64558315425923
 20
194.9265130440926
 30
0.0
 10
55.41455971022362
 20
194.7848588997256
 30
0.0
 10
55.22917946896016
 20
194.6673977971485
 30
0.0
 10
55.1048022253056
 20
194.5871463593713
 30
0.0
 10
54.92171022199261
 20
194.4667515350366
 30
0.0
 10
54.7161233298734
 20
194.3264276427907
 30
0.0
 10
54.46280813073214
 20
194.1468131376165
 30
0.0
 10
54.13918006380472
 20
193.9045791589182
 30
0.0
 10
53.77356442160886
 20
193.6121235720718
 30
0.0
 10
53.43704740489713
 20
193.3253389378637
 30
0.0
 10
53.1453358979162
 20
193.0633676042512
 30
0.0
 10
52.88547615391543
 20
192.8195594511741
 30
0.0
 10
52.65947605570675
 20
192.5990666194335
 30
0.0
 10
52.4667119623723
 20
192.4044273642978
 30
0.0
 10
52.25078714482655
 20
192.1758874722017
 30
0.0
 10
52.01515927278517
 20
191.916011895377
 30
0.0
 10
51.76331609972924
 20
191.6252564114323
 30
0.0
 10
51.49236472217502
 20
191.296727992739
 30
0.0
 10
51.25525935770033
 20
190.9861252016882
 30
0.0
 10
51.0368729359169
 20
190.6878918462074
 30
0.0
 10
50.86063498824173
 20
190.435041399317
 30
0.0
 10
50.73289357489713
 20
190.2451488236542
 30
0.0
 10
50.62825991549499
 20
190.0848293328271
 30
0.0
 10
50.54759040749455
 20
189.9584044897909
 30
0.0
 10
50.4844861724853
 20
189.8577265451774
 30
0.0
 10
50.41519860031073
 20
189.7458129152841
 30
0.0
 10
50.34278754460699
 20
189.6226301717922
 30
0.0
 10
50.26104913640264
 20
189.480521790476
 30
0.0
 10
50.17552860023726
 20
189.3254411659953
 30
0.0
 10
50.0882456908905
 20
189.1642070005774
 30
0.0
 10
49.96766318595041
 20
188.9471506139205
 30
0.0
 10
49.82740676033833
 20
188.690233387758
 30
0.0
 10
49.64900587990126
 20
188.3595020928866
 30
0.0
 10
49.46592472164516
 20
188.0090179928023
 30
0.0
 10
49.29459354769294
 20
187.6537710689892
 30
0.0
 10
49.13111216443916
 20
187.2942726933711
 30
0.0
 10
48.98101142941954
 20
186.9344346272489
 30
0.0
 10
48.82659509935032
 20
186.5765798107423
 30
0.0
 10
48.6755410517716
 20
186.2289495338399
 30
0.0
 10
48.53104925199329
 20
185.8981399597361
 30
0.0
 10
48.39506901532364
 20
185.5797688202296
 30
0.0
 10
48.26637596640413
 20
185.2774320554628
 30
0.0
 10
48.1468763620442
 20
184.9894108476786
 30
0.0
 10
48.04582107864611
 20
184.7300057558118
 30
0.0
 10
47.95417401664298
 20
184.494388520089
 30
0.0
 10
47.86971791832146
 20
184.273554572647
 30
0.0
 10
47.7813517799678
 20
184.0391133825594
 30
0.0
 10
47.69123282805947
 20
183.7824194228141
 30
0.0
 10
47.59206683932671
 20
183.4957759944091
 30
0.0
 10
47.48594963944913
 20
183.1808023354043
 30
0.0
 10
47.38096534668539
 20
182.8522325459524
 30
0.0
 10
47.27806474723366
 20
182.5259254457801
 30
0.0
 10
47.17104647463509
 20
182.1933567597416
 30
0.0
 10
47.07330044507621
 20
181.850954343753
 30
0.0
 10
46.96930166810066
 20
181.4942368151693
 30
0.0
 10
46.86727952665559
 20
181.1357887913597
 30
0.0
 10
46.77189686240742
 20
180.788990220641
 30
0.0
 10
46.68374441216152
 20
180.4825161540086
 30
0.0
 10
46.6073056054435
 20
180.2238473867976
 30
0.0
 10
46.54800226128575
 20
180.0396217489375
 30
0.0
 10
46.50215560321912
 20
179.9096790650901
 30
0.0
 10
46.46165962876866
 20
179.8015256630451
 30
0.0
 10
46.40842955945477
 20
179.6689747252176
 30
0.0
 10
46.33422437029079
 20
179.4976101482719
 30
0.0
 10
46.23018896541703
 20
179.2741368738287
 30
0.0
 10
46.0947324340279
 20
179.0121074668134
 30
0.0
 10
45.92962644990047
 20
178.7165057057782
 30
0.0
 10
45.74372514599802
 20
178.4155003713466
 30
0.0
 10
45.54070740741535
 20
178.1136526599548
 30
0.0
 10
45.31726702196597
 20
177.8044793363229
 30
0.0
 10
45.07704441925339
 20
177.4979798454585
 30
0.0
 10
44.83993975717336
 20
177.2153676892725
 30
0.0
 10
44.57104561702077
 20
176.9157533899443
 30
0.0
 10
44.26575647488421
 20
176.5934036055437
 30
0.0
 10
43.87382831992747
 20
176.2019408662873
 30
0.0
 10
43.41183323203979
 20
175.7656973804593
 30
0.0
 10
42.93134818386098
 20
175.3330233526892
 30
0.0
 10
42.47711534239206
 20
174.9420225421751
 30
0.0
 10
42.0872707045466
 20
174.6159329360821
 30
0.0
 10
41.75838545370114
 20
174.346804556475
 30
0.0
 10
41.45665080885487
 20
174.1041188003332
 30
0.0
 10
41.12618320003703
 20
173.8426289558384
 30
0.0
 10
40.71234145294233
 20
173.521443039585
 30
0.0
 10
40.22048438023855
 20
173.1493511846196
 30
0.0
 10
39.6597380311721
 20
172.7341950674428
 30
0.0
 10
39.04427252607437
 20
172.2882575560844
 30
0.0
 10
38.34344524332479
 20
171.790714667008
 30
0.0
 10
37.28213838592325
 20
171.0494577748102
 30
0.0
 10
35.77032083014378
 20
170.0142422696741
 30
0.0
 10
33.77587715552377
 20
168.6759826559946
 30
0.0
 10
31.4210762665466
 20
167.1603566671815
 30
0.0
 10
29.93912849628254
 20
166.2325389395093
 30
0.0
 10
29.02647236625359
 20
165.6630723009427
 30
0.0
  0
LINE
  5
11B
330
FA
100
AcDbEntity
  8
DV3_Standard
  6
CENTER2
 62
     7
100
AcDbLine
 10
83.8444482394
 20
183.1202633024
 30
0.0
 11
43.8444491335
 21
183.1202633024
 31
0.0
  0
LINE
  5
11C
330
FA
100
AcDbEntity
  8
DV3_Standard
  6
CENTER2
 62
     7
100
AcDbLine
 10
63.8444486864
 20
203.1202628553
 30
0.0
 11
63.8444486864
 21
163.1202637494
 31
0.0
  0
LINE
  5
11D
330
FA
100
AcDbEntity
  8
DV3_Standard
  6
CENTER2
 62
     7
100
AcDbLine
 10
88.8444481276
 20
183.1202633024
 30
0.0
 11
74.9602367445
 21
183.1202633024
 31
0.0
  0
LINE
  5
11E
330
FA
100
AcDbEntity
  8
DV3_Standard
  6
CENTER2
 62
     7
100
AcDbLine
 10
63.8444486864
 20
208.1202627436
 30
0.0
 11
63.8444486864
 21
194.2360513604
 31
0.0
  0
LINE
  5
11F
330
FA
100
AcDbEntity
  8
DV3_Standard
  6
CENTER2
 62
     7
100
AcDbLine
 10
38.8444492452
 20
183.1202633024
 30
0.0
 11
52.7286606284
 21
183.1202633024
 31
0.0
  0
LINE
  5
120
330
FA
100
AcDbEntity
  8
DV3_Standard
  6
CENTER2
 62
     7
100
AcDbLine
 10
63.8444486864
 20
158.1202638612
 30
0.0
 11
63.8444486864
 21
172.0044752443
 31
0.0
  0
ENDBLK
  5
122
330
FA
100
AcDbEntity
  8
0
100
AcDbBlockEnd
  0
ENDSEC
  0
SECTION
  2
ENTITIES
  0
INSERT
  5
5F
330
1F
100
AcDbEntity
  8
Default
100
AcDbBlockReference
  2
SE
 10
0.0
 20
0.0
 30
0.0
  0
INSERT
  5
AC
330
1F
100
AcDbEntity
  8
Default
100
AcDbBlockReference
  2
SE1
 10
0.0
 20
0.0
 30
0.0
  0
INSERT
  5
FB
330
1F
100
AcDbEntity
  8
Default
100
AcDbBlockReference
  2
SE2
 10
0.0
 20
0.0
 30
0.0
  0
TEXT
  5
124
330
1F
100
AcDbEntity
  8
Default
  6
Continuous
 62
     7
100
AcDbText
 10
5.9362635081
 20
53.4225120485
 30
0.0
 40
10.0
  1
Grohe AG^J
  7
SEACAD_seiso_ttf
 11
5.9362635081
 21
63.4225120485
 31
0.0
100
AcDbText
 73
     3
  0
TEXT
  5
125
330
1F
100
AcDbEntity
  8
Default
  6
Continuous
 62
     7
100
AcDbText
 10
5.9362635081
 20
37.0588756849
 30
0.0
 40
10.0
  1
 
  7
SEACAD_seiso_ttf
 11
5.9362635081
 21
47.0588756849
 31
0.0
100
AcDbText
 73
     3
  0
TEXT
  5
126
330
1F
100
AcDbEntity
  8
Default
  6
Continuous
 62
     7
100
AcDbText
 10
5.9362635081
 20
20.6952393213
 30
0.0
 40
10.0
  1
ecn: 
  7
SEACAD_seiso_ttf
 11
5.9362635081
 21
30.6952393213
 31
0.0
100
AcDbText
 73
     3
  0
TEXT
  5
127
330
1F
100
AcDbEntity
  8
Default
  6
Continuous
 62
     7
100
AcDbText
 10
5.9362635081
 20
4.3316029576
 30
0.0
 40
10.0
  1
unit: mm
  7
SEACAD_seiso_ttf
 11
5.9362635081
 21
14.3316029576
 31
0.0
100
AcDbText
 73
     3
  0
LINE
  5
128
330
1F
100
AcDbEntity
  8
Default
  6
Continuous
 62
     7
100
AcDbLine
 10
0.0
 20
0.0
 30
0.0
 11
100.0
 21
0.0
 31
0.0
  0
LINE
  5
129
330
1F
100
AcDbEntity
  8
Default
  6
Continuous
 62
     7
100
AcDbLine
 10
0.0
 20
0.0
 30
0.0
 11
0.0
 21
100.0
 31
0.0
  0
TEXT
  5
12A
330
1F
100
AcDbEntity
  8
Default
  6
Continuous
 62
     7
100
AcDbText
 10
24.3923665681
 20
-18.2375342018
 30
0.0
 40
10.0
  1
100 mm
  7
SEACAD_seiso_ttf
 11
24.3923665681
 21
-8.2375342018
 31
0.0
100
AcDbText
 73
     3
  0
TEXT
  5
12B
330
1F
100
AcDbEntity
  8
Default
  6
Continuous
 62
     7
100
AcDbText
 10
-7.6150308803
 20
24.6231930421
 30
0.0
 40
10.0
  1
100 mm
 50
90.0
  7
SEACAD_seiso_ttf
 11
-17.6150308803
 21
24.6231930421
 31
0.0
100
AcDbText
 73
     3
  0
TEXT
  5
12C
330
1F
100
AcDbEntity
  8
Default
  6
Continuous
 62
     7
100
AcDbText
 10
28.4878128572
 20
20.0907663715
 30
0.0
 40
10.0
  1
213916
  7
SEACAD_seiso_ttf
 11
28.4878128572
 21
30.0907663715
 31
0.0
100
AcDbText
 73
     3
  0
TEXT
  5
12D
330
1F
100
AcDbEntity
  8
Default
  6
Continuous
 62
     7
100
AcDbText
 10
5.9012241913
 20
36.7242780188
 30
0.0
 40
10.0
  1
27239000
  7
SEACAD_seiso_ttf
 11
5.9012241913
 21
46.7242780188
 31
0.0
100
AcDbText
 73
     3
  0
ENDSEC
  0
SECTION
  2
OBJECTS
  0
DICTIONARY
  5
C
330
0
100
AcDbDictionary
281
     1
  3
ACAD_GROUP
350
D
  3
ACAD_LAYOUT
350
1A
  3
ACAD_MLEADERSTYLE
350
131
  3
ACAD_MLINESTYLE
350
17
  3
ACAD_PLOTSETTINGS
350
19
  3
ACAD_PLOTSTYLENAME
350
E
  3
ACAD_SCALELIST
350
3B
  3
ACAD_TABLESTYLE
350
130
  3
ACAD_VISUALSTYLE
350
2A
  3
AcDbVariableDictionary
350
12E
  0
DICTIONARY
  5
D
102
{ACAD_REACTORS
330
C
102
}
330
C
100
AcDbDictionary
281
     1
  0
DICTIONARY
  5
1A
102
{ACAD_REACTORS
330
C
102
}
330
C
100
AcDbDictionary
281
     1
  3
Layout1
350
1E
  3
Model
350
22
  0
DICTIONARY
  5
131
102
{ACAD_REACTORS
330
C
102
}
330
C
100
AcDbDictionary
281
     1
  0
DICTIONARY
  5
17
102
{ACAD_REACTORS
330
C
102
}
330
C
100
AcDbDictionary
281
     1
  3
Standard
350
18
  0
DICTIONARY
  5
19
102
{ACAD_REACTORS
330
C
102
}
330
C
100
AcDbDictionary
281
     1
  0
ACDBDICTIONARYWDFLT
  5
E
102
{ACAD_REACTORS
330
C
102
}
330
C
100
AcDbDictionary
281
     1
  3
Normal
350
F
100
AcDbDictionaryWithDefault
340
F
  0
DICTIONARY
  5
3B
102
{ACAD_REACTORS
330
C
102
}
330
C
100
AcDbDictionary
281
     1
  3
A0
350
3C
  3
A1
350
3D
  3
A2
350
3E
  3
A3
350
3F
  3
A4
350
40
  3
A5
350
41
  3
A6
350
42
  3
A7
350
43
  3
A8
350
44
  3
A9
350
45
  3
B0
350
46
  3
B1
350
47
  3
B2
350
48
  3
B3
350
49
  3
B4
350
4A
  3
B5
350
4B
  3
B6
350
4C
  3
B7
350
4D
  3
B8
350
4E
  3
B9
350
4F
  3
C0
350
50
  3
C1
350
51
  3
C2
350
52
  3
C3
350
53
  3
C4
350
54
  3
C5
350
55
  3
C6
350
56
  3
C7
350
57
  3
C8
350
58
  3
C9
350
59
  3
D0
350
5A
  3
D1
350
5B
  3
D2
350
5C
  0
DICTIONARY
  5
130
102
{ACAD_REACTORS
330
C
102
}
330
C
100
AcDbDictionary
281
     1
  0
DICTIONARY
  5
2A
102
{ACAD_REACTORS
330
C
102
}
330
C
100
AcDbDictionary
281
     1
  3
2dWireframe
350
2F
  3
3D Hidden
350
31
  3
3dWireframe
350
30
  3
Basic
350
32
  3
Brighten
350
36
  3
ColorChange
350
3A
  3
Conceptual
350
34
  3
Dim
350
35
  3
Facepattern
350
39
  3
Flat
350
2B
  3
FlatWithEdges
350
2C
  3
Gouraud
350
2D
  3
GouraudWithEdges
350
2E
  3
Linepattern
350
38
  3
Realistic
350
33
  3
Thicken
350
37
  0
DICTIONARY
  5
12E
102
{ACAD_REACTORS
330
C
102
}
330
C
100
AcDbDictionary
281
     1
  3
CANNOSCALE
350
12F
  3
PSOLHEIGHT
350
133
  3
PSOLWIDTH
350
132
  0
LAYOUT
  5
1E
102
{ACAD_REACTORS
330
1A
102
}
330
1A
100
AcDbPlotSettings
  1

  2
none_device
  4

  6

 40
0.0
 41
0.0
 42
0.0
 43
0.0
 44
0.0
 45
0.0
 46
0.0
 47
0.0
 48
0.0
 49
0.0
140
0.0
141
0.0
142
1.0
143
1.0
 70
   688
 72
     0
 73
     0
 74
     5
  7

 75
    16
147
1.0
148
0.0
149
0.0
100
AcDbLayout
  1
Layout1
 70
     1
 71
     1
 10
0.0
 20
0.0
 11
1682.0
 21
2378.0
 12
0.0
 22
0.0
 32
0.0
 14
0.0
 24
0.0
 34
0.0
 15
1682.0
 25
2378.0
 35
0.0
146
0.0
 13
0.0
 23
0.0
 33
0.0
 16
1.0
 26
0.0
 36
0.0
 17
0.0
 27
1.0
 37
0.0
 76
     0
330
1B
  0
LAYOUT
  5
22
102
{ACAD_REACTORS
330
1A
102
}
330
1A
100
AcDbPlotSettings
  1

  2
none_device
  4

  6

 40
0.0
 41
0.0
 42
0.0
 43
0.0
 44
0.0
 45
0.0
 46
0.0
 47
0.0
 48
0.0
 49
0.0
140
0.0
141
0.0
142
1.0
143
1.0
 70
  1712
 72
     0
 73
     0
 74
     0
  7

 75
     0
147
1.0
148
0.0
149
0.0
100
AcDbLayout
  1
Model
 70
     1
 71
     0
 10
0.0
 20
0.0
 11
1682.0
 21
2378.0
 12
0.0
 22
0.0
 32
0.0
 14
0.0
 24
0.0
 34
0.0
 15
1682.0
 25
2378.0
 35
0.0
146
0.0
 13
0.0
 23
0.0
 33
0.0
 16
1.0
 26
0.0
 36
0.0
 17
0.0
 27
1.0
 37
0.0
 76
     0
330
1F
331
29
  0
MLINESTYLE
  5
18
102
{ACAD_REACTORS
330
17
102
}
330
17
100
AcDbMlineStyle
  2
Standard
 70
     0
  3

 62
   256
 51
90.0
 52
90.0
 71
     2
 49
0.5
 62
   256
  6
BYLAYER
 49
-0.5
 62
   256
  6
BYLAYER
  0
ACDBPLACEHOLDER
  5
F
102
{ACAD_REACTORS
330
E
102
}
330
E
  0
SCALE
  5
3C
102
{ACAD_REACTORS
330
3B
102
}
330
3B
100
AcDbScale
 70
     0
300
1:1
140
1.0
141
1.0
290
     1
  0
SCALE
  5
3D
102
{ACAD_REACTORS
330
3B
102
}
330
3B
100
AcDbScale
 70
     0
300
1:2
140
1.0
141
2.0
290
     0
  0
SCALE
  5
3E
102
{ACAD_REACTORS
330
3B
102
}
330
3B
100
AcDbScale
 70
     0
300
1:4
140
1.0
141
4.0
290
     0
  0
SCALE
  5
3F
102
{ACAD_REACTORS
330
3B
102
}
330
3B
100
AcDbScale
 70
     0
300
1:5
140
1.0
141
5.0
290
     0
  0
SCALE
  5
40
102
{ACAD_REACTORS
330
3B
102
}
330
3B
100
AcDbScale
 70
     0
300
1:8
140
1.0
141
8.0
290
     0
  0
SCALE
  5
41
102
{ACAD_REACTORS
330
3B
102
}
330
3B
100
AcDbScale
 70
     0
300
1:10
140
1.0
141
10.0
290
     0
  0
SCALE
  5
42
102
{ACAD_REACTORS
330
3B
102
}
330
3B
100
AcDbScale
 70
     0
300
1:16
140
1.0
141
16.0
290
     0
  0
SCALE
  5
43
102
{ACAD_REACTORS
330
3B
102
}
330
3B
100
AcDbScale
 70
     0
300
1:20
140
1.0
141
20.0
290
     0
  0
SCALE
  5
44
102
{ACAD_REACTORS
330
3B
102
}
330
3B
100
AcDbScale
 70
     0
300
1:30
140
1.0
141
30.0
290
     0
  0
SCALE
  5
45
102
{ACAD_REACTORS
330
3B
102
}
330
3B
100
AcDbScale
 70
     0
300
1:40
140
1.0
141
40.0
290
     0
  0
SCALE
  5
46
102
{ACAD_REACTORS
330
3B
102
}
330
3B
100
AcDbScale
 70
     0
300
1:50
140
1.0
141
50.0
290
     0
  0
SCALE
  5
47
102
{ACAD_REACTORS
330
3B
102
}
330
3B
100
AcDbScale
 70
     0
300
1:100
140
1.0
141
100.0
290
     0
  0
SCALE
  5
48
102
{ACAD_REACTORS
330
3B
102
}
330
3B
100
AcDbScale
 70
     0
300
2:1
140
2.0
141
1.0
290
     0
  0
SCALE
  5
49
102
{ACAD_REACTORS
330
3B
102
}
330
3B
100
AcDbScale
 70
     0
300
4:1
140
4.0
141
1.0
290
     0
  0
SCALE
  5
4A
102
{ACAD_REACTORS
330
3B
102
}
330
3B
100
AcDbScale
 70
     0
300
8:1
140
8.0
141
1.0
290
     0
  0
SCALE
  5
4B
102
{ACAD_REACTORS
330
3B
102
}
330
3B
100
AcDbScale
 70
     0
300
10:1
140
10.0
141
1.0
290
     0
  0
SCALE
  5
4C
102
{ACAD_REACTORS
330
3B
102
}
330
3B
100
AcDbScale
 70
     0
300
100:1
140
100.0
141
1.0
290
     0
  0
SCALE
  5
4D
102
{ACAD_REACTORS
330
3B
102
}
330
3B
100
AcDbScale
 70
     0
300
1/128" = 1'-0"
140
0.0078125
141
12.0
290
     0
  0
SCALE
  5
4E
102
{ACAD_REACTORS
330
3B
102
}
330
3B
100
AcDbScale
 70
     0
300
1/64" = 1'-0"
140
0.015625
141
12.0
290
     0
  0
SCALE
  5
4F
102
{ACAD_REACTORS
330
3B
102
}
330
3B
100
AcDbScale
 70
     0
300
1/32" = 1'-0"
140
0.03125
141
12.0
290
     0
  0
SCALE
  5
50
102
{ACAD_REACTORS
330
3B
102
}
330
3B
100
AcDbScale
 70
     0
300
1/16" = 1'-0"
140
0.0625
141
12.0
290
     0
  0
SCALE
  5
51
102
{ACAD_REACTORS
330
3B
102
}
330
3B
100
AcDbScale
 70
     0
300
3/32" = 1'-0"
140
0.09375
141
12.0
290
     0
  0
SCALE
  5
52
102
{ACAD_REACTORS
330
3B
102
}
330
3B
100
AcDbScale
 70
     0
300
1/8" = 1'-0"
140
0.125
141
12.0
290
     0
  0
SCALE
  5
53
102
{ACAD_REACTORS
330
3B
102
}
330
3B
100
AcDbScale
 70
     0
300
3/16" = 1'-0"
140
0.1875
141
12.0
290
     0
  0
SCALE
  5
54
102
{ACAD_REACTORS
330
3B
102
}
330
3B
100
AcDbScale
 70
     0
300
1/4" = 1'-0"
140
0.25
141
12.0
290
     0
  0
SCALE
  5
55
102
{ACAD_REACTORS
330
3B
102
}
330
3B
100
AcDbScale
 70
     0
300
3/8" = 1'-0"
140
0.375
141
12.0
290
     0
  0
SCALE
  5
56
102
{ACAD_REACTORS
330
3B
102
}
330
3B
100
AcDbScale
 70
     0
300
1/2" = 1'-0"
140
0.5
141
12.0
290
     0
  0
SCALE
  5
57
102
{ACAD_REACTORS
330
3B
102
}
330
3B
100
AcDbScale
 70
     0
300
3/4" = 1'-0"
140
0.75
141
12.0
290
     0
  0
SCALE
  5
58
102
{ACAD_REACTORS
330
3B
102
}
330
3B
100
AcDbScale
 70
     0
300
1" = 1'-0"
140
1.0
141
12.0
290
     0
  0
SCALE
  5
59
102
{ACAD_REACTORS
330
3B
102
}
330
3B
100
AcDbScale
 70
     0
300
1-1/2" = 1'-0"
140
1.5
141
12.0
290
     0
  0
SCALE
  5
5A
102
{ACAD_REACTORS
330
3B
102
}
330
3B
100
AcDbScale
 70
     0
300
3" = 1'-0"
140
3.0
141
12.0
290
     0
  0
SCALE
  5
5B
102
{ACAD_REACTORS
330
3B
102
}
330
3B
100
AcDbScale
 70
     0
300
6" = 1'-0"
140
6.0
141
12.0
290
     0
  0
SCALE
  5
5C
102
{ACAD_REACTORS
330
3B
102
}
330
3B
100
AcDbScale
 70
     0
300
1'-0" = 1'-0"
140
12.0
141
12.0
290
     0
  0
VISUALSTYLE
  5
2F
102
{ACAD_REACTORS
330
2A
102
}
330
2A
100
AcDbVisualStyle
  2
2dWireframe
 70
     4
 71
     0
 72
     2
 73
     0
 90
        0
 40
-0.6
 41
-30.0
 62
     5
 63
     7
 74
     1
 91
        4
 64
     7
 65
   257
 75
     1
175
     1
 42
1.0
 92
        0
 66
   257
 43
1.0
 76
     1
 77
     6
 78
     2
 67
     7
 79
     5
170
     0
171
     0
290
     0
174
     0
 93
        1
 44
0.0
173
     0
291
     0
 45
0.0
1001
ACAD
1000
AcDbSavedByObjectVersion
1070
     0
  0
VISUALSTYLE
  5
31
102
{ACAD_REACTORS
330
2A
102
}
330
2A
100
AcDbVisualStyle
  2
3D Hidden
 70
     6
 71
     1
 72
     2
 73
     2
 90
        0
 40
-0.6
 41
-30.0
 62
     5
 63
     7
 74
     2
 91
        2
 64
     7
 65
   257
 75
     2
175
     1
 42
40.0
 92
        0
 66
   257
 43
1.0
 76
     1
 77
     6
 78
     2
 67
     7
 79
     3
170
     0
171
     0
290
     0
174
     0
 93
        1
 44
0.0
173
     0
291
     0
 45
0.0
1001
ACAD
1000
AcDbSavedByObjectVersion
1070
     0
  0
VISUALSTYLE
  5
30
102
{ACAD_REACTORS
330
2A
102
}
330
2A
100
AcDbVisualStyle
  2
3dWireframe
 70
     5
 71
     0
 72
     2
 73
     0
 90
        0
 40
-0.6
 41
-30.0
 62
     5
 63
     7
 74
     1
 91
        4
 64
     7
 65
   257
 75
     1
175
     1
 42
1.0
 92
        0
 66
   257
 43
1.0
 76
     1
 77
     6
 78
     2
 67
     7
 79
     5
170
     0
171
     0
290
     0
174
     0
 93
        1
 44
0.0
173
     0
291
     0
 45
0.0
1001
ACAD
1000
AcDbSavedByObjectVersion
1070
     0
  0
VISUALSTYLE
  5
32
102
{ACAD_REACTORS
330
2A
102
}
330
2A
100
AcDbVisualStyle
  2
Basic
 70
     7
 71
     1
 72
     0
 73
     1
 90
        0
 40
-0.6
 41
-30.0
 62
     5
 63
     7
 74
     0
 91
        4
 64
     7
 65
   257
 75
     1
175
     1
 42
1.0
 92
        8
 66
     7
 43
1.0
 76
     1
 77
     6
 78
     2
 67
     7
 79
     5
170
     0
171
     0
290
     0
174
     0
 93
        1
 44
0.0
173
     0
291
     1
 45
0.0
1001
ACAD
1000
AcDbSavedByObjectVersion
1070
     0
  0
VISUALSTYLE
  5
36
102
{ACAD_REACTORS
330
2A
102
}
330
2A
100
AcDbVisualStyle
  2
Brighten
 70
    12
 71
     2
 72
     2
 73
     0
 90
        0
 40
-0.6
 41
-30.0
 62
     5
 63
     7
 74
     1
 91
        4
 64
     7
 65
   257
 75
     1
175
     1
 42
1.0
 92
        8
 66
     7
 43
1.0
 76
     1
 77
     6
 78
     2
 67
     7
 79
     5
170
     0
171
     0
290
     0
174
     0
 93
        1
 44
50.0
173
     0
291
     1
 45
0.0
1001
ACAD
1000
AcDbSavedByObjectVersion
1070
     0
  0
VISUALSTYLE
  5
3A
102
{ACAD_REACTORS
330
2A
102
}
330
2A
100
AcDbVisualStyle
  2
ColorChange
 70
    16
 71
     2
 72
     2
 73
     3
 90
        0
 40
-0.6
 41
-30.0
 62
     5
 63
     8
 74
     1
 91
        4
 64
     7
 65
   257
 75
     1
175
     1
 42
1.0
 92
        8
 66
     8
 43
1.0
 76
     1
 77
     6
 78
     2
 67
     7
 79
     5
170
     0
171
     0
290
     0
174
     0
 93
        1
 44
0.0
173
     0
291
     1
 45
0.0
1001
ACAD
1000
AcDbSavedByObjectVersion
1070
     0
  0
VISUALSTYLE
  5
34
102
{ACAD_REACTORS
330
2A
102
}
330
2A
100
AcDbVisualStyle
  2
Conceptual
 70
     9
 71
     3
 72
     2
 73
     0
 90
        0
 40
-0.6
 41
-30.0
 62
     5
 63
     7
 74
     2
 91
        2
 64
     7
 65
   257
 75
     1
175
     1
 42
40.0
 92
        8
 66
     7
 43
1.0
 76
     1
 77
     6
 78
     2
 67
     7
 79
     3
170
     0
171
     0
290
     0
174
     0
 93
        1
 44
0.0
173
     0
291
     0
 45
0.0
1001
ACAD
1000
AcDbSavedByObjectVersion
1070
     0
  0
VISUALSTYLE
  5
35
102
{ACAD_REACTORS
330
2A
102
}
330
2A
100
AcDbVisualStyle
  2
Dim
 70
    11
 71
     2
 72
     2
 73
     0
 90
        0
 40
-0.6
 41
-30.0
 62
     5
 63
     7
 74
     1
 91
        4
 64
     7
 65
   257
 75
     1
175
     1
 42
1.0
 92
        8
 66
     7
 43
1.0
 76
     1
 77
     6
 78
     2
 67
     7
 79
     5
170
     0
171
     0
290
     0
174
     0
 93
        1
 44
-50.0
173
     0
291
     1
 45
0.0
1001
ACAD
1000
AcDbSavedByObjectVersion
1070
     0
  0
VISUALSTYLE
  5
39
102
{ACAD_REACTORS
330
2A
102
}
330
2A
100
AcDbVisualStyle
  2
Facepattern
 70
    15
 71
     2
 72
     2
 73
     0
 90
        0
 40
-0.6
 41
-30.0
 62
     5
 63
     7
 74
     1
 91
        4
 64
     7
 65
   257
 75
     1
175
     1
 42
1.0
 92
        8
 66
     7
 43
1.0
 76
     1
 77
     6
 78
     2
 67
     7
 79
     5
170
     0
171
     0
290
     0
174
     0
 93
        1
 44
0.0
173
     0
291
     1
 45
0.0
1001
ACAD
1000
AcDbSavedByObjectVersion
1070
     0
  0
VISUALSTYLE
  5
2B
102
{ACAD_REACTORS
330
2A
102
}
330
2A
100
AcDbVisualStyle
  2
Flat
 70
     0
 71
     2
 72
     1
 73
     1
 90
        2
 40
-0.6
 41
30.0
 62
     5
 63
     7
 74
     0
 91
        4
 64
     7
 65
   257
 75
     1
175
     1
 42
1.0
 92
        8
 66
     7
 43
1.0
 76
     1
 77
     6
 78
     2
 67
     7
 79
     5
170
     0
171
     0
290
     0
174
     0
 93
       13
 44
0.0
173
     0
291
     1
 45
0.0
1001
ACAD
1000
AcDbSavedByObjectVersion
1070
     0
  0
VISUALSTYLE
  5
2C
102
{ACAD_REACTORS
330
2A
102
}
330
2A
100
AcDbVisualStyle
  2
FlatWithEdges
 70
     1
 71
     2
 72
     1
 73
     1
 90
        2
 40
-0.6
 41
30.0
 62
     5
 63
     7
 74
     1
 91
        4
 64
     7
 65
   257
 75
     1
175
     1
 42
1.0
 92
        0
 66
   257
 43
1.0
 76
     1
 77
     6
 78
     2
 67
     7
 79
     5
170
     0
171
     0
290
     0
174
     0
 93
       13
 44
0.0
173
     0
291
     1
 45
0.0
1001
ACAD
1000
AcDbSavedByObjectVersion
1070
     0
  0
VISUALSTYLE
  5
2D
102
{ACAD_REACTORS
330
2A
102
}
330
2A
100
AcDbVisualStyle
  2
Gouraud
 70
     2
 71
     2
 72
     2
 73
     1
 90
        2
 40
-0.6
 41
30.0
 62
     5
 63
     7
 74
     0
 91
        4
 64
     7
 65
   257
 75
     1
175
     1
 42
1.0
 92
        0
 66
     7
 43
1.0
 76
     1
 77
     6
 78
     2
 67
     7
 79
     5
170
     0
171
     0
290
     0
174
     0
 93
       13
 44
0.0
173
     0
291
     1
 45
0.0
1001
ACAD
1000
AcDbSavedByObjectVersion
1070
     0
  0
VISUALSTYLE
  5
2E
102
{ACAD_REACTORS
330
2A
102
}
330
2A
100
AcDbVisualStyle
  2
GouraudWithEdges
 70
     3
 71
     2
 72
     2
 73
     1
 90
        2
 40
-0.6
 41
30.0
 62
     5
 63
     7
 74
     1
 91
        4
 64
     7
 65
   257
 75
     1
175
     1
 42
1.0
 92
        0
 66
   257
 43
1.0
 76
     1
 77
     6
 78
     2
 67
     7
 79
     5
170
     0
171
     0
290
     0
174
     0
 93
       13
 44
0.0
173
     0
291
     1
 45
0.0
1001
ACAD
1000
AcDbSavedByObjectVersion
1070
     0
  0
VISUALSTYLE
  5
38
102
{ACAD_REACTORS
330
2A
102
}
330
2A
100
AcDbVisualStyle
  2
Linepattern
 70
    14
 71
     2
 72
     2
 73
     0
 90
        0
 40
-0.6
 41
-30.0
 62
     5
 63
     7
 74
     1
 91
        4
 64
     7
 65
   257
 75
     7
175
     7
 42
1.0
 92
        8
 66
     7
 43
1.0
 76
     1
 77
     6
 78
     2
 67
     7
 79
     5
170
     0
171
     0
290
     0
174
     0
 93
        1
 44
0.0
173
     0
291
     1
 45
0.0
1001
ACAD
1000
AcDbSavedByObjectVersion
1070
     0
  0
VISUALSTYLE
  5
33
102
{ACAD_REACTORS
330
2A
102
}
330
2A
100
AcDbVisualStyle
  2
Realistic
 70
     8
 71
     2
 72
     2
 73
     0
 90
        0
 40
-0.6
 41
-30.0
 62
     5
 63
     7
 74
     1
 91
        0
 64
     7
 65
   257
 75
     1
175
     1
 42
1.0
 92
        8
 66
     8
 43
1.0
 76
     1
 77
     6
 78
     2
 67
     7
 79
     5
170
     0
171
     0
290
     0
174
     0
 93
       13
 44
0.0
173
     0
291
     0
 45
0.0
1001
ACAD
1000
AcDbSavedByObjectVersion
1070
     0
  0
VISUALSTYLE
  5
37
102
{ACAD_REACTORS
330
2A
102
}
330
2A
100
AcDbVisualStyle
  2
Thicken
 70
    13
 71
     2
 72
     2
 73
     0
 90
        0
 40
-0.6
 41
-30.0
 62
     5
 63
     7
 74
     1
 91
        4
 64
     7
 65
   257
 75
     1
175
     1
 42
1.0
 92
       12
 66
     7
 43
1.0
 76
     1
 77
     6
 78
     2
 67
     7
 79
     5
170
     0
171
     0
290
     0
174
     0
 93
        1
 44
0.0
173
     0
291
     1
 45
0.0
1001
ACAD
1000
AcDbSavedByObjectVersion
1070
     0
  0
DICTIONARYVAR
  5
12F
102
{ACAD_REACTORS
330
12E
102
}
330
12E
100
DictionaryVariables
280
     0
  1
1:1
  0
DICTIONARYVAR
  5
133
102
{ACAD_REACTORS
330
12E
102
}
330
12E
100
DictionaryVariables
280
     0
  1
80.000000
  0
DICTIONARYVAR
  5
132
102
{ACAD_REACTORS
330
12E
102
}
330
12E
100
DictionaryVariables
280
     0
  1
5.000000
  0
ENDSEC
  0
EOF
