  0
SECTION
  2
HEADER
  9
$ACADVER
  1
AC1018
  9
$ACADMAINTVER
 70
     0
  9
$DWGCODEPAGE
  3
ANSI_1252
  9
$COMMENTS
  1
File was created by Deep Exporation
  9
$INSBASE
 10
0.0
 20
0.0
 30
0.0
  9
$EXTMIN
 10
1.000000000000000E+20
 20
1.000000000000000E+20
 30
1.000000000000000E+20
  9
$EXTMAX
 10
-1.000000000000000E+20
 20
-1.000000000000000E+20
 30
-1.000000000000000E+20
  9
$LIMMIN
 10
0.0
 20
0.0
  9
$LIMMAX
 10
12.0
 20
9.0
  9
$ORTHOMODE
 70
     0
  9
$REGENMODE
 70
     1
  9
$FILLMODE
 70
     1
  9
$QTEXTMODE
 70
     0
  9
$MIRRTEXT
 70
     1
  9
$LTSCALE
 40
1.0
  9
$ATTMODE
 70
     1
  9
$TEXTSIZE
 40
0.2
  9
$TRACEWID
 40
0.05
  9
$TEXTSTYLE
  7
Standard
  9
$CLAYER
  8
0
  9
$CELTYPE
  6
ByLayer
  9
$CECOLOR
 62
   256
  9
$CELTSCALE
 40
1.0
  9
$DISPSILH
 70
     0
  9
$DIMSCALE
 40
1.0
  9
$DIMASZ
 40
0.18
  9
$DIMEXO
 40
0.0625
  9
$DIMDLI
 40
0.38
  9
$DIMRND
 40
0.0
  9
$DIMDLE
 40
0.0
  9
$DIMEXE
 40
0.18
  9
$DIMTP
 40
0.0
  9
$DIMTM
 40
0.0
  9
$DIMTXT
 40
0.18
  9
$DIMCEN
 40
0.09
  9
$DIMTSZ
 40
0.0
  9
$DIMTOL
 70
     0
  9
$DIMLIM
 70
     0
  9
$DIMTIH
 70
     1
  9
$DIMTOH
 70
     1
  9
$DIMSE1
 70
     0
  9
$DIMSE2
 70
     0
  9
$DIMTAD
 70
     0
  9
$DIMZIN
 70
     0
  9
$DIMBLK
  1

  9
$DIMASO
 70
     1
  9
$DIMSHO
 70
     1
  9
$DIMPOST
  1

  9
$DIMAPOST
  1

  9
$DIMALT
 70
     0
  9
$DIMALTD
 70
     2
  9
$DIMALTF
 40
25.4
  9
$DIMLFAC
 40
1.0
  9
$DIMTOFL
 70
     0
  9
$DIMTVP
 40
0.0
  9
$DIMTIX
 70
     0
  9
$DIMSOXD
 70
     0
  9
$DIMSAH
 70
     0
  9
$DIMBLK1
  1

  9
$DIMBLK2
  1

  9
$DIMSTYLE
  2
Standard
  9
$DIMCLRD
 70
     0
  9
$DIMCLRE
 70
     0
  9
$DIMCLRT
 70
     0
  9
$DIMTFAC
 40
1.0
  9
$DIMGAP
 40
0.09
  9
$DIMJUST
 70
     0
  9
$DIMSD1
 70
     0
  9
$DIMSD2
 70
     0
  9
$DIMTOLJ
 70
     1
  9
$DIMTZIN
 70
     0
  9
$DIMALTZ
 70
     0
  9
$DIMALTTZ
 70
     0
  9
$DIMUPT
 70
     0
  9
$DIMDEC
 70
     4
  9
$DIMTDEC
 70
     4
  9
$DIMALTU
 70
     2
  9
$DIMALTTD
 70
     2
  9
$DIMTXSTY
  7
Standard
  9
$DIMAUNIT
 70
     0
  9
$DIMADEC
 70
     0
  9
$DIMALTRND
 40
0.0
  9
$DIMAZIN
 70
     0
  9
$DIMDSEP
 70
    46
  9
$DIMATFIT
 70
     3
  9
$DIMFRAC
 70
     0
  9
$DIMLDRBLK
  1

  9
$DIMLUNIT
 70
     2
  9
$DIMLWD
 70
    -2
  9
$DIMLWE
 70
    -2
  9
$DIMTMOVE
 70
     0
  9
$LUNITS
 70
     2
  9
$LUPREC
 70
     4
  9
$SKETCHINC
 40
0.1
  9
$FILLETRAD
 40
0.5
  9
$AUNITS
 70
     0
  9
$AUPREC
 70
     0
  9
$MENU
  1
.
  9
$ELEVATION
 40
0.0
  9
$PELEVATION
 40
0.0
  9
$THICKNESS
 40
0.0
  9
$LIMCHECK
 70
     0
  9
$CHAMFERA
 40
0.5
  9
$CHAMFERB
 40
0.5
  9
$CHAMFERC
 40
1.0
  9
$CHAMFERD
 40
0.0
  9
$SKPOLY
 70
     0
  9
$TDCREATE
 40
2455559.6485639
  9
$TDUCREATE
 40
2455559.419397234
  9
$TDUPDATE
 40
2455559.6485639
  9
$TDUUPDATE
 40
2455559.419397234
  9
$TDINDWG
 40
0.0000000116
  9
$TDUSRTIMER
 40
0.0000000116
  9
$USRTIMER
 70
     1
  9
$ANGBASE
 50
0.0
  9
$ANGDIR
 70
     0
  9
$PDMODE
 70
     0
  9
$PDSIZE
 40
0.0
  9
$PLINEWID
 40
0.0
  9
$SPLFRAME
 70
     0
  9
$SPLINETYPE
 70
     6
  9
$SPLINESEGS
 70
     8
  9
$HANDSEED
  5
651
  9
$SURFTAB1
 70
     6
  9
$SURFTAB2
 70
     6
  9
$SURFTYPE
 70
     6
  9
$SURFU
 70
     6
  9
$SURFV
 70
     6
  9
$UCSBASE
  2

  9
$UCSNAME
  2

  9
$UCSORG
 10
0.0
 20
0.0
 30
0.0
  9
$UCSXDIR
 10
1.0
 20
0.0
 30
0.0
  9
$UCSYDIR
 10
0.0
 20
1.0
 30
0.0
  9
$UCSORTHOREF
  2

  9
$UCSORTHOVIEW
 70
     0
  9
$UCSORGTOP
 10
0.0
 20
0.0
 30
0.0
  9
$UCSORGBOTTOM
 10
0.0
 20
0.0
 30
0.0
  9
$UCSORGLEFT
 10
0.0
 20
0.0
 30
0.0
  9
$UCSORGRIGHT
 10
0.0
 20
0.0
 30
0.0
  9
$UCSORGFRONT
 10
0.0
 20
0.0
 30
0.0
  9
$UCSORGBACK
 10
0.0
 20
0.0
 30
0.0
  9
$PUCSBASE
  2

  9
$PUCSNAME
  2

  9
$PUCSORG
 10
0.0
 20
0.0
 30
0.0
  9
$PUCSXDIR
 10
1.0
 20
0.0
 30
0.0
  9
$PUCSYDIR
 10
0.0
 20
1.0
 30
0.0
  9
$PUCSORTHOREF
  2

  9
$PUCSORTHOVIEW
 70
     0
  9
$PUCSORGTOP
 10
0.0
 20
0.0
 30
0.0
  9
$PUCSORGBOTTOM
 10
0.0
 20
0.0
 30
0.0
  9
$PUCSORGLEFT
 10
0.0
 20
0.0
 30
0.0
  9
$PUCSORGRIGHT
 10
0.0
 20
0.0
 30
0.0
  9
$PUCSORGFRONT
 10
0.0
 20
0.0
 30
0.0
  9
$PUCSORGBACK
 10
0.0
 20
0.0
 30
0.0
  9
$USERI1
 70
     0
  9
$USERI2
 70
     0
  9
$USERI3
 70
     0
  9
$USERI4
 70
     0
  9
$USERI5
 70
     0
  9
$USERR1
 40
0.0
  9
$USERR2
 40
0.0
  9
$USERR3
 40
0.0
  9
$USERR4
 40
0.0
  9
$USERR5
 40
0.0
  9
$WORLDVIEW
 70
     1
  9
$SHADEDGE
 70
     3
  9
$SHADEDIF
 70
    70
  9
$TILEMODE
 70
     1
  9
$MAXACTVP
 70
    64
  9
$PINSBASE
 10
0.0
 20
0.0
 30
0.0
  9
$PLIMCHECK
 70
     0
  9
$PEXTMIN
 10
1.000000000000000E+20
 20
1.000000000000000E+20
 30
1.000000000000000E+20
  9
$PEXTMAX
 10
-1.000000000000000E+20
 20
-1.000000000000000E+20
 30
-1.000000000000000E+20
  9
$PLIMMIN
 10
0.0
 20
0.0
  9
$PLIMMAX
 10
12.0
 20
9.0
  9
$UNITMODE
 70
     0
  9
$VISRETAIN
 70
     1
  9
$PLINEGEN
 70
     0
  9
$PSLTSCALE
 70
     1
  9
$TREEDEPTH
 70
  3020
  9
$CMLSTYLE
  2
Standard
  9
$CMLJUST
 70
     0
  9
$CMLSCALE
 40
1.0
  9
$PROXYGRAPHICS
 70
     1
  9
$MEASUREMENT
 70
     0
  9
$CELWEIGHT
370
    -1
  9
$ENDCAPS
280
     0
  9
$JOINSTYLE
280
     0
  9
$LWDISPLAY
290
     0
  9
$INSUNITS
 70
     1
  9
$HYPERLINKBASE
  1

  9
$STYLESHEET
  1

  9
$XEDIT
290
     1
  9
$CEPSNTYPE
380
     0
  9
$PSTYLEMODE
290
     1
  9
$FINGERPRINTGUID
  2
{4EFBE66F-F55E-4CA2-B1E5-C8617C16485A}
  9
$VERSIONGUID
  2
{FAEB1C32-E019-11D5-929B-00C0DF256EC4}
  9
$EXTNAMES
290
     1
  9
$PSVPSCALE
 40
0.0
  9
$OLESTARTUP
290
     0
  9
$SORTENTS
280
   127
  9
$INDEXCTL
280
     0
  9
$HIDETEXT
280
     1
  9
$XCLIPFRAME
290
     0
  9
$HALOGAP
280
     0
  9
$OBSCOLOR
 70
   257
  9
$OBSLTYPE
280
     0
  9
$INTERSECTIONDISPLAY
280
     0
  9
$INTERSECTIONCOLOR
 70
   257
  9
$DIMASSOC
280
     2
  9
$PROJECTNAME
  1

  0
ENDSEC
  0
SECTION
  2
CLASSES
  0
CLASS
  1
ACDBDICTIONARYWDFLT
  2
AcDbDictionaryWithDefault
  3
ObjectDBX Classes
 90
        0
 91
        4
280
     0
281
     0
  0
CLASS
  1
VISUALSTYLE
  2
AcDbVisualStyle
  3
ObjectDBX Classes
 90
     4095
 91
        4
280
     0
281
     0
  0
ENDSEC
  0
SECTION
  2
TABLES
  0
TABLE
  2
VPORT
  5
8
330
0
100
AcDbSymbolTable
 70
     1
  0
VPORT
  5
29
330
8
100
AcDbSymbolTableRecord
100
AcDbViewportTableRecord
  2
*Active
 70
     0
 10
0.0
 20
0.0
 11
1.0
 21
1.0
 12
0.0
 22
0.0
 13
0.0
 23
0.0
 14
0.5
 24
0.5
 15
0.5
 25
0.5
 16
378.0245971679688
 26
215.9954376220703
 36
378.0245971679688
 17
35.02850341796875
 27
0.0
 37
-84.81201171875
 40
277.7594880577199
 41
1.972972972850329
 42
50.0
 43
0.0
 44
0.0
 50
0.0
 51
0.0
 71
     0
 72
   100
 73
     1
 74
     3
 75
     0
 76
     0
 77
     0
 78
     0
281
     0
 65
     1
110
0.0
120
0.0
130
0.0
111
1.0
121
0.0
131
0.0
112
0.0
122
1.0
132
0.0
 79
     0
146
0.0
  0
ENDTAB
  0
TABLE
  2
LTYPE
  5
5
330
0
100
AcDbSymbolTable
 70
     1
  0
LTYPE
  5
14
330
5
100
AcDbSymbolTableRecord
100
AcDbLinetypeTableRecord
  2
ByBlock
 70
     0
  3

 72
    65
 73
     0
 40
0.0
  0
LTYPE
  5
15
330
5
100
AcDbSymbolTableRecord
100
AcDbLinetypeTableRecord
  2
ByLayer
 70
     0
  3

 72
    65
 73
     0
 40
0.0
  0
LTYPE
  5
16
330
5
100
AcDbSymbolTableRecord
100
AcDbLinetypeTableRecord
  2
Continuous
 70
     0
  3
Solid line
 72
    65
 73
     0
 40
0.0
  0
ENDTAB
  0
TABLE
  2
LAYER
  5
2
330
0
100
AcDbSymbolTable
 70
     2
  0
LAYER
  5
10
330
2
100
AcDbSymbolTableRecord
100
AcDbLayerTableRecord
  2
0
 70
     0
 62
     7
  6
Continuous
370
    -3
390
F
  0
LAYER
  5
2F9
330
2
100
AcDbSymbolTableRecord
100
AcDbLayerTableRecord
  2
Layer 1
 70
     0
 62
     7
  6
Continuous
370
    -3
390
F
  0
ENDTAB
  0
TABLE
  2
STYLE
  5
3
330
0
100
AcDbSymbolTable
 70
     1
  0
STYLE
  5
11
330
3
100
AcDbSymbolTableRecord
100
AcDbTextStyleTableRecord
  2
Standard
 70
     0
 40
0.0
 41
1.0
 50
0.0
 71
     0
 42
0.2
  3
txt
  4

  0
ENDTAB
  0
TABLE
  2
VIEW
  5
6
330
0
100
AcDbSymbolTable
 70
     0
  0
ENDTAB
  0
TABLE
  2
UCS
  5
7
330
0
100
AcDbSymbolTable
 70
     0
  0
ENDTAB
  0
TABLE
  2
APPID
  5
9
330
0
100
AcDbSymbolTable
 70
     1
  0
APPID
  5
12
330
9
100
AcDbSymbolTableRecord
100
AcDbRegAppTableRecord
  2
ACAD
 70
     0
  0
ENDTAB
  0
TABLE
  2
DIMSTYLE
  5
A
330
0
100
AcDbSymbolTable
 70
     1
100
AcDbDimStyleTable
  0
DIMSTYLE
105
27
330
A
100
AcDbSymbolTableRecord
100
AcDbDimStyleTableRecord
  2
Standard
 70
     0
340
11
  0
ENDTAB
  0
TABLE
  2
BLOCK_RECORD
  5
1
330
0
100
AcDbSymbolTable
 70
    21
  0
BLOCK_RECORD
  5
1F
330
1
100
AcDbSymbolTableRecord
100
AcDbBlockTableRecord
  2
*Model_Space
340
22
  0
BLOCK_RECORD
  5
1B
330
1
100
AcDbSymbolTableRecord
100
AcDbBlockTableRecord
  2
*Paper_Space
340
1E
  0
BLOCK_RECORD
  5
3B
330
1
100
AcDbSymbolTableRecord
100
AcDbBlockTableRecord
  2
e3_node
340
0
102
{BLKREFS
331
2F8
102
}
  0
BLOCK_RECORD
  5
2FC
330
1
100
AcDbSymbolTableRecord
100
AcDbBlockTableRecord
  2
e3_node(1)
340
0
102
{BLKREFS
331
31B
102
}
  0
BLOCK_RECORD
  5
31E
330
1
100
AcDbSymbolTableRecord
100
AcDbBlockTableRecord
  2
e3_node(2)
340
0
102
{BLKREFS
331
3D3
102
}
  0
BLOCK_RECORD
  5
3D6
330
1
100
AcDbSymbolTableRecord
100
AcDbBlockTableRecord
  2
e3_node(3)
340
0
102
{BLKREFS
331
3E9
102
}
  0
BLOCK_RECORD
  5
3EC
330
1
100
AcDbSymbolTableRecord
100
AcDbBlockTableRecord
  2
e3_node(4)
340
0
102
{BLKREFS
331
405
102
}
  0
BLOCK_RECORD
  5
408
330
1
100
AcDbSymbolTableRecord
100
AcDbBlockTableRecord
  2
e3_node(5)
340
0
102
{BLKREFS
331
41B
102
}
  0
BLOCK_RECORD
  5
41E
330
1
100
AcDbSymbolTableRecord
100
AcDbBlockTableRecord
  2
e3_node(6)
340
0
102
{BLKREFS
331
431
102
}
  0
BLOCK_RECORD
  5
434
330
1
100
AcDbSymbolTableRecord
100
AcDbBlockTableRecord
  2
e3_node(7)
340
0
102
{BLKREFS
331
449
102
}
  0
BLOCK_RECORD
  5
44C
330
1
100
AcDbSymbolTableRecord
100
AcDbBlockTableRecord
  2
e3_node(8)
340
0
102
{BLKREFS
331
45F
102
}
  0
BLOCK_RECORD
  5
462
330
1
100
AcDbSymbolTableRecord
100
AcDbBlockTableRecord
  2
e3_node(9)
340
0
102
{BLKREFS
331
475
102
}
  0
BLOCK_RECORD
  5
478
330
1
100
AcDbSymbolTableRecord
100
AcDbBlockTableRecord
  2
e3_node(10)
340
0
102
{BLKREFS
331
48B
102
}
  0
BLOCK_RECORD
  5
48E
330
1
100
AcDbSymbolTableRecord
100
AcDbBlockTableRecord
  2
e3_node(11)
340
0
102
{BLKREFS
331
4A1
102
}
  0
BLOCK_RECORD
  5
4A4
330
1
100
AcDbSymbolTableRecord
100
AcDbBlockTableRecord
  2
e3_node(12)
340
0
102
{BLKREFS
331
4B7
102
}
  0
BLOCK_RECORD
  5
4BA
330
1
100
AcDbSymbolTableRecord
100
AcDbBlockTableRecord
  2
e3_node(13)
340
0
102
{BLKREFS
331
4CF
102
}
  0
BLOCK_RECORD
  5
4D2
330
1
100
AcDbSymbolTableRecord
100
AcDbBlockTableRecord
  2
e3_node(14)
340
0
102
{BLKREFS
331
4E5
102
}
  0
BLOCK_RECORD
  5
4E8
330
1
100
AcDbSymbolTableRecord
100
AcDbBlockTableRecord
  2
e3_node(15)
340
0
102
{BLKREFS
331
4FB
102
}
  0
BLOCK_RECORD
  5
4FE
330
1
100
AcDbSymbolTableRecord
100
AcDbBlockTableRecord
  2
e3_node(16)
340
0
102
{BLKREFS
331
53B
102
}
  0
BLOCK_RECORD
  5
53E
330
1
100
AcDbSymbolTableRecord
100
AcDbBlockTableRecord
  2
e3_node(17)
340
0
102
{BLKREFS
331
592
102
}
  0
BLOCK_RECORD
  5
595
330
1
100
AcDbSymbolTableRecord
100
AcDbBlockTableRecord
  2
e3_node(18)
340
0
102
{BLKREFS
331
610
102
}
  0
BLOCK_RECORD
  5
613
330
1
100
AcDbSymbolTableRecord
100
AcDbBlockTableRecord
  2
e3_node(19)
340
0
102
{BLKREFS
331
62C
102
}
  0
ENDTAB
  0
ENDSEC
  0
SECTION
  2
BLOCKS
  0
BLOCK
  5
20
330
1F
100
AcDbEntity
  8
0
100
AcDbBlockBegin
  2
*Model_Space
 70
     0
 10
0.0
 20
0.0
 30
0.0
  3
*Model_Space
  1

  0
ENDBLK
  5
21
330
1F
100
AcDbEntity
  8
0
100
AcDbBlockEnd
  0
BLOCK
  5
1C
330
1B
100
AcDbEntity
 67
     1
  8
0
100
AcDbBlockBegin
  2
*Paper_Space
 70
     0
 10
0.0
 20
0.0
 30
0.0
  3
*Paper_Space
  1

  0
ENDBLK
  5
1D
330
1B
100
AcDbEntity
 67
     1
  8
0
100
AcDbBlockEnd
  0
BLOCK
  5
2FA
330
3B
100
AcDbEntity
  8
0
100
AcDbBlockBegin
  2
e3_node
 70
     0
 10
0.0
 20
0.0
 30
0.0
  3
e3_node
  1

  0
POLYLINE
  5
3C
330
3B
100
AcDbEntity
  8
0
 62
     9
420
 12632256
100
AcDbPolyFaceMesh
 66
     1
 10
0.0
 20
0.0
 30
0.0
 70
    64
 71
   244
 72
   454
  0
VERTEX
  5
3D
330
3C
100
AcDbEntity
  8
0
100
AcDbVertex
100
AcDbPolyFaceMeshVertex
 10
56.37900161743164
 20
-18.13699913024902
 30
-6.847000122070312
 70
   192
  0
VERTEX
  5
3E
330
3C
100
AcDbEntity
  8
0
100
AcDbVertex
100
AcDbPolyFaceMeshVertex
 10
56.37900161743164
 20
-35.5099983215332
 30
-12.30099964141846
 70
   192
  0
VERTEX
  5
3F
330
3C
100
AcDbEntity
  8
0
100
AcDbVertex
100
AcDbPolyFaceMeshVertex
 10
52.47000122070312
 20
-36.25299835205078
 30
-10.57199954986572
 70
   192
  0
VERTEX
  5
40
330
3C
100
AcDbEntity
  8
0
100
AcDbVertex
100
AcDbPolyFaceMeshVertex
 10
56.37900161743164
 20
-51.42900085449219
 30
-21.14200019836426
 70
   192
  0
VERTEX
  5
41
330
3C
100
AcDbEntity
  8
0
100
AcDbVertex
100
AcDbPolyFaceMeshVertex
 10
52.47000122070312
 20
-52.50500106811523
 30
-19.59700012207031
 70
   192
  0
VERTEX
  5
42
330
3C
100
AcDbEntity
  8
0
100
AcDbVertex
100
AcDbPolyFaceMeshVertex
 10
56.37900161743164
 20
-65.24299621582031
 30
-33.00500106811523
 70
   192
  0
VERTEX
  5
43
330
3C
100
AcDbEntity
  8
0
100
AcDbVertex
100
AcDbPolyFaceMeshVertex
 10
52.47000122070312
 20
-66.60700225830078
 30
-31.70800018310547
 70
   192
  0
VERTEX
  5
44
330
3C
100
AcDbEntity
  8
0
100
AcDbVertex
100
AcDbPolyFaceMeshVertex
 10
56.37900161743164
 20
-76.38600158691406
 30
-47.40599822998047
 70
   192
  0
VERTEX
  5
45
330
3C
100
AcDbEntity
  8
0
100
AcDbVertex
100
AcDbPolyFaceMeshVertex
 10
52.47000122070312
 20
-77.98400115966797
 30
-46.4109992980957
 70
   192
  0
VERTEX
  5
46
330
3C
100
AcDbEntity
  8
0
100
AcDbVertex
100
AcDbPolyFaceMeshVertex
 10
56.37900161743164
 20
-84.4020004272461
 30
-63.75500106811523
 70
   192
  0
VERTEX
  5
47
330
3C
100
AcDbEntity
  8
0
100
AcDbVertex
100
AcDbPolyFaceMeshVertex
 10
52.47000122070312
 20
-86.16799926757812
 30
-63.10200119018555
 70
   192
  0
VERTEX
  5
48
330
3C
100
AcDbEntity
  8
0
100
AcDbVertex
100
AcDbPolyFaceMeshVertex
 10
56.37900161743164
 20
-88.96399688720703
 30
-81.38400268554688
 70
   192
  0
VERTEX
  5
49
330
3C
100
AcDbEntity
  8
0
100
AcDbVertex
100
AcDbPolyFaceMeshVertex
 10
52.47000122070312
 20
-90.82499694824219
 30
-81.0989990234375
 70
   192
  0
VERTEX
  5
4A
330
3C
100
AcDbEntity
  8
0
100
AcDbVertex
100
AcDbPolyFaceMeshVertex
 10
56.37900161743164
 20
-89.88400268554688
 30
-99.56900024414062
 70
   192
  0
VERTEX
  5
4B
330
3C
100
AcDbEntity
  8
0
100
AcDbVertex
100
AcDbPolyFaceMeshVertex
 10
52.47000122070312
 20
-91.76399993896484
 30
-99.66500091552734
 70
   192
  0
VERTEX
  5
4C
330
3C
100
AcDbEntity
  8
0
100
AcDbVertex
100
AcDbPolyFaceMeshVertex
 10
56.37900161743164
 20
-87.125
 30
-117.568000793457
 70
   192
  0
VERTEX
  5
4D
330
3C
100
AcDbEntity
  8
0
100
AcDbVertex
100
AcDbPolyFaceMeshVertex
 10
52.47000122070312
 20
-88.9469985961914
 30
-118.0400009155273
 70
   192
  0
VERTEX
  5
4E
330
3C
100
AcDbEntity
  8
0
100
AcDbVertex
100
AcDbPolyFaceMeshVertex
 10
56.37900161743164
 20
-80.79900360107422
 30
-134.6430053710938
 70
   192
  0
VERTEX
  5
4F
330
3C
100
AcDbEntity
  8
0
100
AcDbVertex
100
AcDbPolyFaceMeshVertex
 10
52.47000122070312
 20
-82.48899841308594
 30
-135.4720001220703
 70
   192
  0
VERTEX
  5
50
330
3C
100
AcDbEntity
  8
0
100
AcDbVertex
100
AcDbPolyFaceMeshVertex
 10
56.37900161743164
 20
-71.16600036621094
 30
-150.0950012207031
 70
   192
  0
VERTEX
  5
51
330
3C
100
AcDbEntity
  8
0
100
AcDbVertex
100
AcDbPolyFaceMeshVertex
 10
52.47000122070312
 20
-72.65399932861328
 30
-151.2469940185547
 70
   192
  0
VERTEX
  5
52
330
3C
100
AcDbEntity
  8
0
100
AcDbVertex
100
AcDbPolyFaceMeshVertex
 10
56.37900161743164
 20
-58.61999893188477
 30
-163.2920074462891
 70
   192
  0
VERTEX
  5
53
330
3C
100
AcDbEntity
  8
0
100
AcDbVertex
100
AcDbPolyFaceMeshVertex
 10
52.47000122070312
 20
-59.84600067138672
 30
-164.7200012207031
 70
   192
  0
VERTEX
  5
54
330
3C
100
AcDbEntity
  8
0
100
AcDbVertex
100
AcDbPolyFaceMeshVertex
 10
56.37900161743164
 20
-43.67399978637695
 30
-173.6929931640625
 70
   192
  0
VERTEX
  5
55
330
3C
100
AcDbEntity
  8
0
100
AcDbVertex
100
AcDbPolyFaceMeshVertex
 10
52.47000122070312
 20
-44.5880012512207
 30
-175.3390045166016
 70
   192
  0
VERTEX
  5
56
330
3C
100
AcDbEntity
  8
0
100
AcDbVertex
100
AcDbPolyFaceMeshVertex
 10
56.37900161743164
 20
-26.94099998474121
 30
-180.8730010986328
 70
   192
  0
VERTEX
  5
57
330
3C
100
AcDbEntity
  8
0
100
AcDbVertex
100
AcDbPolyFaceMeshVertex
 10
52.47000122070312
 20
-27.50399971008301
 30
-182.6690063476562
 70
   192
  0
VERTEX
  5
58
330
3C
100
AcDbEntity
  8
0
100
AcDbVertex
100
AcDbPolyFaceMeshVertex
 10
56.37900161743164
 20
-9.104000091552734
 30
-184.5379943847656
 70
   192
  0
VERTEX
  5
59
330
3C
100
AcDbEntity
  8
0
100
AcDbVertex
100
AcDbPolyFaceMeshVertex
 10
52.47000122070312
 20
-9.295000076293945
 30
-186.4109954833984
 70
   192
  0
VERTEX
  5
5A
330
3C
100
AcDbEntity
  8
0
100
AcDbVertex
100
AcDbPolyFaceMeshVertex
 10
56.37900161743164
 20
9.104000091552734
 30
-184.5379943847656
 70
   192
  0
VERTEX
  5
5B
330
3C
100
AcDbEntity
  8
0
100
AcDbVertex
100
AcDbPolyFaceMeshVertex
 10
52.47000122070312
 20
9.295000076293945
 30
-186.4109954833984
 70
   192
  0
VERTEX
  5
5C
330
3C
100
AcDbEntity
  8
0
100
AcDbVertex
100
AcDbPolyFaceMeshVertex
 10
56.37900161743164
 20
26.94099998474121
 30
-180.8730010986328
 70
   192
  0
VERTEX
  5
5D
330
3C
100
AcDbEntity
  8
0
100
AcDbVertex
100
AcDbPolyFaceMeshVertex
 10
52.47000122070312
 20
27.50399971008301
 30
-182.6690063476562
 70
   192
  0
VERTEX
  5
5E
330
3C
100
AcDbEntity
  8
0
100
AcDbVertex
100
AcDbPolyFaceMeshVertex
 10
56.37900161743164
 20
43.67399978637695
 30
-173.6929931640625
 70
   192
  0
VERTEX
  5
5F
330
3C
100
AcDbEntity
  8
0
100
AcDbVertex
100
AcDbPolyFaceMeshVertex
 10
52.47000122070312
 20
44.5880012512207
 30
-175.3390045166016
 70
   192
  0
VERTEX
  5
60
330
3C
100
AcDbEntity
  8
0
100
AcDbVertex
100
AcDbPolyFaceMeshVertex
 10
56.37900161743164
 20
58.61999893188477
 30
-163.2920074462891
 70
   192
  0
VERTEX
  5
61
330
3C
100
AcDbEntity
  8
0
100
AcDbVertex
100
AcDbPolyFaceMeshVertex
 10
52.47000122070312
 20
59.84600067138672
 30
-164.7200012207031
 70
   192
  0
VERTEX
  5
62
330
3C
100
AcDbEntity
  8
0
100
AcDbVertex
100
AcDbPolyFaceMeshVertex
 10
56.37900161743164
 20
71.16600036621094
 30
-150.0950012207031
 70
   192
  0
VERTEX
  5
63
330
3C
100
AcDbEntity
  8
0
100
AcDbVertex
100
AcDbPolyFaceMeshVertex
 10
52.47000122070312
 20
72.65399932861328
 30
-151.2469940185547
 70
   192
  0
VERTEX
  5
64
330
3C
100
AcDbEntity
  8
0
100
AcDbVertex
100
AcDbPolyFaceMeshVertex
 10
56.37900161743164
 20
80.79900360107422
 30
-134.6430053710938
 70
   192
  0
VERTEX
  5
65
330
3C
100
AcDbEntity
  8
0
100
AcDbVertex
100
AcDbPolyFaceMeshVertex
 10
52.47000122070312
 20
82.48899841308594
 30
-135.4720001220703
 70
   192
  0
VERTEX
  5
66
330
3C
100
AcDbEntity
  8
0
100
AcDbVertex
100
AcDbPolyFaceMeshVertex
 10
56.37900161743164
 20
87.125
 30
-117.568000793457
 70
   192
  0
VERTEX
  5
67
330
3C
100
AcDbEntity
  8
0
100
AcDbVertex
100
AcDbPolyFaceMeshVertex
 10
52.47000122070312
 20
88.9469985961914
 30
-118.0400009155273
 70
   192
  0
VERTEX
  5
68
330
3C
100
AcDbEntity
  8
0
100
AcDbVertex
100
AcDbPolyFaceMeshVertex
 10
56.37900161743164
 20
89.88400268554688
 30
-99.56900024414062
 70
   192
  0
VERTEX
  5
69
330
3C
100
AcDbEntity
  8
0
100
AcDbVertex
100
AcDbPolyFaceMeshVertex
 10
52.47000122070312
 20
91.76399993896484
 30
-99.66500091552734
 70
   192
  0
VERTEX
  5
6A
330
3C
100
AcDbEntity
  8
0
100
AcDbVertex
100
AcDbPolyFaceMeshVertex
 10
56.37900161743164
 20
88.96399688720703
 30
-81.38400268554688
 70
   192
  0
VERTEX
  5
6B
330
3C
100
AcDbEntity
  8
0
100
AcDbVertex
100
AcDbPolyFaceMeshVertex
 10
52.47000122070312
 20
90.82499694824219
 30
-81.0989990234375
 70
   192
  0
VERTEX
  5
6C
330
3C
100
AcDbEntity
  8
0
100
AcDbVertex
100
AcDbPolyFaceMeshVertex
 10
56.37900161743164
 20
84.4020004272461
 30
-63.75500106811523
 70
   192
  0
VERTEX
  5
6D
330
3C
100
AcDbEntity
  8
0
100
AcDbVertex
100
AcDbPolyFaceMeshVertex
 10
52.47000122070312
 20
86.16799926757812
 30
-63.10200119018555
 70
   192
  0
VERTEX
  5
6E
330
3C
100
AcDbEntity
  8
0
100
AcDbVertex
100
AcDbPolyFaceMeshVertex
 10
56.37900161743164
 20
76.38600158691406
 30
-47.40599822998047
 70
   192
  0
VERTEX
  5
6F
330
3C
100
AcDbEntity
  8
0
100
AcDbVertex
100
AcDbPolyFaceMeshVertex
 10
52.47000122070312
 20
77.98400115966797
 30
-46.4109992980957
 70
   192
  0
VERTEX
  5
70
330
3C
100
AcDbEntity
  8
0
100
AcDbVertex
100
AcDbPolyFaceMeshVertex
 10
56.37900161743164
 20
65.24299621582031
 30
-33.00500106811523
 70
   192
  0
VERTEX
  5
71
330
3C
100
AcDbEntity
  8
0
100
AcDbVertex
100
AcDbPolyFaceMeshVertex
 10
52.47000122070312
 20
66.60700225830078
 30
-31.70800018310547
 70
   192
  0
VERTEX
  5
72
330
3C
100
AcDbEntity
  8
0
100
AcDbVertex
100
AcDbPolyFaceMeshVertex
 10
56.37900161743164
 20
51.42900085449219
 30
-21.14200019836426
 70
   192
  0
VERTEX
  5
73
330
3C
100
AcDbEntity
  8
0
100
AcDbVertex
100
AcDbPolyFaceMeshVertex
 10
52.47000122070312
 20
52.50500106811523
 30
-19.59700012207031
 70
   192
  0
VERTEX
  5
74
330
3C
100
AcDbEntity
  8
0
100
AcDbVertex
100
AcDbPolyFaceMeshVertex
 10
56.37900161743164
 20
35.5099983215332
 30
-12.30099964141846
 70
   192
  0
VERTEX
  5
75
330
3C
100
AcDbEntity
  8
0
100
AcDbVertex
100
AcDbPolyFaceMeshVertex
 10
52.47000122070312
 20
36.25299835205078
 30
-10.57199954986572
 70
   192
  0
VERTEX
  5
76
330
3C
100
AcDbEntity
  8
0
100
AcDbVertex
100
AcDbPolyFaceMeshVertex
 10
56.37900161743164
 20
18.13699913024902
 30
-6.847000122070312
 70
   192
  0
VERTEX
  5
77
330
3C
100
AcDbEntity
  8
0
100
AcDbVertex
100
AcDbPolyFaceMeshVertex
 10
52.47000122070312
 20
18.51700019836426
 30
-5.002999782562256
 70
   192
  0
VERTEX
  5
78
330
3C
100
AcDbEntity
  8
0
100
AcDbVertex
100
AcDbPolyFaceMeshVertex
 10
52.47000122070312
 20
-18.51700019836426
 30
-5.002999782562256
 70
   192
  0
VERTEX
  5
79
330
3C
100
AcDbEntity
  8
0
100
AcDbVertex
100
AcDbPolyFaceMeshVertex
 10
51.50500106811523
 20
-37.92200088500977
 30
-6.684999942779541
 70
   192
  0
VERTEX
  5
7A
330
3C
100
AcDbEntity
  8
0
100
AcDbVertex
100
AcDbPolyFaceMeshVertex
 10
51.50500106811523
 20
-54.92200088500977
 30
-16.125
 70
   192
  0
VERTEX
  5
7B
330
3C
100
AcDbEntity
  8
0
100
AcDbVertex
100
AcDbPolyFaceMeshVertex
 10
51.50500106811523
 20
-69.67400360107422
 30
-28.79400062561035
 70
   192
  0
VERTEX
  5
7C
330
3C
100
AcDbEntity
  8
0
100
AcDbVertex
100
AcDbPolyFaceMeshVertex
 10
51.50500106811523
 20
-81.5739974975586
 30
-44.17399978637695
 70
   192
  0
VERTEX
  5
7D
330
3C
100
AcDbEntity
  8
0
100
AcDbVertex
100
AcDbPolyFaceMeshVertex
 10
51.50500106811523
 20
-90.13500213623047
 30
-61.63299942016602
 70
   192
  0
VERTEX
  5
7E
330
3C
100
AcDbEntity
  8
0
100
AcDbVertex
100
AcDbPolyFaceMeshVertex
 10
51.50500106811523
 20
-95.00599670410156
 30
-80.45899963378906
 70
   192
  0
VERTEX
  5
7F
330
3C
100
AcDbEntity
  8
0
100
AcDbVertex
100
AcDbPolyFaceMeshVertex
 10
51.50500106811523
 20
-95.98899841308594
 30
-99.87999725341797
 70
   192
  0
VERTEX
  5
80
330
3C
100
AcDbEntity
  8
0
100
AcDbVertex
100
AcDbPolyFaceMeshVertex
 10
51.50500106811523
 20
-93.04199981689453
 30
-119.1009979248047
 70
   192
  0
VERTEX
  5
81
330
3C
100
AcDbEntity
  8
0
100
AcDbVertex
100
AcDbPolyFaceMeshVertex
 10
51.50500106811523
 20
-86.28700256347656
 30
-137.3350067138672
 70
   192
  0
VERTEX
  5
82
330
3C
100
AcDbEntity
  8
0
100
AcDbVertex
100
AcDbPolyFaceMeshVertex
 10
51.50500106811523
 20
-75.9990005493164
 30
-153.8370056152344
 70
   192
  0
VERTEX
  5
83
330
3C
100
AcDbEntity
  8
0
100
AcDbVertex
100
AcDbPolyFaceMeshVertex
 10
51.50500106811523
 20
-62.60100173950195
 30
-167.9299926757812
 70
   192
  0
VERTEX
  5
84
330
3C
100
AcDbEntity
  8
0
100
AcDbVertex
100
AcDbPolyFaceMeshVertex
 10
51.50500106811523
 20
-46.63999938964844
 30
-179.0379943847656
 70
   192
  0
VERTEX
  5
85
330
3C
100
AcDbEntity
  8
0
100
AcDbVertex
100
AcDbPolyFaceMeshVertex
 10
51.50500106811523
 20
-28.77000045776367
 30
-186.7059936523438
 70
   192
  0
VERTEX
  5
86
330
3C
100
AcDbEntity
  8
0
100
AcDbVertex
100
AcDbPolyFaceMeshVertex
 10
51.50500106811523
 20
-9.722999572753906
 30
-190.6199951171875
 70
   192
  0
VERTEX
  5
87
330
3C
100
AcDbEntity
  8
0
100
AcDbVertex
100
AcDbPolyFaceMeshVertex
 10
51.50500106811523
 20
9.722999572753906
 30
-190.6199951171875
 70
   192
  0
VERTEX
  5
88
330
3C
100
AcDbEntity
  8
0
100
AcDbVertex
100
AcDbPolyFaceMeshVertex
 10
51.50500106811523
 20
28.77000045776367
 30
-186.7050018310547
 70
   192
  0
VERTEX
  5
89
330
3C
100
AcDbEntity
  8
0
100
AcDbVertex
100
AcDbPolyFaceMeshVertex
 10
51.50500106811523
 20
46.63999938964844
 30
-179.0379943847656
 70
   192
  0
VERTEX
  5
8A
330
3C
100
AcDbEntity
  8
0
100
AcDbVertex
100
AcDbPolyFaceMeshVertex
 10
51.50500106811523
 20
62.60100173950195
 30
-167.9299926757812
 70
   192
  0
VERTEX
  5
8B
330
3C
100
AcDbEntity
  8
0
100
AcDbVertex
100
AcDbPolyFaceMeshVertex
 10
51.50500106811523
 20
75.9990005493164
 30
-153.8370056152344
 70
   192
  0
VERTEX
  5
8C
330
3C
100
AcDbEntity
  8
0
100
AcDbVertex
100
AcDbPolyFaceMeshVertex
 10
51.50500106811523
 20
86.28700256347656
 30
-137.3350067138672
 70
   192
  0
VERTEX
  5
8D
330
3C
100
AcDbEntity
  8
0
100
AcDbVertex
100
AcDbPolyFaceMeshVertex
 10
51.50500106811523
 20
93.04199981689453
 30
-119.1009979248047
 70
   192
  0
VERTEX
  5
8E
330
3C
100
AcDbEntity
  8
0
100
AcDbVertex
100
AcDbPolyFaceMeshVertex
 10
51.50500106811523
 20
95.98899841308594
 30
-99.87999725341797
 70
   192
  0
VERTEX
  5
8F
330
3C
100
AcDbEntity
  8
0
100
AcDbVertex
100
AcDbPolyFaceMeshVertex
 10
51.50500106811523
 20
95.00599670410156
 30
-80.45899963378906
 70
   192
  0
VERTEX
  5
90
330
3C
100
AcDbEntity
  8
0
100
AcDbVertex
100
AcDbPolyFaceMeshVertex
 10
51.50500106811523
 20
90.13500213623047
 30
-61.63299942016602
 70
   192
  0
VERTEX
  5
91
330
3C
100
AcDbEntity
  8
0
100
AcDbVertex
100
AcDbPolyFaceMeshVertex
 10
51.50500106811523
 20
81.5739974975586
 30
-44.17399978637695
 70
   192
  0
VERTEX
  5
92
330
3C
100
AcDbEntity
  8
0
100
AcDbVertex
100
AcDbPolyFaceMeshVertex
 10
51.50500106811523
 20
69.67400360107422
 30
-28.79400062561035
 70
   192
  0
VERTEX
  5
93
330
3C
100
AcDbEntity
  8
0
100
AcDbVertex
100
AcDbPolyFaceMeshVertex
 10
51.50500106811523
 20
54.92200088500977
 30
-16.125
 70
   192
  0
VERTEX
  5
94
330
3C
100
AcDbEntity
  8
0
100
AcDbVertex
100
AcDbPolyFaceMeshVertex
 10
51.50500106811523
 20
37.92200088500977
 30
-6.684999942779541
 70
   192
  0
VERTEX
  5
95
330
3C
100
AcDbEntity
  8
0
100
AcDbVertex
100
AcDbPolyFaceMeshVertex
 10
51.50500106811523
 20
19.36899948120117
 30
-0.859000027179718
 70
   192
  0
VERTEX
  5
96
330
3C
100
AcDbEntity
  8
0
100
AcDbVertex
100
AcDbPolyFaceMeshVertex
 10
51.50500106811523
 20
-19.36899948120117
 30
-0.859000027179718
 70
   192
  0
VERTEX
  5
97
330
3C
100
AcDbEntity
  8
0
100
AcDbVertex
100
AcDbPolyFaceMeshVertex
 10
54.20999908447266
 20
-39.2599983215332
 30
-3.568000078201294
 70
   192
  0
VERTEX
  5
98
330
3C
100
AcDbEntity
  8
0
100
AcDbVertex
100
AcDbPolyFaceMeshVertex
 10
54.20999908447266
 20
-56.86000061035156
 30
-13.34099960327148
 70
   192
  0
VERTEX
  5
99
330
3C
100
AcDbEntity
  8
0
100
AcDbVertex
100
AcDbPolyFaceMeshVertex
 10
54.20999908447266
 20
-72.13300323486328
 30
-26.45800018310547
 70
   192
  0
VERTEX
  5
9A
330
3C
100
AcDbEntity
  8
0
100
AcDbVertex
100
AcDbPolyFaceMeshVertex
 10
54.20999908447266
 20
-84.4530029296875
 30
-42.38000106811523
 70
   192
  0
VERTEX
  5
9B
330
3C
100
AcDbEntity
  8
0
100
AcDbVertex
100
AcDbPolyFaceMeshVertex
 10
54.20999908447266
 20
-93.31600189208984
 30
-60.45600128173828
 70
   192
  0
VERTEX
  5
9C
330
3C
100
AcDbEntity
  8
0
100
AcDbVertex
100
AcDbPolyFaceMeshVertex
 10
54.20999908447266
 20
-98.35900115966797
 30
-79.94599914550781
 70
   192
  0
VERTEX
  5
9D
330
3C
100
AcDbEntity
  8
0
100
AcDbVertex
100
AcDbPolyFaceMeshVertex
 10
54.20999908447266
 20
-99.37699890136719
 30
-100.052001953125
 70
   192
  0
VERTEX
  5
9E
330
3C
100
AcDbEntity
  8
0
100
AcDbVertex
100
AcDbPolyFaceMeshVertex
 10
54.20999908447266
 20
-96.32599639892578
 30
-119.9509963989258
 70
   192
  0
VERTEX
  5
9F
330
3C
100
AcDbEntity
  8
0
100
AcDbVertex
100
AcDbPolyFaceMeshVertex
 10
54.20999908447266
 20
-89.33200073242188
 30
-138.8289947509766
 70
   192
  0
VERTEX
  5
A0
330
3C
100
AcDbEntity
  8
0
100
AcDbVertex
100
AcDbPolyFaceMeshVertex
 10
54.20999908447266
 20
-78.68199920654297
 30
-155.9129943847656
 70
   192
  0
VERTEX
  5
A1
330
3C
100
AcDbEntity
  8
0
100
AcDbVertex
100
AcDbPolyFaceMeshVertex
 10
54.20999908447266
 20
-64.80999755859375
 30
-170.5039978027344
 70
   192
  0
VERTEX
  5
A2
330
3C
100
AcDbEntity
  8
0
100
AcDbVertex
100
AcDbPolyFaceMeshVertex
 10
54.20999908447266
 20
-48.2859992980957
 30
-182.0039978027344
 70
   192
  0
VERTEX
  5
A3
330
3C
100
AcDbEntity
  8
0
100
AcDbVertex
100
AcDbPolyFaceMeshVertex
 10
54.20999908447266
 20
-29.7859992980957
 30
-189.9420013427734
 70
   192
  0
VERTEX
  5
A4
330
3C
100
AcDbEntity
  8
0
100
AcDbVertex
100
AcDbPolyFaceMeshVertex
 10
54.20999908447266
 20
-10.06599998474121
 30
-193.9940032958984
 70
   192
  0
VERTEX
  5
A5
330
3C
100
AcDbEntity
  8
0
100
AcDbVertex
100
AcDbPolyFaceMeshVertex
 10
54.20999908447266
 20
10.06599998474121
 30
-193.9940032958984
 70
   192
  0
VERTEX
  5
A6
330
3C
100
AcDbEntity
  8
0
100
AcDbVertex
100
AcDbPolyFaceMeshVertex
 10
54.20999908447266
 20
29.7859992980957
 30
-189.9420013427734
 70
   192
  0
VERTEX
  5
A7
330
3C
100
AcDbEntity
  8
0
100
AcDbVertex
100
AcDbPolyFaceMeshVertex
 10
54.20999908447266
 20
48.2859992980957
 30
-182.0039978027344
 70
   192
  0
VERTEX
  5
A8
330
3C
100
AcDbEntity
  8
0
100
AcDbVertex
100
AcDbPolyFaceMeshVertex
 10
54.20999908447266
 20
64.81099700927734
 30
-170.5039978027344
 70
   192
  0
VERTEX
  5
A9
330
3C
100
AcDbEntity
  8
0
100
AcDbVertex
100
AcDbPolyFaceMeshVertex
 10
54.20999908447266
 20
78.68199920654297
 30
-155.9129943847656
 70
   192
  0
VERTEX
  5
AA
330
3C
100
AcDbEntity
  8
0
100
AcDbVertex
100
AcDbPolyFaceMeshVertex
 10
54.20999908447266
 20
89.33200073242188
 30
-138.8289947509766
 70
   192
  0
VERTEX
  5
AB
330
3C
100
AcDbEntity
  8
0
100
AcDbVertex
100
AcDbPolyFaceMeshVertex
 10
54.20999908447266
 20
96.32599639892578
 30
-119.9509963989258
 70
   192
  0
VERTEX
  5
AC
330
3C
100
AcDbEntity
  8
0
100
AcDbVertex
100
AcDbPolyFaceMeshVertex
 10
54.20999908447266
 20
99.37699890136719
 30
-100.052001953125
 70
   192
  0
VERTEX
  5
AD
330
3C
100
AcDbEntity
  8
0
100
AcDbVertex
100
AcDbPolyFaceMeshVertex
 10
54.20999908447266
 20
98.35900115966797
 30
-79.94599914550781
 70
   192
  0
VERTEX
  5
AE
330
3C
100
AcDbEntity
  8
0
100
AcDbVertex
100
AcDbPolyFaceMeshVertex
 10
54.20999908447266
 20
93.31600189208984
 30
-60.45600128173828
 70
   192
  0
VERTEX
  5
AF
330
3C
100
AcDbEntity
  8
0
100
AcDbVertex
100
AcDbPolyFaceMeshVertex
 10
54.20999908447266
 20
84.4530029296875
 30
-42.38000106811523
 70
   192
  0
VERTEX
  5
B0
330
3C
100
AcDbEntity
  8
0
100
AcDbVertex
100
AcDbPolyFaceMeshVertex
 10
54.20999908447266
 20
72.13300323486328
 30
-26.45800018310547
 70
   192
  0
VERTEX
  5
B1
330
3C
100
AcDbEntity
  8
0
100
AcDbVertex
100
AcDbPolyFaceMeshVertex
 10
54.20999908447266
 20
56.86000061035156
 30
-13.34099960327148
 70
   192
  0
VERTEX
  5
B2
330
3C
100
AcDbEntity
  8
0
100
AcDbVertex
100
AcDbPolyFaceMeshVertex
 10
54.20999908447266
 20
39.2599983215332
 30
-3.568000078201294
 70
   192
  0
VERTEX
  5
B3
330
3C
100
AcDbEntity
  8
0
100
AcDbVertex
100
AcDbPolyFaceMeshVertex
 10
54.20999908447266
 20
20.05299949645996
 30
2.463000059127808
 70
   192
  0
VERTEX
  5
B4
330
3C
100
AcDbEntity
  8
0
100
AcDbVertex
100
AcDbPolyFaceMeshVertex
 10
54.20999908447266
 20
-20.05299949645996
 30
2.463000059127808
 70
   192
  0
VERTEX
  5
B5
330
3C
100
AcDbEntity
  8
0
100
AcDbVertex
100
AcDbPolyFaceMeshVertex
 10
58.54899978637695
 20
-39.2599983215332
 30
-3.568000078201294
 70
   192
  0
VERTEX
  5
B6
330
3C
100
AcDbEntity
  8
0
100
AcDbVertex
100
AcDbPolyFaceMeshVertex
 10
58.54899978637695
 20
-56.86000061035156
 30
-13.34099960327148
 70
   192
  0
VERTEX
  5
B7
330
3C
100
AcDbEntity
  8
0
100
AcDbVertex
100
AcDbPolyFaceMeshVertex
 10
58.54899978637695
 20
-72.13300323486328
 30
-26.45800018310547
 70
   192
  0
VERTEX
  5
B8
330
3C
100
AcDbEntity
  8
0
100
AcDbVertex
100
AcDbPolyFaceMeshVertex
 10
58.54899978637695
 20
-84.4530029296875
 30
-42.38000106811523
 70
   192
  0
VERTEX
  5
B9
330
3C
100
AcDbEntity
  8
0
100
AcDbVertex
100
AcDbPolyFaceMeshVertex
 10
58.54899978637695
 20
-93.31600189208984
 30
-60.45600128173828
 70
   192
  0
VERTEX
  5
BA
330
3C
100
AcDbEntity
  8
0
100
AcDbVertex
100
AcDbPolyFaceMeshVertex
 10
58.54899978637695
 20
-98.35900115966797
 30
-79.94599914550781
 70
   192
  0
VERTEX
  5
BB
330
3C
100
AcDbEntity
  8
0
100
AcDbVertex
100
AcDbPolyFaceMeshVertex
 10
58.54899978637695
 20
-99.37699890136719
 30
-100.052001953125
 70
   192
  0
VERTEX
  5
BC
330
3C
100
AcDbEntity
  8
0
100
AcDbVertex
100
AcDbPolyFaceMeshVertex
 10
58.54899978637695
 20
-96.32599639892578
 30
-119.9509963989258
 70
   192
  0
VERTEX
  5
BD
330
3C
100
AcDbEntity
  8
0
100
AcDbVertex
100
AcDbPolyFaceMeshVertex
 10
58.54899978637695
 20
-89.33200073242188
 30
-138.8289947509766
 70
   192
  0
VERTEX
  5
BE
330
3C
100
AcDbEntity
  8
0
100
AcDbVertex
100
AcDbPolyFaceMeshVertex
 10
58.54899978637695
 20
-78.68199920654297
 30
-155.9129943847656
 70
   192
  0
VERTEX
  5
BF
330
3C
100
AcDbEntity
  8
0
100
AcDbVertex
100
AcDbPolyFaceMeshVertex
 10
58.54899978637695
 20
-64.80999755859375
 30
-170.5039978027344
 70
   192
  0
VERTEX
  5
C0
330
3C
100
AcDbEntity
  8
0
100
AcDbVertex
100
AcDbPolyFaceMeshVertex
 10
58.54899978637695
 20
-48.2859992980957
 30
-182.0039978027344
 70
   192
  0
VERTEX
  5
C1
330
3C
100
AcDbEntity
  8
0
100
AcDbVertex
100
AcDbPolyFaceMeshVertex
 10
58.54899978637695
 20
-29.7859992980957
 30
-189.9420013427734
 70
   192
  0
VERTEX
  5
C2
330
3C
100
AcDbEntity
  8
0
100
AcDbVertex
100
AcDbPolyFaceMeshVertex
 10
58.54899978637695
 20
-10.06599998474121
 30
-193.9940032958984
 70
   192
  0
VERTEX
  5
C3
330
3C
100
AcDbEntity
  8
0
100
AcDbVertex
100
AcDbPolyFaceMeshVertex
 10
58.54899978637695
 20
10.06599998474121
 30
-193.9940032958984
 70
   192
  0
VERTEX
  5
C4
330
3C
100
AcDbEntity
  8
0
100
AcDbVertex
100
AcDbPolyFaceMeshVertex
 10
58.54899978637695
 20
29.7859992980957
 30
-189.9420013427734
 70
   192
  0
VERTEX
  5
C5
330
3C
100
AcDbEntity
  8
0
100
AcDbVertex
100
AcDbPolyFaceMeshVertex
 10
58.54899978637695
 20
48.2859992980957
 30
-182.0039978027344
 70
   192
  0
VERTEX
  5
C6
330
3C
100
AcDbEntity
  8
0
100
AcDbVertex
100
AcDbPolyFaceMeshVertex
 10
58.54899978637695
 20
64.81099700927734
 30
-170.5039978027344
 70
   192
  0
VERTEX
  5
C7
330
3C
100
AcDbEntity
  8
0
100
AcDbVertex
100
AcDbPolyFaceMeshVertex
 10
58.54899978637695
 20
78.68199920654297
 30
-155.9129943847656
 70
   192
  0
VERTEX
  5
C8
330
3C
100
AcDbEntity
  8
0
100
AcDbVertex
100
AcDbPolyFaceMeshVertex
 10
58.54899978637695
 20
89.33200073242188
 30
-138.8289947509766
 70
   192
  0
VERTEX
  5
C9
330
3C
100
AcDbEntity
  8
0
100
AcDbVertex
100
AcDbPolyFaceMeshVertex
 10
58.54899978637695
 20
96.32599639892578
 30
-119.9509963989258
 70
   192
  0
VERTEX
  5
CA
330
3C
100
AcDbEntity
  8
0
100
AcDbVertex
100
AcDbPolyFaceMeshVertex
 10
58.54899978637695
 20
99.37699890136719
 30
-100.052001953125
 70
   192
  0
VERTEX
  5
CB
330
3C
100
AcDbEntity
  8
0
100
AcDbVertex
100
AcDbPolyFaceMeshVertex
 10
58.54899978637695
 20
98.35900115966797
 30
-79.94599914550781
 70
   192
  0
VERTEX
  5
CC
330
3C
100
AcDbEntity
  8
0
100
AcDbVertex
100
AcDbPolyFaceMeshVertex
 10
58.54899978637695
 20
93.31600189208984
 30
-60.45600128173828
 70
   192
  0
VERTEX
  5
CD
330
3C
100
AcDbEntity
  8
0
100
AcDbVertex
100
AcDbPolyFaceMeshVertex
 10
58.54899978637695
 20
84.4530029296875
 30
-42.38000106811523
 70
   192
  0
VERTEX
  5
CE
330
3C
100
AcDbEntity
  8
0
100
AcDbVertex
100
AcDbPolyFaceMeshVertex
 10
58.54899978637695
 20
72.13300323486328
 30
-26.45800018310547
 70
   192
  0
VERTEX
  5
CF
330
3C
100
AcDbEntity
  8
0
100
AcDbVertex
100
AcDbPolyFaceMeshVertex
 10
58.54899978637695
 20
56.86000061035156
 30
-13.34099960327148
 70
   192
  0
VERTEX
  5
D0
330
3C
100
AcDbEntity
  8
0
100
AcDbVertex
100
AcDbPolyFaceMeshVertex
 10
58.54899978637695
 20
39.2599983215332
 30
-3.568000078201294
 70
   192
  0
VERTEX
  5
D1
330
3C
100
AcDbEntity
  8
0
100
AcDbVertex
100
AcDbPolyFaceMeshVertex
 10
58.54899978637695
 20
20.05299949645996
 30
2.463000059127808
 70
   192
  0
VERTEX
  5
D2
330
3C
100
AcDbEntity
  8
0
100
AcDbVertex
100
AcDbPolyFaceMeshVertex
 10
58.54899978637695
 20
-20.05299949645996
 30
2.463000059127808
 70
   192
  0
VERTEX
  5
D3
330
3C
100
AcDbEntity
  8
0
100
AcDbVertex
100
AcDbPolyFaceMeshVertex
 10
61.25400161743164
 20
-37.92200088500977
 30
-6.684999942779541
 70
   192
  0
VERTEX
  5
D4
330
3C
100
AcDbEntity
  8
0
100
AcDbVertex
100
AcDbPolyFaceMeshVertex
 10
61.25400161743164
 20
-54.92200088500977
 30
-16.125
 70
   192
  0
VERTEX
  5
D5
330
3C
100
AcDbEntity
  8
0
100
AcDbVertex
100
AcDbPolyFaceMeshVertex
 10
61.25400161743164
 20
-69.67400360107422
 30
-28.79400062561035
 70
   192
  0
VERTEX
  5
D6
330
3C
100
AcDbEntity
  8
0
100
AcDbVertex
100
AcDbPolyFaceMeshVertex
 10
61.25400161743164
 20
-81.5739974975586
 30
-44.17399978637695
 70
   192
  0
VERTEX
  5
D7
330
3C
100
AcDbEntity
  8
0
100
AcDbVertex
100
AcDbPolyFaceMeshVertex
 10
61.25400161743164
 20
-90.13500213623047
 30
-61.63299942016602
 70
   192
  0
VERTEX
  5
D8
330
3C
100
AcDbEntity
  8
0
100
AcDbVertex
100
AcDbPolyFaceMeshVertex
 10
61.25400161743164
 20
-95.00599670410156
 30
-80.45899963378906
 70
   192
  0
VERTEX
  5
D9
330
3C
100
AcDbEntity
  8
0
100
AcDbVertex
100
AcDbPolyFaceMeshVertex
 10
61.25400161743164
 20
-95.98899841308594
 30
-99.87999725341797
 70
   192
  0
VERTEX
  5
DA
330
3C
100
AcDbEntity
  8
0
100
AcDbVertex
100
AcDbPolyFaceMeshVertex
 10
61.25400161743164
 20
-93.04199981689453
 30
-119.1009979248047
 70
   192
  0
VERTEX
  5
DB
330
3C
100
AcDbEntity
  8
0
100
AcDbVertex
100
AcDbPolyFaceMeshVertex
 10
61.25400161743164
 20
-86.28700256347656
 30
-137.3350067138672
 70
   192
  0
VERTEX
  5
DC
330
3C
100
AcDbEntity
  8
0
100
AcDbVertex
100
AcDbPolyFaceMeshVertex
 10
61.25400161743164
 20
-75.9990005493164
 30
-153.8370056152344
 70
   192
  0
VERTEX
  5
DD
330
3C
100
AcDbEntity
  8
0
100
AcDbVertex
100
AcDbPolyFaceMeshVertex
 10
61.25400161743164
 20
-62.60100173950195
 30
-167.9299926757812
 70
   192
  0
VERTEX
  5
DE
330
3C
100
AcDbEntity
  8
0
100
AcDbVertex
100
AcDbPolyFaceMeshVertex
 10
61.25400161743164
 20
-46.63999938964844
 30
-179.0379943847656
 70
   192
  0
VERTEX
  5
DF
330
3C
100
AcDbEntity
  8
0
100
AcDbVertex
100
AcDbPolyFaceMeshVertex
 10
61.25400161743164
 20
-28.77000045776367
 30
-186.7059936523438
 70
   192
  0
VERTEX
  5
E0
330
3C
100
AcDbEntity
  8
0
100
AcDbVertex
100
AcDbPolyFaceMeshVertex
 10
61.25400161743164
 20
-9.722999572753906
 30
-190.6199951171875
 70
   192
  0
VERTEX
  5
E1
330
3C
100
AcDbEntity
  8
0
100
AcDbVertex
100
AcDbPolyFaceMeshVertex
 10
61.25400161743164
 20
9.722999572753906
 30
-190.6199951171875
 70
   192
  0
VERTEX
  5
E2
330
3C
100
AcDbEntity
  8
0
100
AcDbVertex
100
AcDbPolyFaceMeshVertex
 10
61.25400161743164
 20
28.77000045776367
 30
-186.7050018310547
 70
   192
  0
VERTEX
  5
E3
330
3C
100
AcDbEntity
  8
0
100
AcDbVertex
100
AcDbPolyFaceMeshVertex
 10
61.25400161743164
 20
46.63999938964844
 30
-179.0379943847656
 70
   192
  0
VERTEX
  5
E4
330
3C
100
AcDbEntity
  8
0
100
AcDbVertex
100
AcDbPolyFaceMeshVertex
 10
61.25400161743164
 20
62.60100173950195
 30
-167.9299926757812
 70
   192
  0
VERTEX
  5
E5
330
3C
100
AcDbEntity
  8
0
100
AcDbVertex
100
AcDbPolyFaceMeshVertex
 10
61.25400161743164
 20
75.9990005493164
 30
-153.8370056152344
 70
   192
  0
VERTEX
  5
E6
330
3C
100
AcDbEntity
  8
0
100
AcDbVertex
100
AcDbPolyFaceMeshVertex
 10
61.25400161743164
 20
86.28700256347656
 30
-137.3350067138672
 70
   192
  0
VERTEX
  5
E7
330
3C
100
AcDbEntity
  8
0
100
AcDbVertex
100
AcDbPolyFaceMeshVertex
 10
61.25400161743164
 20
93.04199981689453
 30
-119.1009979248047
 70
   192
  0
VERTEX
  5
E8
330
3C
100
AcDbEntity
  8
0
100
AcDbVertex
100
AcDbPolyFaceMeshVertex
 10
61.25400161743164
 20
95.98899841308594
 30
-99.87999725341797
 70
   192
  0
VERTEX
  5
E9
330
3C
100
AcDbEntity
  8
0
100
AcDbVertex
100
AcDbPolyFaceMeshVertex
 10
61.25400161743164
 20
95.00599670410156
 30
-80.45899963378906
 70
   192
  0
VERTEX
  5
EA
330
3C
100
AcDbEntity
  8
0
100
AcDbVertex
100
AcDbPolyFaceMeshVertex
 10
61.25400161743164
 20
90.13500213623047
 30
-61.63299942016602
 70
   192
  0
VERTEX
  5
EB
330
3C
100
AcDbEntity
  8
0
100
AcDbVertex
100
AcDbPolyFaceMeshVertex
 10
61.25400161743164
 20
81.5739974975586
 30
-44.17399978637695
 70
   192
  0
VERTEX
  5
EC
330
3C
100
AcDbEntity
  8
0
100
AcDbVertex
100
AcDbPolyFaceMeshVertex
 10
61.25400161743164
 20
69.67400360107422
 30
-28.79400062561035
 70
   192
  0
VERTEX
  5
ED
330
3C
100
AcDbEntity
  8
0
100
AcDbVertex
100
AcDbPolyFaceMeshVertex
 10
61.25400161743164
 20
54.92200088500977
 30
-16.125
 70
   192
  0
VERTEX
  5
EE
330
3C
100
AcDbEntity
  8
0
100
AcDbVertex
100
AcDbPolyFaceMeshVertex
 10
61.25400161743164
 20
37.92200088500977
 30
-6.684999942779541
 70
   192
  0
VERTEX
  5
EF
330
3C
100
AcDbEntity
  8
0
100
AcDbVertex
100
AcDbPolyFaceMeshVertex
 10
61.25400161743164
 20
19.36899948120117
 30
-0.859000027179718
 70
   192
  0
VERTEX
  5
F0
330
3C
100
AcDbEntity
  8
0
100
AcDbVertex
100
AcDbPolyFaceMeshVertex
 10
61.25400161743164
 20
-19.36899948120117
 30
-0.859000027179718
 70
   192
  0
VERTEX
  5
F1
330
3C
100
AcDbEntity
  8
0
100
AcDbVertex
100
AcDbPolyFaceMeshVertex
 10
60.28799819946289
 20
-36.25299835205078
 30
-10.57199954986572
 70
   192
  0
VERTEX
  5
F2
330
3C
100
AcDbEntity
  8
0
100
AcDbVertex
100
AcDbPolyFaceMeshVertex
 10
60.28799819946289
 20
-52.50500106811523
 30
-19.59700012207031
 70
   192
  0
VERTEX
  5
F3
330
3C
100
AcDbEntity
  8
0
100
AcDbVertex
100
AcDbPolyFaceMeshVertex
 10
60.28799819946289
 20
-66.60700225830078
 30
-31.70800018310547
 70
   192
  0
VERTEX
  5
F4
330
3C
100
AcDbEntity
  8
0
100
AcDbVertex
100
AcDbPolyFaceMeshVertex
 10
60.28799819946289
 20
-77.98400115966797
 30
-46.4109992980957
 70
   192
  0
VERTEX
  5
F5
330
3C
100
AcDbEntity
  8
0
100
AcDbVertex
100
AcDbPolyFaceMeshVertex
 10
60.28799819946289
 20
-86.16799926757812
 30
-63.10200119018555
 70
   192
  0
VERTEX
  5
F6
330
3C
100
AcDbEntity
  8
0
100
AcDbVertex
100
AcDbPolyFaceMeshVertex
 10
60.28799819946289
 20
-90.82499694824219
 30
-81.0989990234375
 70
   192
  0
VERTEX
  5
F7
330
3C
100
AcDbEntity
  8
0
100
AcDbVertex
100
AcDbPolyFaceMeshVertex
 10
60.28799819946289
 20
-91.76399993896484
 30
-99.66500091552734
 70
   192
  0
VERTEX
  5
F8
330
3C
100
AcDbEntity
  8
0
100
AcDbVertex
100
AcDbPolyFaceMeshVertex
 10
60.28799819946289
 20
-88.9469985961914
 30
-118.0400009155273
 70
   192
  0
VERTEX
  5
F9
330
3C
100
AcDbEntity
  8
0
100
AcDbVertex
100
AcDbPolyFaceMeshVertex
 10
60.28799819946289
 20
-82.48899841308594
 30
-135.4720001220703
 70
   192
  0
VERTEX
  5
FA
330
3C
100
AcDbEntity
  8
0
100
AcDbVertex
100
AcDbPolyFaceMeshVertex
 10
60.28799819946289
 20
-72.65399932861328
 30
-151.2469940185547
 70
   192
  0
VERTEX
  5
FB
330
3C
100
AcDbEntity
  8
0
100
AcDbVertex
100
AcDbPolyFaceMeshVertex
 10
60.28799819946289
 20
-59.84600067138672
 30
-164.7200012207031
 70
   192
  0
VERTEX
  5
FC
330
3C
100
AcDbEntity
  8
0
100
AcDbVertex
100
AcDbPolyFaceMeshVertex
 10
60.28799819946289
 20
-44.5880012512207
 30
-175.3390045166016
 70
   192
  0
VERTEX
  5
FD
330
3C
100
AcDbEntity
  8
0
100
AcDbVertex
100
AcDbPolyFaceMeshVertex
 10
60.28799819946289
 20
-27.50399971008301
 30
-182.6690063476562
 70
   192
  0
VERTEX
  5
FE
330
3C
100
AcDbEntity
  8
0
100
AcDbVertex
100
AcDbPolyFaceMeshVertex
 10
60.28799819946289
 20
-9.295000076293945
 30
-186.4109954833984
 70
   192
  0
VERTEX
  5
FF
330
3C
100
AcDbEntity
  8
0
100
AcDbVertex
100
AcDbPolyFaceMeshVertex
 10
60.28799819946289
 20
9.295000076293945
 30
-186.4109954833984
 70
   192
  0
VERTEX
  5
100
330
3C
100
AcDbEntity
  8
0
100
AcDbVertex
100
AcDbPolyFaceMeshVertex
 10
60.28799819946289
 20
27.50399971008301
 30
-182.6690063476562
 70
   192
  0
VERTEX
  5
101
330
3C
100
AcDbEntity
  8
0
100
AcDbVertex
100
AcDbPolyFaceMeshVertex
 10
60.28799819946289
 20
44.5880012512207
 30
-175.3390045166016
 70
   192
  0
VERTEX
  5
102
330
3C
100
AcDbEntity
  8
0
100
AcDbVertex
100
AcDbPolyFaceMeshVertex
 10
60.28799819946289
 20
59.84600067138672
 30
-164.7200012207031
 70
   192
  0
VERTEX
  5
103
330
3C
100
AcDbEntity
  8
0
100
AcDbVertex
100
AcDbPolyFaceMeshVertex
 10
60.28799819946289
 20
72.65399932861328
 30
-151.2469940185547
 70
   192
  0
VERTEX
  5
104
330
3C
100
AcDbEntity
  8
0
100
AcDbVertex
100
AcDbPolyFaceMeshVertex
 10
60.28799819946289
 20
82.48899841308594
 30
-135.4720001220703
 70
   192
  0
VERTEX
  5
105
330
3C
100
AcDbEntity
  8
0
100
AcDbVertex
100
AcDbPolyFaceMeshVertex
 10
60.28799819946289
 20
88.9469985961914
 30
-118.0400009155273
 70
   192
  0
VERTEX
  5
106
330
3C
100
AcDbEntity
  8
0
100
AcDbVertex
100
AcDbPolyFaceMeshVertex
 10
60.28799819946289
 20
91.76399993896484
 30
-99.66500091552734
 70
   192
  0
VERTEX
  5
107
330
3C
100
AcDbEntity
  8
0
100
AcDbVertex
100
AcDbPolyFaceMeshVertex
 10
60.28799819946289
 20
90.82499694824219
 30
-81.0989990234375
 70
   192
  0
VERTEX
  5
108
330
3C
100
AcDbEntity
  8
0
100
AcDbVertex
100
AcDbPolyFaceMeshVertex
 10
60.28799819946289
 20
86.16799926757812
 30
-63.10200119018555
 70
   192
  0
VERTEX
  5
109
330
3C
100
AcDbEntity
  8
0
100
AcDbVertex
100
AcDbPolyFaceMeshVertex
 10
60.28799819946289
 20
77.98400115966797
 30
-46.4109992980957
 70
   192
  0
VERTEX
  5
10A
330
3C
100
AcDbEntity
  8
0
100
AcDbVertex
100
AcDbPolyFaceMeshVertex
 10
60.28799819946289
 20
66.60700225830078
 30
-31.70800018310547
 70
   192
  0
VERTEX
  5
10B
330
3C
100
AcDbEntity
  8
0
100
AcDbVertex
100
AcDbPolyFaceMeshVertex
 10
60.28799819946289
 20
52.50500106811523
 30
-19.59700012207031
 70
   192
  0
VERTEX
  5
10C
330
3C
100
AcDbEntity
  8
0
100
AcDbVertex
100
AcDbPolyFaceMeshVertex
 10
60.28799819946289
 20
36.25299835205078
 30
-10.57199954986572
 70
   192
  0
VERTEX
  5
10D
330
3C
100
AcDbEntity
  8
0
100
AcDbVertex
100
AcDbPolyFaceMeshVertex
 10
60.28799819946289
 20
18.51700019836426
 30
-5.002999782562256
 70
   192
  0
VERTEX
  5
10E
330
3C
100
AcDbEntity
  8
0
100
AcDbVertex
100
AcDbPolyFaceMeshVertex
 10
60.28799819946289
 20
-18.51700019836426
 30
-5.002999782562256
 70
   192
  0
VERTEX
  5
10F
330
3C
100
AcDbEntity
  8
0
100
AcDbVertex
100
AcDbPolyFaceMeshVertex
 10
56.41400146484375
 20
3.75
 30
-4.928999900817871
 70
   192
  0
VERTEX
  5
110
330
3C
100
AcDbEntity
  8
0
100
AcDbVertex
100
AcDbPolyFaceMeshVertex
 10
53.70299911499023
 20
3.75
 30
-4.301000118255615
 70
   192
  0
VERTEX
  5
111
330
3C
100
AcDbEntity
  8
0
100
AcDbVertex
100
AcDbPolyFaceMeshVertex
 10
52.69200134277344
 20
3.75
 30
-3.019000053405762
 70
   192
  0
VERTEX
  5
112
330
3C
100
AcDbEntity
  8
0
100
AcDbVertex
100
AcDbPolyFaceMeshVertex
 10
51.65000152587891
 20
3.75
 30
-1.699000000953674
 70
   192
  0
VERTEX
  5
113
330
3C
100
AcDbEntity
  8
0
100
AcDbVertex
100
AcDbPolyFaceMeshVertex
 10
51.67300033569336
 20
3.75
 30
1.615000009536743
 70
   192
  0
VERTEX
  5
114
330
3C
100
AcDbEntity
  8
0
100
AcDbVertex
100
AcDbPolyFaceMeshVertex
 10
53.75699996948242
 20
3.75
 30
4.185999870300293
 70
   192
  0
VERTEX
  5
115
330
3C
100
AcDbEntity
  8
0
100
AcDbVertex
100
AcDbPolyFaceMeshVertex
 10
51.66899871826172
 20
3.75
 30
1.037999987602234
 70
   192
  0
VERTEX
  5
116
330
3C
100
AcDbEntity
  8
0
100
AcDbVertex
100
AcDbPolyFaceMeshVertex
 10
54.24100112915039
 20
3.75
 30
4.291999816894531
 70
   192
  0
VERTEX
  5
117
330
3C
100
AcDbEntity
  8
0
100
AcDbVertex
100
AcDbPolyFaceMeshVertex
 10
56.98899841308594
 20
3.75
 30
4.892000198364258
 70
   192
  0
VERTEX
  5
118
330
3C
100
AcDbEntity
  8
0
100
AcDbVertex
100
AcDbPolyFaceMeshVertex
 10
59.95600128173828
 20
3.75
 30
3.42300009727478
 70
   192
  0
VERTEX
  5
119
330
3C
100
AcDbEntity
  8
0
100
AcDbVertex
100
AcDbPolyFaceMeshVertex
 10
61.0989990234375
 20
3.75
 30
0.9670000076293945
 70
   192
  0
VERTEX
  5
11A
330
3C
100
AcDbEntity
  8
0
100
AcDbVertex
100
AcDbPolyFaceMeshVertex
 10
58.42399978637695
 20
3.75
 30
4.182000160217285
 70
   192
  0
VERTEX
  5
11B
330
3C
100
AcDbEntity
  8
0
100
AcDbVertex
100
AcDbPolyFaceMeshVertex
 10
60.57099914550781
 20
3.75
 30
-2.801000118255615
 70
   192
  0
VERTEX
  5
11C
330
3C
100
AcDbEntity
  8
0
100
AcDbVertex
100
AcDbPolyFaceMeshVertex
 10
61.35499954223633
 20
3.75
 30
0.4180000126361847
 70
   192
  0
VERTEX
  5
11D
330
3C
100
AcDbEntity
  8
0
100
AcDbVertex
100
AcDbPolyFaceMeshVertex
 10
57.95199966430664
 20
3.75
 30
-4.823999881744385
 70
   192
  0
VERTEX
  5
11E
330
3C
100
AcDbEntity
  8
0
100
AcDbVertex
100
AcDbPolyFaceMeshVertex
 10
60.20399856567383
 20
3.75
 30
-3.085000038146973
 70
   192
  0
VERTEX
  5
11F
330
3C
100
AcDbEntity
  8
0
100
AcDbVertex
100
AcDbPolyFaceMeshVertex
 10
56.92800140380859
 20
3.75
 30
-5.047999858856201
 70
   192
  0
VERTEX
  5
120
330
3C
100
AcDbEntity
  8
0
100
AcDbVertex
100
AcDbPolyFaceMeshVertex
 10
60.07500076293945
 20
-3.75
 30
-3.013000011444092
 70
   192
  0
VERTEX
  5
121
330
3C
100
AcDbEntity
  8
0
100
AcDbVertex
100
AcDbPolyFaceMeshVertex
 10
61.04999923706055
 20
-3.75
 30
-1.858999967575073
 70
   192
  0
VERTEX
  5
122
330
3C
100
AcDbEntity
  8
0
100
AcDbVertex
100
AcDbPolyFaceMeshVertex
 10
61.12900161743164
 20
-3.75
 30
1.042999982833862
 70
   192
  0
VERTEX
  5
123
330
3C
100
AcDbEntity
  8
0
100
AcDbVertex
100
AcDbPolyFaceMeshVertex
 10
61.14099884033203
 20
-3.75
 30
1.453999996185303
 70
   192
  0
VERTEX
  5
124
330
3C
100
AcDbEntity
  8
0
100
AcDbVertex
100
AcDbPolyFaceMeshVertex
 10
59.14500045776367
 20
-3.75
 30
4.093999862670898
 70
   192
  0
VERTEX
  5
125
330
3C
100
AcDbEntity
  8
0
100
AcDbVertex
100
AcDbPolyFaceMeshVertex
 10
58.50400161743164
 20
-3.75
 30
4.257999897003174
 70
   192
  0
VERTEX
  5
126
330
3C
100
AcDbEntity
  8
0
100
AcDbVertex
100
AcDbPolyFaceMeshVertex
 10
55.93899917602539
 20
-3.75
 30
4.909999847412109
 70
   192
  0
VERTEX
  5
127
330
3C
100
AcDbEntity
  8
0
100
AcDbVertex
100
AcDbPolyFaceMeshVertex
 10
52.92399978637695
 20
-3.75
 30
3.542999982833862
 70
   192
  0
VERTEX
  5
128
330
3C
100
AcDbEntity
  8
0
100
AcDbVertex
100
AcDbPolyFaceMeshVertex
 10
51.62200164794922
 20
-3.75
 30
0.9800000190734863
 70
   192
  0
VERTEX
  5
129
330
3C
100
AcDbEntity
  8
0
100
AcDbVertex
100
AcDbPolyFaceMeshVertex
 10
54.32600021362305
 20
-3.75
 30
4.177999973297119
 70
   192
  0
VERTEX
  5
12A
330
3C
100
AcDbEntity
  8
0
100
AcDbVertex
100
AcDbPolyFaceMeshVertex
 10
52.09700012207031
 20
-3.75
 30
-2.657000064849854
 70
   192
  0
VERTEX
  5
12B
330
3C
100
AcDbEntity
  8
0
100
AcDbVertex
100
AcDbPolyFaceMeshVertex
 10
51.42300033569336
 20
-3.75
 30
0.5870000123977661
 70
   192
  0
VERTEX
  5
12C
330
3C
100
AcDbEntity
  8
0
100
AcDbVertex
100
AcDbPolyFaceMeshVertex
 10
54.64500045776367
 20
-3.75
 30
-4.767000198364258
 70
   192
  0
VERTEX
  5
12D
330
3C
100
AcDbEntity
  8
0
100
AcDbVertex
100
AcDbPolyFaceMeshVertex
 10
52.58200073242188
 20
-3.75
 30
-3.059000015258789
 70
   192
  0
VERTEX
  5
12E
330
3C
100
AcDbEntity
  8
0
100
AcDbVertex
100
AcDbPolyFaceMeshVertex
 10
57.95199966430664
 20
-3.75
 30
-4.823999881744385
 70
   192
  0
VERTEX
  5
12F
330
3C
100
AcDbEntity
  8
0
100
AcDbVertex
100
AcDbPolyFaceMeshVertex
 10
58.90999984741211
 20
-3.75
 30
-4.389999866485596
 70
   192
  0
VERTEX
  5
130
330
3C
100
AcDbEntity
  8
0
100
AcDbVertex
100
AcDbPolyFaceMeshVertex
 10
56.38399887084961
 20
-3.75
 30
-4.796999931335449
 70
   192
  0
VERTEX
  5
131
330
3C
100
AcDbEntity
  8
0
 62
     9
420
 12632256
100
AcDbFaceRecord
 10
0.0
 20
0.0
 30
0.0
 70
   128
 71
     3
 72
     2
 73
     1
  0
VERTEX
  5
132
330
3C
100
AcDbEntity
  8
0
 62
     9
420
 12632256
100
AcDbFaceRecord
 10
0.0
 20
0.0
 30
0.0
 70
   128
 71
     5
 72
     4
 73
     2
  0
VERTEX
  5
133
330
3C
100
AcDbEntity
  8
0
 62
     9
420
 12632256
100
AcDbFaceRecord
 10
0.0
 20
0.0
 30
0.0
 70
   128
 71
     7
 72
     6
 73
     4
  0
VERTEX
  5
134
330
3C
100
AcDbEntity
  8
0
 62
     9
420
 12632256
100
AcDbFaceRecord
 10
0.0
 20
0.0
 30
0.0
 70
   128
 71
     9
 72
     8
 73
     6
  0
VERTEX
  5
135
330
3C
100
AcDbEntity
  8
0
 62
     9
420
 12632256
100
AcDbFaceRecord
 10
0.0
 20
0.0
 30
0.0
 70
   128
 71
    11
 72
    10
 73
     8
  0
VERTEX
  5
136
330
3C
100
AcDbEntity
  8
0
 62
     9
420
 12632256
100
AcDbFaceRecord
 10
0.0
 20
0.0
 30
0.0
 70
   128
 71
    13
 72
    12
 73
    10
  0
VERTEX
  5
137
330
3C
100
AcDbEntity
  8
0
 62
     9
420
 12632256
100
AcDbFaceRecord
 10
0.0
 20
0.0
 30
0.0
 70
   128
 71
    15
 72
    14
 73
    12
  0
VERTEX
  5
138
330
3C
100
AcDbEntity
  8
0
 62
     9
420
 12632256
100
AcDbFaceRecord
 10
0.0
 20
0.0
 30
0.0
 70
   128
 71
    17
 72
    16
 73
    14
  0
VERTEX
  5
139
330
3C
100
AcDbEntity
  8
0
 62
     9
420
 12632256
100
AcDbFaceRecord
 10
0.0
 20
0.0
 30
0.0
 70
   128
 71
    19
 72
    18
 73
    16
  0
VERTEX
  5
13A
330
3C
100
AcDbEntity
  8
0
 62
     9
420
 12632256
100
AcDbFaceRecord
 10
0.0
 20
0.0
 30
0.0
 70
   128
 71
    21
 72
    20
 73
    18
  0
VERTEX
  5
13B
330
3C
100
AcDbEntity
  8
0
 62
     9
420
 12632256
100
AcDbFaceRecord
 10
0.0
 20
0.0
 30
0.0
 70
   128
 71
    23
 72
    22
 73
    20
  0
VERTEX
  5
13C
330
3C
100
AcDbEntity
  8
0
 62
     9
420
 12632256
100
AcDbFaceRecord
 10
0.0
 20
0.0
 30
0.0
 70
   128
 71
    25
 72
    24
 73
    22
  0
VERTEX
  5
13D
330
3C
100
AcDbEntity
  8
0
 62
     9
420
 12632256
100
AcDbFaceRecord
 10
0.0
 20
0.0
 30
0.0
 70
   128
 71
    27
 72
    26
 73
    24
  0
VERTEX
  5
13E
330
3C
100
AcDbEntity
  8
0
 62
     9
420
 12632256
100
AcDbFaceRecord
 10
0.0
 20
0.0
 30
0.0
 70
   128
 71
    29
 72
    28
 73
    26
  0
VERTEX
  5
13F
330
3C
100
AcDbEntity
  8
0
 62
     9
420
 12632256
100
AcDbFaceRecord
 10
0.0
 20
0.0
 30
0.0
 70
   128
 71
    31
 72
    30
 73
    28
  0
VERTEX
  5
140
330
3C
100
AcDbEntity
  8
0
 62
     9
420
 12632256
100
AcDbFaceRecord
 10
0.0
 20
0.0
 30
0.0
 70
   128
 71
    33
 72
    32
 73
    30
  0
VERTEX
  5
141
330
3C
100
AcDbEntity
  8
0
 62
     9
420
 12632256
100
AcDbFaceRecord
 10
0.0
 20
0.0
 30
0.0
 70
   128
 71
    35
 72
    34
 73
    32
  0
VERTEX
  5
142
330
3C
100
AcDbEntity
  8
0
 62
     9
420
 12632256
100
AcDbFaceRecord
 10
0.0
 20
0.0
 30
0.0
 70
   128
 71
    37
 72
    36
 73
    34
  0
VERTEX
  5
143
330
3C
100
AcDbEntity
  8
0
 62
     9
420
 12632256
100
AcDbFaceRecord
 10
0.0
 20
0.0
 30
0.0
 70
   128
 71
    39
 72
    38
 73
    36
  0
VERTEX
  5
144
330
3C
100
AcDbEntity
  8
0
 62
     9
420
 12632256
100
AcDbFaceRecord
 10
0.0
 20
0.0
 30
0.0
 70
   128
 71
    41
 72
    40
 73
    38
  0
VERTEX
  5
145
330
3C
100
AcDbEntity
  8
0
 62
     9
420
 12632256
100
AcDbFaceRecord
 10
0.0
 20
0.0
 30
0.0
 70
   128
 71
    43
 72
    42
 73
    40
  0
VERTEX
  5
146
330
3C
100
AcDbEntity
  8
0
 62
     9
420
 12632256
100
AcDbFaceRecord
 10
0.0
 20
0.0
 30
0.0
 70
   128
 71
    45
 72
    44
 73
    42
  0
VERTEX
  5
147
330
3C
100
AcDbEntity
  8
0
 62
     9
420
 12632256
100
AcDbFaceRecord
 10
0.0
 20
0.0
 30
0.0
 70
   128
 71
    47
 72
    46
 73
    44
  0
VERTEX
  5
148
330
3C
100
AcDbEntity
  8
0
 62
     9
420
 12632256
100
AcDbFaceRecord
 10
0.0
 20
0.0
 30
0.0
 70
   128
 71
    49
 72
    48
 73
    46
  0
VERTEX
  5
149
330
3C
100
AcDbEntity
  8
0
 62
     9
420
 12632256
100
AcDbFaceRecord
 10
0.0
 20
0.0
 30
0.0
 70
   128
 71
    51
 72
    50
 73
    48
  0
VERTEX
  5
14A
330
3C
100
AcDbEntity
  8
0
 62
     9
420
 12632256
100
AcDbFaceRecord
 10
0.0
 20
0.0
 30
0.0
 70
   128
 71
    53
 72
    52
 73
    50
  0
VERTEX
  5
14B
330
3C
100
AcDbEntity
  8
0
 62
     9
420
 12632256
100
AcDbFaceRecord
 10
0.0
 20
0.0
 30
0.0
 70
   128
 71
    55
 72
    54
 73
    52
  0
VERTEX
  5
14C
330
3C
100
AcDbEntity
  8
0
 62
     9
420
 12632256
100
AcDbFaceRecord
 10
0.0
 20
0.0
 30
0.0
 70
   128
 71
    57
 72
    56
 73
    54
  0
VERTEX
  5
14D
330
3C
100
AcDbEntity
  8
0
 62
     9
420
 12632256
100
AcDbFaceRecord
 10
0.0
 20
0.0
 30
0.0
 70
   128
 71
    59
 72
    58
 73
    56
  0
VERTEX
  5
14E
330
3C
100
AcDbEntity
  8
0
 62
     9
420
 12632256
100
AcDbFaceRecord
 10
0.0
 20
0.0
 30
0.0
 70
   128
 71
    61
 72
     3
 73
    60
  0
VERTEX
  5
14F
330
3C
100
AcDbEntity
  8
0
 62
     9
420
 12632256
100
AcDbFaceRecord
 10
0.0
 20
0.0
 30
0.0
 70
   128
 71
    62
 72
     5
 73
     3
  0
VERTEX
  5
150
330
3C
100
AcDbEntity
  8
0
 62
     9
420
 12632256
100
AcDbFaceRecord
 10
0.0
 20
0.0
 30
0.0
 70
   128
 71
    63
 72
     7
 73
     5
  0
VERTEX
  5
151
330
3C
100
AcDbEntity
  8
0
 62
     9
420
 12632256
100
AcDbFaceRecord
 10
0.0
 20
0.0
 30
0.0
 70
   128
 71
    64
 72
     9
 73
     7
  0
VERTEX
  5
152
330
3C
100
AcDbEntity
  8
0
 62
     9
420
 12632256
100
AcDbFaceRecord
 10
0.0
 20
0.0
 30
0.0
 70
   128
 71
    65
 72
    11
 73
     9
  0
VERTEX
  5
153
330
3C
100
AcDbEntity
  8
0
 62
     9
420
 12632256
100
AcDbFaceRecord
 10
0.0
 20
0.0
 30
0.0
 70
   128
 71
    66
 72
    13
 73
    11
  0
VERTEX
  5
154
330
3C
100
AcDbEntity
  8
0
 62
     9
420
 12632256
100
AcDbFaceRecord
 10
0.0
 20
0.0
 30
0.0
 70
   128
 71
    67
 72
    15
 73
    13
  0
VERTEX
  5
155
330
3C
100
AcDbEntity
  8
0
 62
     9
420
 12632256
100
AcDbFaceRecord
 10
0.0
 20
0.0
 30
0.0
 70
   128
 71
    68
 72
    17
 73
    15
  0
VERTEX
  5
156
330
3C
100
AcDbEntity
  8
0
 62
     9
420
 12632256
100
AcDbFaceRecord
 10
0.0
 20
0.0
 30
0.0
 70
   128
 71
    69
 72
    19
 73
    17
  0
VERTEX
  5
157
330
3C
100
AcDbEntity
  8
0
 62
     9
420
 12632256
100
AcDbFaceRecord
 10
0.0
 20
0.0
 30
0.0
 70
   128
 71
    70
 72
    21
 73
    19
  0
VERTEX
  5
158
330
3C
100
AcDbEntity
  8
0
 62
     9
420
 12632256
100
AcDbFaceRecord
 10
0.0
 20
0.0
 30
0.0
 70
   128
 71
    71
 72
    23
 73
    21
  0
VERTEX
  5
159
330
3C
100
AcDbEntity
  8
0
 62
     9
420
 12632256
100
AcDbFaceRecord
 10
0.0
 20
0.0
 30
0.0
 70
   128
 71
    72
 72
    25
 73
    23
  0
VERTEX
  5
15A
330
3C
100
AcDbEntity
  8
0
 62
     9
420
 12632256
100
AcDbFaceRecord
 10
0.0
 20
0.0
 30
0.0
 70
   128
 71
    73
 72
    27
 73
    25
  0
VERTEX
  5
15B
330
3C
100
AcDbEntity
  8
0
 62
     9
420
 12632256
100
AcDbFaceRecord
 10
0.0
 20
0.0
 30
0.0
 70
   128
 71
    74
 72
    29
 73
    27
  0
VERTEX
  5
15C
330
3C
100
AcDbEntity
  8
0
 62
     9
420
 12632256
100
AcDbFaceRecord
 10
0.0
 20
0.0
 30
0.0
 70
   128
 71
    75
 72
    31
 73
    29
  0
VERTEX
  5
15D
330
3C
100
AcDbEntity
  8
0
 62
     9
420
 12632256
100
AcDbFaceRecord
 10
0.0
 20
0.0
 30
0.0
 70
   128
 71
    76
 72
    33
 73
    31
  0
VERTEX
  5
15E
330
3C
100
AcDbEntity
  8
0
 62
     9
420
 12632256
100
AcDbFaceRecord
 10
0.0
 20
0.0
 30
0.0
 70
   128
 71
    77
 72
    35
 73
    33
  0
VERTEX
  5
15F
330
3C
100
AcDbEntity
  8
0
 62
     9
420
 12632256
100
AcDbFaceRecord
 10
0.0
 20
0.0
 30
0.0
 70
   128
 71
    78
 72
    37
 73
    35
  0
VERTEX
  5
160
330
3C
100
AcDbEntity
  8
0
 62
     9
420
 12632256
100
AcDbFaceRecord
 10
0.0
 20
0.0
 30
0.0
 70
   128
 71
    79
 72
    39
 73
    37
  0
VERTEX
  5
161
330
3C
100
AcDbEntity
  8
0
 62
     9
420
 12632256
100
AcDbFaceRecord
 10
0.0
 20
0.0
 30
0.0
 70
   128
 71
    80
 72
    41
 73
    39
  0
VERTEX
  5
162
330
3C
100
AcDbEntity
  8
0
 62
     9
420
 12632256
100
AcDbFaceRecord
 10
0.0
 20
0.0
 30
0.0
 70
   128
 71
    81
 72
    43
 73
    41
  0
VERTEX
  5
163
330
3C
100
AcDbEntity
  8
0
 62
     9
420
 12632256
100
AcDbFaceRecord
 10
0.0
 20
0.0
 30
0.0
 70
   128
 71
    82
 72
    45
 73
    43
  0
VERTEX
  5
164
330
3C
100
AcDbEntity
  8
0
 62
     9
420
 12632256
100
AcDbFaceRecord
 10
0.0
 20
0.0
 30
0.0
 70
   128
 71
    83
 72
    47
 73
    45
  0
VERTEX
  5
165
330
3C
100
AcDbEntity
  8
0
 62
     9
420
 12632256
100
AcDbFaceRecord
 10
0.0
 20
0.0
 30
0.0
 70
   128
 71
    84
 72
    49
 73
    47
  0
VERTEX
  5
166
330
3C
100
AcDbEntity
  8
0
 62
     9
420
 12632256
100
AcDbFaceRecord
 10
0.0
 20
0.0
 30
0.0
 70
   128
 71
    85
 72
    51
 73
    49
  0
VERTEX
  5
167
330
3C
100
AcDbEntity
  8
0
 62
     9
420
 12632256
100
AcDbFaceRecord
 10
0.0
 20
0.0
 30
0.0
 70
   128
 71
    86
 72
    53
 73
    51
  0
VERTEX
  5
168
330
3C
100
AcDbEntity
  8
0
 62
     9
420
 12632256
100
AcDbFaceRecord
 10
0.0
 20
0.0
 30
0.0
 70
   128
 71
    87
 72
    55
 73
    53
  0
VERTEX
  5
169
330
3C
100
AcDbEntity
  8
0
 62
     9
420
 12632256
100
AcDbFaceRecord
 10
0.0
 20
0.0
 30
0.0
 70
   128
 71
    88
 72
    57
 73
    55
  0
VERTEX
  5
16A
330
3C
100
AcDbEntity
  8
0
 62
     9
420
 12632256
100
AcDbFaceRecord
 10
0.0
 20
0.0
 30
0.0
 70
   128
 71
    89
 72
    59
 73
    57
  0
VERTEX
  5
16B
330
3C
100
AcDbEntity
  8
0
 62
     9
420
 12632256
100
AcDbFaceRecord
 10
0.0
 20
0.0
 30
0.0
 70
   128
 71
    91
 72
    61
 73
    90
  0
VERTEX
  5
16C
330
3C
100
AcDbEntity
  8
0
 62
     9
420
 12632256
100
AcDbFaceRecord
 10
0.0
 20
0.0
 30
0.0
 70
   128
 71
    92
 72
    62
 73
    61
  0
VERTEX
  5
16D
330
3C
100
AcDbEntity
  8
0
 62
     9
420
 12632256
100
AcDbFaceRecord
 10
0.0
 20
0.0
 30
0.0
 70
   128
 71
    93
 72
    63
 73
    62
  0
VERTEX
  5
16E
330
3C
100
AcDbEntity
  8
0
 62
     9
420
 12632256
100
AcDbFaceRecord
 10
0.0
 20
0.0
 30
0.0
 70
   128
 71
    94
 72
    64
 73
    63
  0
VERTEX
  5
16F
330
3C
100
AcDbEntity
  8
0
 62
     9
420
 12632256
100
AcDbFaceRecord
 10
0.0
 20
0.0
 30
0.0
 70
   128
 71
    95
 72
    65
 73
    64
  0
VERTEX
  5
170
330
3C
100
AcDbEntity
  8
0
 62
     9
420
 12632256
100
AcDbFaceRecord
 10
0.0
 20
0.0
 30
0.0
 70
   128
 71
    96
 72
    66
 73
    65
  0
VERTEX
  5
171
330
3C
100
AcDbEntity
  8
0
 62
     9
420
 12632256
100
AcDbFaceRecord
 10
0.0
 20
0.0
 30
0.0
 70
   128
 71
    97
 72
    67
 73
    66
  0
VERTEX
  5
172
330
3C
100
AcDbEntity
  8
0
 62
     9
420
 12632256
100
AcDbFaceRecord
 10
0.0
 20
0.0
 30
0.0
 70
   128
 71
    98
 72
    68
 73
    67
  0
VERTEX
  5
173
330
3C
100
AcDbEntity
  8
0
 62
     9
420
 12632256
100
AcDbFaceRecord
 10
0.0
 20
0.0
 30
0.0
 70
   128
 71
    99
 72
    69
 73
    68
  0
VERTEX
  5
174
330
3C
100
AcDbEntity
  8
0
 62
     9
420
 12632256
100
AcDbFaceRecord
 10
0.0
 20
0.0
 30
0.0
 70
   128
 71
   100
 72
    70
 73
    69
  0
VERTEX
  5
175
330
3C
100
AcDbEntity
  8
0
 62
     9
420
 12632256
100
AcDbFaceRecord
 10
0.0
 20
0.0
 30
0.0
 70
   128
 71
   101
 72
    71
 73
    70
  0
VERTEX
  5
176
330
3C
100
AcDbEntity
  8
0
 62
     9
420
 12632256
100
AcDbFaceRecord
 10
0.0
 20
0.0
 30
0.0
 70
   128
 71
   102
 72
    72
 73
    71
  0
VERTEX
  5
177
330
3C
100
AcDbEntity
  8
0
 62
     9
420
 12632256
100
AcDbFaceRecord
 10
0.0
 20
0.0
 30
0.0
 70
   128
 71
   103
 72
    73
 73
    72
  0
VERTEX
  5
178
330
3C
100
AcDbEntity
  8
0
 62
     9
420
 12632256
100
AcDbFaceRecord
 10
0.0
 20
0.0
 30
0.0
 70
   128
 71
   104
 72
    74
 73
    73
  0
VERTEX
  5
179
330
3C
100
AcDbEntity
  8
0
 62
     9
420
 12632256
100
AcDbFaceRecord
 10
0.0
 20
0.0
 30
0.0
 70
   128
 71
   105
 72
    75
 73
    74
  0
VERTEX
  5
17A
330
3C
100
AcDbEntity
  8
0
 62
     9
420
 12632256
100
AcDbFaceRecord
 10
0.0
 20
0.0
 30
0.0
 70
   128
 71
   106
 72
    76
 73
    75
  0
VERTEX
  5
17B
330
3C
100
AcDbEntity
  8
0
 62
     9
420
 12632256
100
AcDbFaceRecord
 10
0.0
 20
0.0
 30
0.0
 70
   128
 71
   107
 72
    77
 73
    76
  0
VERTEX
  5
17C
330
3C
100
AcDbEntity
  8
0
 62
     9
420
 12632256
100
AcDbFaceRecord
 10
0.0
 20
0.0
 30
0.0
 70
   128
 71
   108
 72
    78
 73
    77
  0
VERTEX
  5
17D
330
3C
100
AcDbEntity
  8
0
 62
     9
420
 12632256
100
AcDbFaceRecord
 10
0.0
 20
0.0
 30
0.0
 70
   128
 71
   109
 72
    79
 73
    78
  0
VERTEX
  5
17E
330
3C
100
AcDbEntity
  8
0
 62
     9
420
 12632256
100
AcDbFaceRecord
 10
0.0
 20
0.0
 30
0.0
 70
   128
 71
   110
 72
    80
 73
    79
  0
VERTEX
  5
17F
330
3C
100
AcDbEntity
  8
0
 62
     9
420
 12632256
100
AcDbFaceRecord
 10
0.0
 20
0.0
 30
0.0
 70
   128
 71
   111
 72
    81
 73
    80
  0
VERTEX
  5
180
330
3C
100
AcDbEntity
  8
0
 62
     9
420
 12632256
100
AcDbFaceRecord
 10
0.0
 20
0.0
 30
0.0
 70
   128
 71
   112
 72
    82
 73
    81
  0
VERTEX
  5
181
330
3C
100
AcDbEntity
  8
0
 62
     9
420
 12632256
100
AcDbFaceRecord
 10
0.0
 20
0.0
 30
0.0
 70
   128
 71
   113
 72
    83
 73
    82
  0
VERTEX
  5
182
330
3C
100
AcDbEntity
  8
0
 62
     9
420
 12632256
100
AcDbFaceRecord
 10
0.0
 20
0.0
 30
0.0
 70
   128
 71
   114
 72
    84
 73
    83
  0
VERTEX
  5
183
330
3C
100
AcDbEntity
  8
0
 62
     9
420
 12632256
100
AcDbFaceRecord
 10
0.0
 20
0.0
 30
0.0
 70
   128
 71
   115
 72
    85
 73
    84
  0
VERTEX
  5
184
330
3C
100
AcDbEntity
  8
0
 62
     9
420
 12632256
100
AcDbFaceRecord
 10
0.0
 20
0.0
 30
0.0
 70
   128
 71
   116
 72
    86
 73
    85
  0
VERTEX
  5
185
330
3C
100
AcDbEntity
  8
0
 62
     9
420
 12632256
100
AcDbFaceRecord
 10
0.0
 20
0.0
 30
0.0
 70
   128
 71
   117
 72
    87
 73
    86
  0
VERTEX
  5
186
330
3C
100
AcDbEntity
  8
0
 62
     9
420
 12632256
100
AcDbFaceRecord
 10
0.0
 20
0.0
 30
0.0
 70
   128
 71
   118
 72
    88
 73
    87
  0
VERTEX
  5
187
330
3C
100
AcDbEntity
  8
0
 62
     9
420
 12632256
100
AcDbFaceRecord
 10
0.0
 20
0.0
 30
0.0
 70
   128
 71
   119
 72
    89
 73
    88
  0
VERTEX
  5
188
330
3C
100
AcDbEntity
  8
0
 62
     9
420
 12632256
100
AcDbFaceRecord
 10
0.0
 20
0.0
 30
0.0
 70
   128
 71
   121
 72
    91
 73
   120
  0
VERTEX
  5
189
330
3C
100
AcDbEntity
  8
0
 62
     9
420
 12632256
100
AcDbFaceRecord
 10
0.0
 20
0.0
 30
0.0
 70
   128
 71
   122
 72
    92
 73
    91
  0
VERTEX
  5
18A
330
3C
100
AcDbEntity
  8
0
 62
     9
420
 12632256
100
AcDbFaceRecord
 10
0.0
 20
0.0
 30
0.0
 70
   128
 71
   123
 72
    93
 73
    92
  0
VERTEX
  5
18B
330
3C
100
AcDbEntity
  8
0
 62
     9
420
 12632256
100
AcDbFaceRecord
 10
0.0
 20
0.0
 30
0.0
 70
   128
 71
   124
 72
    94
 73
    93
  0
VERTEX
  5
18C
330
3C
100
AcDbEntity
  8
0
 62
     9
420
 12632256
100
AcDbFaceRecord
 10
0.0
 20
0.0
 30
0.0
 70
   128
 71
   125
 72
    95
 73
    94
  0
VERTEX
  5
18D
330
3C
100
AcDbEntity
  8
0
 62
     9
420
 12632256
100
AcDbFaceRecord
 10
0.0
 20
0.0
 30
0.0
 70
   128
 71
   126
 72
    96
 73
    95
  0
VERTEX
  5
18E
330
3C
100
AcDbEntity
  8
0
 62
     9
420
 12632256
100
AcDbFaceRecord
 10
0.0
 20
0.0
 30
0.0
 70
   128
 71
   127
 72
    97
 73
    96
  0
VERTEX
  5
18F
330
3C
100
AcDbEntity
  8
0
 62
     9
420
 12632256
100
AcDbFaceRecord
 10
0.0
 20
0.0
 30
0.0
 70
   128
 71
   128
 72
    98
 73
    97
  0
VERTEX
  5
190
330
3C
100
AcDbEntity
  8
0
 62
     9
420
 12632256
100
AcDbFaceRecord
 10
0.0
 20
0.0
 30
0.0
 70
   128
 71
   129
 72
    99
 73
    98
  0
VERTEX
  5
191
330
3C
100
AcDbEntity
  8
0
 62
     9
420
 12632256
100
AcDbFaceRecord
 10
0.0
 20
0.0
 30
0.0
 70
   128
 71
   130
 72
   100
 73
    99
  0
VERTEX
  5
192
330
3C
100
AcDbEntity
  8
0
 62
     9
420
 12632256
100
AcDbFaceRecord
 10
0.0
 20
0.0
 30
0.0
 70
   128
 71
   131
 72
   101
 73
   100
  0
VERTEX
  5
193
330
3C
100
AcDbEntity
  8
0
 62
     9
420
 12632256
100
AcDbFaceRecord
 10
0.0
 20
0.0
 30
0.0
 70
   128
 71
   132
 72
   102
 73
   101
  0
VERTEX
  5
194
330
3C
100
AcDbEntity
  8
0
 62
     9
420
 12632256
100
AcDbFaceRecord
 10
0.0
 20
0.0
 30
0.0
 70
   128
 71
   133
 72
   103
 73
   102
  0
VERTEX
  5
195
330
3C
100
AcDbEntity
  8
0
 62
     9
420
 12632256
100
AcDbFaceRecord
 10
0.0
 20
0.0
 30
0.0
 70
   128
 71
   134
 72
   104
 73
   103
  0
VERTEX
  5
196
330
3C
100
AcDbEntity
  8
0
 62
     9
420
 12632256
100
AcDbFaceRecord
 10
0.0
 20
0.0
 30
0.0
 70
   128
 71
   135
 72
   105
 73
   104
  0
VERTEX
  5
197
330
3C
100
AcDbEntity
  8
0
 62
     9
420
 12632256
100
AcDbFaceRecord
 10
0.0
 20
0.0
 30
0.0
 70
   128
 71
   136
 72
   106
 73
   105
  0
VERTEX
  5
198
330
3C
100
AcDbEntity
  8
0
 62
     9
420
 12632256
100
AcDbFaceRecord
 10
0.0
 20
0.0
 30
0.0
 70
   128
 71
   137
 72
   107
 73
   106
  0
VERTEX
  5
199
330
3C
100
AcDbEntity
  8
0
 62
     9
420
 12632256
100
AcDbFaceRecord
 10
0.0
 20
0.0
 30
0.0
 70
   128
 71
   138
 72
   108
 73
   107
  0
VERTEX
  5
19A
330
3C
100
AcDbEntity
  8
0
 62
     9
420
 12632256
100
AcDbFaceRecord
 10
0.0
 20
0.0
 30
0.0
 70
   128
 71
   139
 72
   109
 73
   108
  0
VERTEX
  5
19B
330
3C
100
AcDbEntity
  8
0
 62
     9
420
 12632256
100
AcDbFaceRecord
 10
0.0
 20
0.0
 30
0.0
 70
   128
 71
   140
 72
   110
 73
   109
  0
VERTEX
  5
19C
330
3C
100
AcDbEntity
  8
0
 62
     9
420
 12632256
100
AcDbFaceRecord
 10
0.0
 20
0.0
 30
0.0
 70
   128
 71
   141
 72
   111
 73
   110
  0
VERTEX
  5
19D
330
3C
100
AcDbEntity
  8
0
 62
     9
420
 12632256
100
AcDbFaceRecord
 10
0.0
 20
0.0
 30
0.0
 70
   128
 71
   142
 72
   112
 73
   111
  0
VERTEX
  5
19E
330
3C
100
AcDbEntity
  8
0
 62
     9
420
 12632256
100
AcDbFaceRecord
 10
0.0
 20
0.0
 30
0.0
 70
   128
 71
   143
 72
   113
 73
   112
  0
VERTEX
  5
19F
330
3C
100
AcDbEntity
  8
0
 62
     9
420
 12632256
100
AcDbFaceRecord
 10
0.0
 20
0.0
 30
0.0
 70
   128
 71
   144
 72
   114
 73
   113
  0
VERTEX
  5
1A0
330
3C
100
AcDbEntity
  8
0
 62
     9
420
 12632256
100
AcDbFaceRecord
 10
0.0
 20
0.0
 30
0.0
 70
   128
 71
   145
 72
   115
 73
   114
  0
VERTEX
  5
1A1
330
3C
100
AcDbEntity
  8
0
 62
     9
420
 12632256
100
AcDbFaceRecord
 10
0.0
 20
0.0
 30
0.0
 70
   128
 71
   146
 72
   116
 73
   115
  0
VERTEX
  5
1A2
330
3C
100
AcDbEntity
  8
0
 62
     9
420
 12632256
100
AcDbFaceRecord
 10
0.0
 20
0.0
 30
0.0
 70
   128
 71
   147
 72
   117
 73
   116
  0
VERTEX
  5
1A3
330
3C
100
AcDbEntity
  8
0
 62
     9
420
 12632256
100
AcDbFaceRecord
 10
0.0
 20
0.0
 30
0.0
 70
   128
 71
   148
 72
   118
 73
   117
  0
VERTEX
  5
1A4
330
3C
100
AcDbEntity
  8
0
 62
     9
420
 12632256
100
AcDbFaceRecord
 10
0.0
 20
0.0
 30
0.0
 70
   128
 71
   149
 72
   119
 73
   118
  0
VERTEX
  5
1A5
330
3C
100
AcDbEntity
  8
0
 62
     9
420
 12632256
100
AcDbFaceRecord
 10
0.0
 20
0.0
 30
0.0
 70
   128
 71
   151
 72
   121
 73
   150
  0
VERTEX
  5
1A6
330
3C
100
AcDbEntity
  8
0
 62
     9
420
 12632256
100
AcDbFaceRecord
 10
0.0
 20
0.0
 30
0.0
 70
   128
 71
   152
 72
   122
 73
   121
  0
VERTEX
  5
1A7
330
3C
100
AcDbEntity
  8
0
 62
     9
420
 12632256
100
AcDbFaceRecord
 10
0.0
 20
0.0
 30
0.0
 70
   128
 71
   153
 72
   123
 73
   122
  0
VERTEX
  5
1A8
330
3C
100
AcDbEntity
  8
0
 62
     9
420
 12632256
100
AcDbFaceRecord
 10
0.0
 20
0.0
 30
0.0
 70
   128
 71
   154
 72
   124
 73
   123
  0
VERTEX
  5
1A9
330
3C
100
AcDbEntity
  8
0
 62
     9
420
 12632256
100
AcDbFaceRecord
 10
0.0
 20
0.0
 30
0.0
 70
   128
 71
   155
 72
   125
 73
   124
  0
VERTEX
  5
1AA
330
3C
100
AcDbEntity
  8
0
 62
     9
420
 12632256
100
AcDbFaceRecord
 10
0.0
 20
0.0
 30
0.0
 70
   128
 71
   156
 72
   126
 73
   125
  0
VERTEX
  5
1AB
330
3C
100
AcDbEntity
  8
0
 62
     9
420
 12632256
100
AcDbFaceRecord
 10
0.0
 20
0.0
 30
0.0
 70
   128
 71
   157
 72
   127
 73
   126
  0
VERTEX
  5
1AC
330
3C
100
AcDbEntity
  8
0
 62
     9
420
 12632256
100
AcDbFaceRecord
 10
0.0
 20
0.0
 30
0.0
 70
   128
 71
   158
 72
   128
 73
   127
  0
VERTEX
  5
1AD
330
3C
100
AcDbEntity
  8
0
 62
     9
420
 12632256
100
AcDbFaceRecord
 10
0.0
 20
0.0
 30
0.0
 70
   128
 71
   159
 72
   129
 73
   128
  0
VERTEX
  5
1AE
330
3C
100
AcDbEntity
  8
0
 62
     9
420
 12632256
100
AcDbFaceRecord
 10
0.0
 20
0.0
 30
0.0
 70
   128
 71
   160
 72
   130
 73
   129
  0
VERTEX
  5
1AF
330
3C
100
AcDbEntity
  8
0
 62
     9
420
 12632256
100
AcDbFaceRecord
 10
0.0
 20
0.0
 30
0.0
 70
   128
 71
   161
 72
   131
 73
   130
  0
VERTEX
  5
1B0
330
3C
100
AcDbEntity
  8
0
 62
     9
420
 12632256
100
AcDbFaceRecord
 10
0.0
 20
0.0
 30
0.0
 70
   128
 71
   162
 72
   132
 73
   131
  0
VERTEX
  5
1B1
330
3C
100
AcDbEntity
  8
0
 62
     9
420
 12632256
100
AcDbFaceRecord
 10
0.0
 20
0.0
 30
0.0
 70
   128
 71
   163
 72
   133
 73
   132
  0
VERTEX
  5
1B2
330
3C
100
AcDbEntity
  8
0
 62
     9
420
 12632256
100
AcDbFaceRecord
 10
0.0
 20
0.0
 30
0.0
 70
   128
 71
   164
 72
   134
 73
   133
  0
VERTEX
  5
1B3
330
3C
100
AcDbEntity
  8
0
 62
     9
420
 12632256
100
AcDbFaceRecord
 10
0.0
 20
0.0
 30
0.0
 70
   128
 71
   165
 72
   135
 73
   134
  0
VERTEX
  5
1B4
330
3C
100
AcDbEntity
  8
0
 62
     9
420
 12632256
100
AcDbFaceRecord
 10
0.0
 20
0.0
 30
0.0
 70
   128
 71
   166
 72
   136
 73
   135
  0
VERTEX
  5
1B5
330
3C
100
AcDbEntity
  8
0
 62
     9
420
 12632256
100
AcDbFaceRecord
 10
0.0
 20
0.0
 30
0.0
 70
   128
 71
   167
 72
   137
 73
   136
  0
VERTEX
  5
1B6
330
3C
100
AcDbEntity
  8
0
 62
     9
420
 12632256
100
AcDbFaceRecord
 10
0.0
 20
0.0
 30
0.0
 70
   128
 71
   168
 72
   138
 73
   137
  0
VERTEX
  5
1B7
330
3C
100
AcDbEntity
  8
0
 62
     9
420
 12632256
100
AcDbFaceRecord
 10
0.0
 20
0.0
 30
0.0
 70
   128
 71
   169
 72
   139
 73
   138
  0
VERTEX
  5
1B8
330
3C
100
AcDbEntity
  8
0
 62
     9
420
 12632256
100
AcDbFaceRecord
 10
0.0
 20
0.0
 30
0.0
 70
   128
 71
   170
 72
   140
 73
   139
  0
VERTEX
  5
1B9
330
3C
100
AcDbEntity
  8
0
 62
     9
420
 12632256
100
AcDbFaceRecord
 10
0.0
 20
0.0
 30
0.0
 70
   128
 71
   171
 72
   141
 73
   140
  0
VERTEX
  5
1BA
330
3C
100
AcDbEntity
  8
0
 62
     9
420
 12632256
100
AcDbFaceRecord
 10
0.0
 20
0.0
 30
0.0
 70
   128
 71
   172
 72
   142
 73
   141
  0
VERTEX
  5
1BB
330
3C
100
AcDbEntity
  8
0
 62
     9
420
 12632256
100
AcDbFaceRecord
 10
0.0
 20
0.0
 30
0.0
 70
   128
 71
   173
 72
   143
 73
   142
  0
VERTEX
  5
1BC
330
3C
100
AcDbEntity
  8
0
 62
     9
420
 12632256
100
AcDbFaceRecord
 10
0.0
 20
0.0
 30
0.0
 70
   128
 71
   174
 72
   144
 73
   143
  0
VERTEX
  5
1BD
330
3C
100
AcDbEntity
  8
0
 62
     9
420
 12632256
100
AcDbFaceRecord
 10
0.0
 20
0.0
 30
0.0
 70
   128
 71
   175
 72
   145
 73
   144
  0
VERTEX
  5
1BE
330
3C
100
AcDbEntity
  8
0
 62
     9
420
 12632256
100
AcDbFaceRecord
 10
0.0
 20
0.0
 30
0.0
 70
   128
 71
   176
 72
   146
 73
   145
  0
VERTEX
  5
1BF
330
3C
100
AcDbEntity
  8
0
 62
     9
420
 12632256
100
AcDbFaceRecord
 10
0.0
 20
0.0
 30
0.0
 70
   128
 71
   177
 72
   147
 73
   146
  0
VERTEX
  5
1C0
330
3C
100
AcDbEntity
  8
0
 62
     9
420
 12632256
100
AcDbFaceRecord
 10
0.0
 20
0.0
 30
0.0
 70
   128
 71
   178
 72
   148
 73
   147
  0
VERTEX
  5
1C1
330
3C
100
AcDbEntity
  8
0
 62
     9
420
 12632256
100
AcDbFaceRecord
 10
0.0
 20
0.0
 30
0.0
 70
   128
 71
   179
 72
   149
 73
   148
  0
VERTEX
  5
1C2
330
3C
100
AcDbEntity
  8
0
 62
     9
420
 12632256
100
AcDbFaceRecord
 10
0.0
 20
0.0
 30
0.0
 70
   128
 71
   181
 72
   151
 73
   180
  0
VERTEX
  5
1C3
330
3C
100
AcDbEntity
  8
0
 62
     9
420
 12632256
100
AcDbFaceRecord
 10
0.0
 20
0.0
 30
0.0
 70
   128
 71
   182
 72
   152
 73
   151
  0
VERTEX
  5
1C4
330
3C
100
AcDbEntity
  8
0
 62
     9
420
 12632256
100
AcDbFaceRecord
 10
0.0
 20
0.0
 30
0.0
 70
   128
 71
   183
 72
   153
 73
   152
  0
VERTEX
  5
1C5
330
3C
100
AcDbEntity
  8
0
 62
     9
420
 12632256
100
AcDbFaceRecord
 10
0.0
 20
0.0
 30
0.0
 70
   128
 71
   184
 72
   154
 73
   153
  0
VERTEX
  5
1C6
330
3C
100
AcDbEntity
  8
0
 62
     9
420
 12632256
100
AcDbFaceRecord
 10
0.0
 20
0.0
 30
0.0
 70
   128
 71
   185
 72
   155
 73
   154
  0
VERTEX
  5
1C7
330
3C
100
AcDbEntity
  8
0
 62
     9
420
 12632256
100
AcDbFaceRecord
 10
0.0
 20
0.0
 30
0.0
 70
   128
 71
   186
 72
   156
 73
   155
  0
VERTEX
  5
1C8
330
3C
100
AcDbEntity
  8
0
 62
     9
420
 12632256
100
AcDbFaceRecord
 10
0.0
 20
0.0
 30
0.0
 70
   128
 71
   187
 72
   157
 73
   156
  0
VERTEX
  5
1C9
330
3C
100
AcDbEntity
  8
0
 62
     9
420
 12632256
100
AcDbFaceRecord
 10
0.0
 20
0.0
 30
0.0
 70
   128
 71
   188
 72
   158
 73
   157
  0
VERTEX
  5
1CA
330
3C
100
AcDbEntity
  8
0
 62
     9
420
 12632256
100
AcDbFaceRecord
 10
0.0
 20
0.0
 30
0.0
 70
   128
 71
   189
 72
   159
 73
   158
  0
VERTEX
  5
1CB
330
3C
100
AcDbEntity
  8
0
 62
     9
420
 12632256
100
AcDbFaceRecord
 10
0.0
 20
0.0
 30
0.0
 70
   128
 71
   190
 72
   160
 73
   159
  0
VERTEX
  5
1CC
330
3C
100
AcDbEntity
  8
0
 62
     9
420
 12632256
100
AcDbFaceRecord
 10
0.0
 20
0.0
 30
0.0
 70
   128
 71
   191
 72
   161
 73
   160
  0
VERTEX
  5
1CD
330
3C
100
AcDbEntity
  8
0
 62
     9
420
 12632256
100
AcDbFaceRecord
 10
0.0
 20
0.0
 30
0.0
 70
   128
 71
   192
 72
   162
 73
   161
  0
VERTEX
  5
1CE
330
3C
100
AcDbEntity
  8
0
 62
     9
420
 12632256
100
AcDbFaceRecord
 10
0.0
 20
0.0
 30
0.0
 70
   128
 71
   193
 72
   163
 73
   162
  0
VERTEX
  5
1CF
330
3C
100
AcDbEntity
  8
0
 62
     9
420
 12632256
100
AcDbFaceRecord
 10
0.0
 20
0.0
 30
0.0
 70
   128
 71
   194
 72
   164
 73
   163
  0
VERTEX
  5
1D0
330
3C
100
AcDbEntity
  8
0
 62
     9
420
 12632256
100
AcDbFaceRecord
 10
0.0
 20
0.0
 30
0.0
 70
   128
 71
   195
 72
   165
 73
   164
  0
VERTEX
  5
1D1
330
3C
100
AcDbEntity
  8
0
 62
     9
420
 12632256
100
AcDbFaceRecord
 10
0.0
 20
0.0
 30
0.0
 70
   128
 71
   196
 72
   166
 73
   165
  0
VERTEX
  5
1D2
330
3C
100
AcDbEntity
  8
0
 62
     9
420
 12632256
100
AcDbFaceRecord
 10
0.0
 20
0.0
 30
0.0
 70
   128
 71
   197
 72
   167
 73
   166
  0
VERTEX
  5
1D3
330
3C
100
AcDbEntity
  8
0
 62
     9
420
 12632256
100
AcDbFaceRecord
 10
0.0
 20
0.0
 30
0.0
 70
   128
 71
   198
 72
   168
 73
   167
  0
VERTEX
  5
1D4
330
3C
100
AcDbEntity
  8
0
 62
     9
420
 12632256
100
AcDbFaceRecord
 10
0.0
 20
0.0
 30
0.0
 70
   128
 71
   199
 72
   169
 73
   168
  0
VERTEX
  5
1D5
330
3C
100
AcDbEntity
  8
0
 62
     9
420
 12632256
100
AcDbFaceRecord
 10
0.0
 20
0.0
 30
0.0
 70
   128
 71
   200
 72
   170
 73
   169
  0
VERTEX
  5
1D6
330
3C
100
AcDbEntity
  8
0
 62
     9
420
 12632256
100
AcDbFaceRecord
 10
0.0
 20
0.0
 30
0.0
 70
   128
 71
   201
 72
   171
 73
   170
  0
VERTEX
  5
1D7
330
3C
100
AcDbEntity
  8
0
 62
     9
420
 12632256
100
AcDbFaceRecord
 10
0.0
 20
0.0
 30
0.0
 70
   128
 71
   202
 72
   172
 73
   171
  0
VERTEX
  5
1D8
330
3C
100
AcDbEntity
  8
0
 62
     9
420
 12632256
100
AcDbFaceRecord
 10
0.0
 20
0.0
 30
0.0
 70
   128
 71
   203
 72
   173
 73
   172
  0
VERTEX
  5
1D9
330
3C
100
AcDbEntity
  8
0
 62
     9
420
 12632256
100
AcDbFaceRecord
 10
0.0
 20
0.0
 30
0.0
 70
   128
 71
   204
 72
   174
 73
   173
  0
VERTEX
  5
1DA
330
3C
100
AcDbEntity
  8
0
 62
     9
420
 12632256
100
AcDbFaceRecord
 10
0.0
 20
0.0
 30
0.0
 70
   128
 71
   205
 72
   175
 73
   174
  0
VERTEX
  5
1DB
330
3C
100
AcDbEntity
  8
0
 62
     9
420
 12632256
100
AcDbFaceRecord
 10
0.0
 20
0.0
 30
0.0
 70
   128
 71
   206
 72
   176
 73
   175
  0
VERTEX
  5
1DC
330
3C
100
AcDbEntity
  8
0
 62
     9
420
 12632256
100
AcDbFaceRecord
 10
0.0
 20
0.0
 30
0.0
 70
   128
 71
   207
 72
   177
 73
   176
  0
VERTEX
  5
1DD
330
3C
100
AcDbEntity
  8
0
 62
     9
420
 12632256
100
AcDbFaceRecord
 10
0.0
 20
0.0
 30
0.0
 70
   128
 71
   208
 72
   178
 73
   177
  0
VERTEX
  5
1DE
330
3C
100
AcDbEntity
  8
0
 62
     9
420
 12632256
100
AcDbFaceRecord
 10
0.0
 20
0.0
 30
0.0
 70
   128
 71
   209
 72
   179
 73
   178
  0
VERTEX
  5
1DF
330
3C
100
AcDbEntity
  8
0
 62
     9
420
 12632256
100
AcDbFaceRecord
 10
0.0
 20
0.0
 30
0.0
 70
   128
 71
     2
 72
   181
 73
   210
  0
VERTEX
  5
1E0
330
3C
100
AcDbEntity
  8
0
 62
     9
420
 12632256
100
AcDbFaceRecord
 10
0.0
 20
0.0
 30
0.0
 70
   128
 71
     4
 72
   182
 73
   181
  0
VERTEX
  5
1E1
330
3C
100
AcDbEntity
  8
0
 62
     9
420
 12632256
100
AcDbFaceRecord
 10
0.0
 20
0.0
 30
0.0
 70
   128
 71
     6
 72
   183
 73
   182
  0
VERTEX
  5
1E2
330
3C
100
AcDbEntity
  8
0
 62
     9
420
 12632256
100
AcDbFaceRecord
 10
0.0
 20
0.0
 30
0.0
 70
   128
 71
     8
 72
   184
 73
   183
  0
VERTEX
  5
1E3
330
3C
100
AcDbEntity
  8
0
 62
     9
420
 12632256
100
AcDbFaceRecord
 10
0.0
 20
0.0
 30
0.0
 70
   128
 71
    10
 72
   185
 73
   184
  0
VERTEX
  5
1E4
330
3C
100
AcDbEntity
  8
0
 62
     9
420
 12632256
100
AcDbFaceRecord
 10
0.0
 20
0.0
 30
0.0
 70
   128
 71
    12
 72
   186
 73
   185
  0
VERTEX
  5
1E5
330
3C
100
AcDbEntity
  8
0
 62
     9
420
 12632256
100
AcDbFaceRecord
 10
0.0
 20
0.0
 30
0.0
 70
   128
 71
    14
 72
   187
 73
   186
  0
VERTEX
  5
1E6
330
3C
100
AcDbEntity
  8
0
 62
     9
420
 12632256
100
AcDbFaceRecord
 10
0.0
 20
0.0
 30
0.0
 70
   128
 71
    16
 72
   188
 73
   187
  0
VERTEX
  5
1E7
330
3C
100
AcDbEntity
  8
0
 62
     9
420
 12632256
100
AcDbFaceRecord
 10
0.0
 20
0.0
 30
0.0
 70
   128
 71
    18
 72
   189
 73
   188
  0
VERTEX
  5
1E8
330
3C
100
AcDbEntity
  8
0
 62
     9
420
 12632256
100
AcDbFaceRecord
 10
0.0
 20
0.0
 30
0.0
 70
   128
 71
    20
 72
   190
 73
   189
  0
VERTEX
  5
1E9
330
3C
100
AcDbEntity
  8
0
 62
     9
420
 12632256
100
AcDbFaceRecord
 10
0.0
 20
0.0
 30
0.0
 70
   128
 71
    22
 72
   191
 73
   190
  0
VERTEX
  5
1EA
330
3C
100
AcDbEntity
  8
0
 62
     9
420
 12632256
100
AcDbFaceRecord
 10
0.0
 20
0.0
 30
0.0
 70
   128
 71
    24
 72
   192
 73
   191
  0
VERTEX
  5
1EB
330
3C
100
AcDbEntity
  8
0
 62
     9
420
 12632256
100
AcDbFaceRecord
 10
0.0
 20
0.0
 30
0.0
 70
   128
 71
    26
 72
   193
 73
   192
  0
VERTEX
  5
1EC
330
3C
100
AcDbEntity
  8
0
 62
     9
420
 12632256
100
AcDbFaceRecord
 10
0.0
 20
0.0
 30
0.0
 70
   128
 71
    28
 72
   194
 73
   193
  0
VERTEX
  5
1ED
330
3C
100
AcDbEntity
  8
0
 62
     9
420
 12632256
100
AcDbFaceRecord
 10
0.0
 20
0.0
 30
0.0
 70
   128
 71
    30
 72
   195
 73
   194
  0
VERTEX
  5
1EE
330
3C
100
AcDbEntity
  8
0
 62
     9
420
 12632256
100
AcDbFaceRecord
 10
0.0
 20
0.0
 30
0.0
 70
   128
 71
    32
 72
   196
 73
   195
  0
VERTEX
  5
1EF
330
3C
100
AcDbEntity
  8
0
 62
     9
420
 12632256
100
AcDbFaceRecord
 10
0.0
 20
0.0
 30
0.0
 70
   128
 71
    34
 72
   197
 73
   196
  0
VERTEX
  5
1F0
330
3C
100
AcDbEntity
  8
0
 62
     9
420
 12632256
100
AcDbFaceRecord
 10
0.0
 20
0.0
 30
0.0
 70
   128
 71
    36
 72
   198
 73
   197
  0
VERTEX
  5
1F1
330
3C
100
AcDbEntity
  8
0
 62
     9
420
 12632256
100
AcDbFaceRecord
 10
0.0
 20
0.0
 30
0.0
 70
   128
 71
    38
 72
   199
 73
   198
  0
VERTEX
  5
1F2
330
3C
100
AcDbEntity
  8
0
 62
     9
420
 12632256
100
AcDbFaceRecord
 10
0.0
 20
0.0
 30
0.0
 70
   128
 71
    40
 72
   200
 73
   199
  0
VERTEX
  5
1F3
330
3C
100
AcDbEntity
  8
0
 62
     9
420
 12632256
100
AcDbFaceRecord
 10
0.0
 20
0.0
 30
0.0
 70
   128
 71
    42
 72
   201
 73
   200
  0
VERTEX
  5
1F4
330
3C
100
AcDbEntity
  8
0
 62
     9
420
 12632256
100
AcDbFaceRecord
 10
0.0
 20
0.0
 30
0.0
 70
   128
 71
    44
 72
   202
 73
   201
  0
VERTEX
  5
1F5
330
3C
100
AcDbEntity
  8
0
 62
     9
420
 12632256
100
AcDbFaceRecord
 10
0.0
 20
0.0
 30
0.0
 70
   128
 71
    46
 72
   203
 73
   202
  0
VERTEX
  5
1F6
330
3C
100
AcDbEntity
  8
0
 62
     9
420
 12632256
100
AcDbFaceRecord
 10
0.0
 20
0.0
 30
0.0
 70
   128
 71
    48
 72
   204
 73
   203
  0
VERTEX
  5
1F7
330
3C
100
AcDbEntity
  8
0
 62
     9
420
 12632256
100
AcDbFaceRecord
 10
0.0
 20
0.0
 30
0.0
 70
   128
 71
    50
 72
   205
 73
   204
  0
VERTEX
  5
1F8
330
3C
100
AcDbEntity
  8
0
 62
     9
420
 12632256
100
AcDbFaceRecord
 10
0.0
 20
0.0
 30
0.0
 70
   128
 71
    52
 72
   206
 73
   205
  0
VERTEX
  5
1F9
330
3C
100
AcDbEntity
  8
0
 62
     9
420
 12632256
100
AcDbFaceRecord
 10
0.0
 20
0.0
 30
0.0
 70
   128
 71
    54
 72
   207
 73
   206
  0
VERTEX
  5
1FA
330
3C
100
AcDbEntity
  8
0
 62
     9
420
 12632256
100
AcDbFaceRecord
 10
0.0
 20
0.0
 30
0.0
 70
   128
 71
    56
 72
   208
 73
   207
  0
VERTEX
  5
1FB
330
3C
100
AcDbEntity
  8
0
 62
     9
420
 12632256
100
AcDbFaceRecord
 10
0.0
 20
0.0
 30
0.0
 70
   128
 71
    58
 72
   209
 73
   208
  0
VERTEX
  5
1FC
330
3C
100
AcDbEntity
  8
0
 62
     9
420
 12632256
100
AcDbFaceRecord
 10
0.0
 20
0.0
 30
0.0
 70
   128
 71
   212
 72
   211
 73
    58
  0
VERTEX
  5
1FD
330
3C
100
AcDbEntity
  8
0
 62
     9
420
 12632256
100
AcDbFaceRecord
 10
0.0
 20
0.0
 30
0.0
 70
   128
 71
    58
 72
    59
 73
   212
  0
VERTEX
  5
1FE
330
3C
100
AcDbEntity
  8
0
 62
     9
420
 12632256
100
AcDbFaceRecord
 10
0.0
 20
0.0
 30
0.0
 70
   128
 71
   213
 72
    59
 73
    89
  0
VERTEX
  5
1FF
330
3C
100
AcDbEntity
  8
0
 62
     9
420
 12632256
100
AcDbFaceRecord
 10
0.0
 20
0.0
 30
0.0
 70
   128
 71
    89
 72
   214
 73
   213
  0
VERTEX
  5
200
330
3C
100
AcDbEntity
  8
0
 62
     9
420
 12632256
100
AcDbFaceRecord
 10
0.0
 20
0.0
 30
0.0
 70
   128
 71
   216
 72
   215
 73
   119
  0
VERTEX
  5
201
330
3C
100
AcDbEntity
  8
0
 62
     9
420
 12632256
100
AcDbFaceRecord
 10
0.0
 20
0.0
 30
0.0
 70
   128
 71
   217
 72
    89
 73
   119
  0
VERTEX
  5
202
330
3C
100
AcDbEntity
  8
0
 62
     9
420
 12632256
100
AcDbFaceRecord
 10
0.0
 20
0.0
 30
0.0
 70
   128
 71
   119
 72
   215
 73
   217
  0
VERTEX
  5
203
330
3C
100
AcDbEntity
  8
0
 62
     9
420
 12632256
100
AcDbFaceRecord
 10
0.0
 20
0.0
 30
0.0
 70
   128
 71
   219
 72
   218
 73
   119
  0
VERTEX
  5
204
330
3C
100
AcDbEntity
  8
0
 62
     9
420
 12632256
100
AcDbFaceRecord
 10
0.0
 20
0.0
 30
0.0
 70
   128
 71
   119
 72
   149
 73
   219
  0
VERTEX
  5
205
330
3C
100
AcDbEntity
  8
0
 62
     9
420
 12632256
100
AcDbFaceRecord
 10
0.0
 20
0.0
 30
0.0
 70
   128
 71
   221
 72
   220
 73
   149
  0
VERTEX
  5
206
330
3C
100
AcDbEntity
  8
0
 62
     9
420
 12632256
100
AcDbFaceRecord
 10
0.0
 20
0.0
 30
0.0
 70
   128
 71
   220
 72
   222
 73
   149
  0
VERTEX
  5
207
330
3C
100
AcDbEntity
  8
0
 62
     9
420
 12632256
100
AcDbFaceRecord
 10
0.0
 20
0.0
 30
0.0
 70
   128
 71
   223
 72
   179
 73
   209
  0
VERTEX
  5
208
330
3C
100
AcDbEntity
  8
0
 62
     9
420
 12632256
100
AcDbFaceRecord
 10
0.0
 20
0.0
 30
0.0
 70
   128
 71
   224
 72
   221
 73
   179
  0
VERTEX
  5
209
330
3C
100
AcDbEntity
  8
0
 62
     9
420
 12632256
100
AcDbFaceRecord
 10
0.0
 20
0.0
 30
0.0
 70
   128
 71
   179
 72
   223
 73
   224
  0
VERTEX
  5
20A
330
3C
100
AcDbEntity
  8
0
 62
     9
420
 12632256
100
AcDbFaceRecord
 10
0.0
 20
0.0
 30
0.0
 70
   128
 71
   225
 72
   209
 73
    58
  0
VERTEX
  5
20B
330
3C
100
AcDbEntity
  8
0
 62
     9
420
 12632256
100
AcDbFaceRecord
 10
0.0
 20
0.0
 30
0.0
 70
   128
 71
   225
 72
   226
 73
   209
  0
VERTEX
  5
20C
330
3C
100
AcDbEntity
  8
0
 62
     9
420
 12632256
100
AcDbFaceRecord
 10
0.0
 20
0.0
 30
0.0
 70
   128
 71
    58
 72
   227
 73
   225
  0
VERTEX
  5
20D
330
3C
100
AcDbEntity
  8
0
 62
     9
420
 12632256
100
AcDbFaceRecord
 10
0.0
 20
0.0
 30
0.0
 70
   128
 71
   228
 72
   210
 73
   180
  0
VERTEX
  5
20E
330
3C
100
AcDbEntity
  8
0
 62
     9
420
 12632256
100
AcDbFaceRecord
 10
0.0
 20
0.0
 30
0.0
 70
   128
 71
   180
 72
   229
 73
   228
  0
VERTEX
  5
20F
330
3C
100
AcDbEntity
  8
0
 62
     9
420
 12632256
100
AcDbFaceRecord
 10
0.0
 20
0.0
 30
0.0
 70
   128
 71
   230
 72
   180
 73
   150
  0
VERTEX
  5
210
330
3C
100
AcDbEntity
  8
0
 62
     9
420
 12632256
100
AcDbFaceRecord
 10
0.0
 20
0.0
 30
0.0
 70
   128
 71
   150
 72
   231
 73
   230
  0
VERTEX
  5
211
330
3C
100
AcDbEntity
  8
0
 62
     9
420
 12632256
100
AcDbFaceRecord
 10
0.0
 20
0.0
 30
0.0
 70
   128
 71
   150
 72
   232
 73
   231
  0
VERTEX
  5
212
330
3C
100
AcDbEntity
  8
0
 62
     9
420
 12632256
100
AcDbFaceRecord
 10
0.0
 20
0.0
 30
0.0
 70
   128
 71
   234
 72
   233
 73
   150
  0
VERTEX
  5
213
330
3C
100
AcDbEntity
  8
0
 62
     9
420
 12632256
100
AcDbFaceRecord
 10
0.0
 20
0.0
 30
0.0
 70
   128
 71
   150
 72
   120
 73
   234
  0
VERTEX
  5
214
330
3C
100
AcDbEntity
  8
0
 62
     9
420
 12632256
100
AcDbFaceRecord
 10
0.0
 20
0.0
 30
0.0
 70
   128
 71
   236
 72
   235
 73
   120
  0
VERTEX
  5
215
330
3C
100
AcDbEntity
  8
0
 62
     9
420
 12632256
100
AcDbFaceRecord
 10
0.0
 20
0.0
 30
0.0
 70
   128
 71
   235
 72
   237
 73
   120
  0
VERTEX
  5
216
330
3C
100
AcDbEntity
  8
0
 62
     9
420
 12632256
100
AcDbFaceRecord
 10
0.0
 20
0.0
 30
0.0
 70
   128
 71
   238
 72
    90
 73
    60
  0
VERTEX
  5
217
330
3C
100
AcDbEntity
  8
0
 62
     9
420
 12632256
100
AcDbFaceRecord
 10
0.0
 20
0.0
 30
0.0
 70
   128
 71
   238
 72
   239
 73
    90
  0
VERTEX
  5
218
330
3C
100
AcDbEntity
  8
0
 62
     9
420
 12632256
100
AcDbFaceRecord
 10
0.0
 20
0.0
 30
0.0
 70
   128
 71
   239
 72
   236
 73
    90
  0
VERTEX
  5
219
330
3C
100
AcDbEntity
  8
0
 62
     9
420
 12632256
100
AcDbFaceRecord
 10
0.0
 20
0.0
 30
0.0
 70
   128
 71
   240
 72
    60
 73
     1
  0
VERTEX
  5
21A
330
3C
100
AcDbEntity
  8
0
 62
     9
420
 12632256
100
AcDbFaceRecord
 10
0.0
 20
0.0
 30
0.0
 70
   128
 71
   240
 72
   241
 73
    60
  0
VERTEX
  5
21B
330
3C
100
AcDbEntity
  8
0
 62
     9
420
 12632256
100
AcDbFaceRecord
 10
0.0
 20
0.0
 30
0.0
 70
   128
 71
   242
 72
     1
 73
   210
  0
VERTEX
  5
21C
330
3C
100
AcDbEntity
  8
0
 62
     9
420
 12632256
100
AcDbFaceRecord
 10
0.0
 20
0.0
 30
0.0
 70
   128
 71
   210
 72
   243
 73
   242
  0
VERTEX
  5
21D
330
3C
100
AcDbEntity
  8
0
 62
     9
420
 12632256
100
AcDbFaceRecord
 10
0.0
 20
0.0
 30
0.0
 70
   128
 71
   242
 72
   244
 73
     1
  0
VERTEX
  5
21E
330
3C
100
AcDbEntity
  8
0
 62
     9
420
 12632256
100
AcDbFaceRecord
 10
0.0
 20
0.0
 30
0.0
 70
   128
 71
   210
 72
   228
 73
   243
  0
VERTEX
  5
21F
330
3C
100
AcDbEntity
  8
0
 62
     9
420
 12632256
100
AcDbFaceRecord
 10
0.0
 20
0.0
 30
0.0
 70
   128
 71
     1
 72
   244
 73
   240
  0
VERTEX
  5
220
330
3C
100
AcDbEntity
  8
0
 62
     9
420
 12632256
100
AcDbFaceRecord
 10
0.0
 20
0.0
 30
0.0
 70
   128
 71
    60
 72
   241
 73
   238
  0
VERTEX
  5
221
330
3C
100
AcDbEntity
  8
0
 62
     9
420
 12632256
100
AcDbFaceRecord
 10
0.0
 20
0.0
 30
0.0
 70
   128
 71
   120
 72
    90
 73
   236
  0
VERTEX
  5
222
330
3C
100
AcDbEntity
  8
0
 62
     9
420
 12632256
100
AcDbFaceRecord
 10
0.0
 20
0.0
 30
0.0
 70
   128
 71
   120
 72
   237
 73
   234
  0
VERTEX
  5
223
330
3C
100
AcDbEntity
  8
0
 62
     9
420
 12632256
100
AcDbFaceRecord
 10
0.0
 20
0.0
 30
0.0
 70
   128
 71
   150
 72
   233
 73
   232
  0
VERTEX
  5
224
330
3C
100
AcDbEntity
  8
0
 62
     9
420
 12632256
100
AcDbFaceRecord
 10
0.0
 20
0.0
 30
0.0
 70
   128
 71
   180
 72
   230
 73
   229
  0
VERTEX
  5
225
330
3C
100
AcDbEntity
  8
0
 62
     9
420
 12632256
100
AcDbFaceRecord
 10
0.0
 20
0.0
 30
0.0
 70
   128
 71
    58
 72
   211
 73
   227
  0
VERTEX
  5
226
330
3C
100
AcDbEntity
  8
0
 62
     9
420
 12632256
100
AcDbFaceRecord
 10
0.0
 20
0.0
 30
0.0
 70
   128
 71
   209
 72
   226
 73
   223
  0
VERTEX
  5
227
330
3C
100
AcDbEntity
  8
0
 62
     9
420
 12632256
100
AcDbFaceRecord
 10
0.0
 20
0.0
 30
0.0
 70
   128
 71
   149
 72
   179
 73
   221
  0
VERTEX
  5
228
330
3C
100
AcDbEntity
  8
0
 62
     9
420
 12632256
100
AcDbFaceRecord
 10
0.0
 20
0.0
 30
0.0
 70
   128
 71
   149
 72
   222
 73
   219
  0
VERTEX
  5
229
330
3C
100
AcDbEntity
  8
0
 62
     9
420
 12632256
100
AcDbFaceRecord
 10
0.0
 20
0.0
 30
0.0
 70
   128
 71
   119
 72
   218
 73
   216
  0
VERTEX
  5
22A
330
3C
100
AcDbEntity
  8
0
 62
     9
420
 12632256
100
AcDbFaceRecord
 10
0.0
 20
0.0
 30
0.0
 70
   128
 71
    89
 72
   217
 73
   214
  0
VERTEX
  5
22B
330
3C
100
AcDbEntity
  8
0
 62
     9
420
 12632256
100
AcDbFaceRecord
 10
0.0
 20
0.0
 30
0.0
 70
   128
 71
    59
 72
   213
 73
   212
  0
VERTEX
  5
22C
330
3C
100
AcDbEntity
  8
0
 62
     9
420
 12632256
100
AcDbFaceRecord
 10
0.0
 20
0.0
 30
0.0
 70
   128
 71
   208
 72
    56
 73
    58
  0
VERTEX
  5
22D
330
3C
100
AcDbEntity
  8
0
 62
     9
420
 12632256
100
AcDbFaceRecord
 10
0.0
 20
0.0
 30
0.0
 70
   128
 71
   207
 72
    54
 73
    56
  0
VERTEX
  5
22E
330
3C
100
AcDbEntity
  8
0
 62
     9
420
 12632256
100
AcDbFaceRecord
 10
0.0
 20
0.0
 30
0.0
 70
   128
 71
   206
 72
    52
 73
    54
  0
VERTEX
  5
22F
330
3C
100
AcDbEntity
  8
0
 62
     9
420
 12632256
100
AcDbFaceRecord
 10
0.0
 20
0.0
 30
0.0
 70
   128
 71
   205
 72
    50
 73
    52
  0
VERTEX
  5
230
330
3C
100
AcDbEntity
  8
0
 62
     9
420
 12632256
100
AcDbFaceRecord
 10
0.0
 20
0.0
 30
0.0
 70
   128
 71
   204
 72
    48
 73
    50
  0
VERTEX
  5
231
330
3C
100
AcDbEntity
  8
0
 62
     9
420
 12632256
100
AcDbFaceRecord
 10
0.0
 20
0.0
 30
0.0
 70
   128
 71
   203
 72
    46
 73
    48
  0
VERTEX
  5
232
330
3C
100
AcDbEntity
  8
0
 62
     9
420
 12632256
100
AcDbFaceRecord
 10
0.0
 20
0.0
 30
0.0
 70
   128
 71
   202
 72
    44
 73
    46
  0
VERTEX
  5
233
330
3C
100
AcDbEntity
  8
0
 62
     9
420
 12632256
100
AcDbFaceRecord
 10
0.0
 20
0.0
 30
0.0
 70
   128
 71
   201
 72
    42
 73
    44
  0
VERTEX
  5
234
330
3C
100
AcDbEntity
  8
0
 62
     9
420
 12632256
100
AcDbFaceRecord
 10
0.0
 20
0.0
 30
0.0
 70
   128
 71
   200
 72
    40
 73
    42
  0
VERTEX
  5
235
330
3C
100
AcDbEntity
  8
0
 62
     9
420
 12632256
100
AcDbFaceRecord
 10
0.0
 20
0.0
 30
0.0
 70
   128
 71
   199
 72
    38
 73
    40
  0
VERTEX
  5
236
330
3C
100
AcDbEntity
  8
0
 62
     9
420
 12632256
100
AcDbFaceRecord
 10
0.0
 20
0.0
 30
0.0
 70
   128
 71
   198
 72
    36
 73
    38
  0
VERTEX
  5
237
330
3C
100
AcDbEntity
  8
0
 62
     9
420
 12632256
100
AcDbFaceRecord
 10
0.0
 20
0.0
 30
0.0
 70
   128
 71
   197
 72
    34
 73
    36
  0
VERTEX
  5
238
330
3C
100
AcDbEntity
  8
0
 62
     9
420
 12632256
100
AcDbFaceRecord
 10
0.0
 20
0.0
 30
0.0
 70
   128
 71
   196
 72
    32
 73
    34
  0
VERTEX
  5
239
330
3C
100
AcDbEntity
  8
0
 62
     9
420
 12632256
100
AcDbFaceRecord
 10
0.0
 20
0.0
 30
0.0
 70
   128
 71
   195
 72
    30
 73
    32
  0
VERTEX
  5
23A
330
3C
100
AcDbEntity
  8
0
 62
     9
420
 12632256
100
AcDbFaceRecord
 10
0.0
 20
0.0
 30
0.0
 70
   128
 71
   194
 72
    28
 73
    30
  0
VERTEX
  5
23B
330
3C
100
AcDbEntity
  8
0
 62
     9
420
 12632256
100
AcDbFaceRecord
 10
0.0
 20
0.0
 30
0.0
 70
   128
 71
   193
 72
    26
 73
    28
  0
VERTEX
  5
23C
330
3C
100
AcDbEntity
  8
0
 62
     9
420
 12632256
100
AcDbFaceRecord
 10
0.0
 20
0.0
 30
0.0
 70
   128
 71
   192
 72
    24
 73
    26
  0
VERTEX
  5
23D
330
3C
100
AcDbEntity
  8
0
 62
     9
420
 12632256
100
AcDbFaceRecord
 10
0.0
 20
0.0
 30
0.0
 70
   128
 71
   191
 72
    22
 73
    24
  0
VERTEX
  5
23E
330
3C
100
AcDbEntity
  8
0
 62
     9
420
 12632256
100
AcDbFaceRecord
 10
0.0
 20
0.0
 30
0.0
 70
   128
 71
   190
 72
    20
 73
    22
  0
VERTEX
  5
23F
330
3C
100
AcDbEntity
  8
0
 62
     9
420
 12632256
100
AcDbFaceRecord
 10
0.0
 20
0.0
 30
0.0
 70
   128
 71
   189
 72
    18
 73
    20
  0
VERTEX
  5
240
330
3C
100
AcDbEntity
  8
0
 62
     9
420
 12632256
100
AcDbFaceRecord
 10
0.0
 20
0.0
 30
0.0
 70
   128
 71
   188
 72
    16
 73
    18
  0
VERTEX
  5
241
330
3C
100
AcDbEntity
  8
0
 62
     9
420
 12632256
100
AcDbFaceRecord
 10
0.0
 20
0.0
 30
0.0
 70
   128
 71
   187
 72
    14
 73
    16
  0
VERTEX
  5
242
330
3C
100
AcDbEntity
  8
0
 62
     9
420
 12632256
100
AcDbFaceRecord
 10
0.0
 20
0.0
 30
0.0
 70
   128
 71
   186
 72
    12
 73
    14
  0
VERTEX
  5
243
330
3C
100
AcDbEntity
  8
0
 62
     9
420
 12632256
100
AcDbFaceRecord
 10
0.0
 20
0.0
 30
0.0
 70
   128
 71
   185
 72
    10
 73
    12
  0
VERTEX
  5
244
330
3C
100
AcDbEntity
  8
0
 62
     9
420
 12632256
100
AcDbFaceRecord
 10
0.0
 20
0.0
 30
0.0
 70
   128
 71
   184
 72
     8
 73
    10
  0
VERTEX
  5
245
330
3C
100
AcDbEntity
  8
0
 62
     9
420
 12632256
100
AcDbFaceRecord
 10
0.0
 20
0.0
 30
0.0
 70
   128
 71
   183
 72
     6
 73
     8
  0
VERTEX
  5
246
330
3C
100
AcDbEntity
  8
0
 62
     9
420
 12632256
100
AcDbFaceRecord
 10
0.0
 20
0.0
 30
0.0
 70
   128
 71
   182
 72
     4
 73
     6
  0
VERTEX
  5
247
330
3C
100
AcDbEntity
  8
0
 62
     9
420
 12632256
100
AcDbFaceRecord
 10
0.0
 20
0.0
 30
0.0
 70
   128
 71
   181
 72
     2
 73
     4
  0
VERTEX
  5
248
330
3C
100
AcDbEntity
  8
0
 62
     9
420
 12632256
100
AcDbFaceRecord
 10
0.0
 20
0.0
 30
0.0
 70
   128
 71
   210
 72
     1
 73
     2
  0
VERTEX
  5
249
330
3C
100
AcDbEntity
  8
0
 62
     9
420
 12632256
100
AcDbFaceRecord
 10
0.0
 20
0.0
 30
0.0
 70
   128
 71
   178
 72
   208
 73
   209
  0
VERTEX
  5
24A
330
3C
100
AcDbEntity
  8
0
 62
     9
420
 12632256
100
AcDbFaceRecord
 10
0.0
 20
0.0
 30
0.0
 70
   128
 71
   177
 72
   207
 73
   208
  0
VERTEX
  5
24B
330
3C
100
AcDbEntity
  8
0
 62
     9
420
 12632256
100
AcDbFaceRecord
 10
0.0
 20
0.0
 30
0.0
 70
   128
 71
   176
 72
   206
 73
   207
  0
VERTEX
  5
24C
330
3C
100
AcDbEntity
  8
0
 62
     9
420
 12632256
100
AcDbFaceRecord
 10
0.0
 20
0.0
 30
0.0
 70
   128
 71
   175
 72
   205
 73
   206
  0
VERTEX
  5
24D
330
3C
100
AcDbEntity
  8
0
 62
     9
420
 12632256
100
AcDbFaceRecord
 10
0.0
 20
0.0
 30
0.0
 70
   128
 71
   174
 72
   204
 73
   205
  0
VERTEX
  5
24E
330
3C
100
AcDbEntity
  8
0
 62
     9
420
 12632256
100
AcDbFaceRecord
 10
0.0
 20
0.0
 30
0.0
 70
   128
 71
   173
 72
   203
 73
   204
  0
VERTEX
  5
24F
330
3C
100
AcDbEntity
  8
0
 62
     9
420
 12632256
100
AcDbFaceRecord
 10
0.0
 20
0.0
 30
0.0
 70
   128
 71
   172
 72
   202
 73
   203
  0
VERTEX
  5
250
330
3C
100
AcDbEntity
  8
0
 62
     9
420
 12632256
100
AcDbFaceRecord
 10
0.0
 20
0.0
 30
0.0
 70
   128
 71
   171
 72
   201
 73
   202
  0
VERTEX
  5
251
330
3C
100
AcDbEntity
  8
0
 62
     9
420
 12632256
100
AcDbFaceRecord
 10
0.0
 20
0.0
 30
0.0
 70
   128
 71
   170
 72
   200
 73
   201
  0
VERTEX
  5
252
330
3C
100
AcDbEntity
  8
0
 62
     9
420
 12632256
100
AcDbFaceRecord
 10
0.0
 20
0.0
 30
0.0
 70
   128
 71
   169
 72
   199
 73
   200
  0
VERTEX
  5
253
330
3C
100
AcDbEntity
  8
0
 62
     9
420
 12632256
100
AcDbFaceRecord
 10
0.0
 20
0.0
 30
0.0
 70
   128
 71
   168
 72
   198
 73
   199
  0
VERTEX
  5
254
330
3C
100
AcDbEntity
  8
0
 62
     9
420
 12632256
100
AcDbFaceRecord
 10
0.0
 20
0.0
 30
0.0
 70
   128
 71
   167
 72
   197
 73
   198
  0
VERTEX
  5
255
330
3C
100
AcDbEntity
  8
0
 62
     9
420
 12632256
100
AcDbFaceRecord
 10
0.0
 20
0.0
 30
0.0
 70
   128
 71
   166
 72
   196
 73
   197
  0
VERTEX
  5
256
330
3C
100
AcDbEntity
  8
0
 62
     9
420
 12632256
100
AcDbFaceRecord
 10
0.0
 20
0.0
 30
0.0
 70
   128
 71
   165
 72
   195
 73
   196
  0
VERTEX
  5
257
330
3C
100
AcDbEntity
  8
0
 62
     9
420
 12632256
100
AcDbFaceRecord
 10
0.0
 20
0.0
 30
0.0
 70
   128
 71
   164
 72
   194
 73
   195
  0
VERTEX
  5
258
330
3C
100
AcDbEntity
  8
0
 62
     9
420
 12632256
100
AcDbFaceRecord
 10
0.0
 20
0.0
 30
0.0
 70
   128
 71
   163
 72
   193
 73
   194
  0
VERTEX
  5
259
330
3C
100
AcDbEntity
  8
0
 62
     9
420
 12632256
100
AcDbFaceRecord
 10
0.0
 20
0.0
 30
0.0
 70
   128
 71
   162
 72
   192
 73
   193
  0
VERTEX
  5
25A
330
3C
100
AcDbEntity
  8
0
 62
     9
420
 12632256
100
AcDbFaceRecord
 10
0.0
 20
0.0
 30
0.0
 70
   128
 71
   161
 72
   191
 73
   192
  0
VERTEX
  5
25B
330
3C
100
AcDbEntity
  8
0
 62
     9
420
 12632256
100
AcDbFaceRecord
 10
0.0
 20
0.0
 30
0.0
 70
   128
 71
   160
 72
   190
 73
   191
  0
VERTEX
  5
25C
330
3C
100
AcDbEntity
  8
0
 62
     9
420
 12632256
100
AcDbFaceRecord
 10
0.0
 20
0.0
 30
0.0
 70
   128
 71
   159
 72
   189
 73
   190
  0
VERTEX
  5
25D
330
3C
100
AcDbEntity
  8
0
 62
     9
420
 12632256
100
AcDbFaceRecord
 10
0.0
 20
0.0
 30
0.0
 70
   128
 71
   158
 72
   188
 73
   189
  0
VERTEX
  5
25E
330
3C
100
AcDbEntity
  8
0
 62
     9
420
 12632256
100
AcDbFaceRecord
 10
0.0
 20
0.0
 30
0.0
 70
   128
 71
   157
 72
   187
 73
   188
  0
VERTEX
  5
25F
330
3C
100
AcDbEntity
  8
0
 62
     9
420
 12632256
100
AcDbFaceRecord
 10
0.0
 20
0.0
 30
0.0
 70
   128
 71
   156
 72
   186
 73
   187
  0
VERTEX
  5
260
330
3C
100
AcDbEntity
  8
0
 62
     9
420
 12632256
100
AcDbFaceRecord
 10
0.0
 20
0.0
 30
0.0
 70
   128
 71
   155
 72
   185
 73
   186
  0
VERTEX
  5
261
330
3C
100
AcDbEntity
  8
0
 62
     9
420
 12632256
100
AcDbFaceRecord
 10
0.0
 20
0.0
 30
0.0
 70
   128
 71
   154
 72
   184
 73
   185
  0
VERTEX
  5
262
330
3C
100
AcDbEntity
  8
0
 62
     9
420
 12632256
100
AcDbFaceRecord
 10
0.0
 20
0.0
 30
0.0
 70
   128
 71
   153
 72
   183
 73
   184
  0
VERTEX
  5
263
330
3C
100
AcDbEntity
  8
0
 62
     9
420
 12632256
100
AcDbFaceRecord
 10
0.0
 20
0.0
 30
0.0
 70
   128
 71
   152
 72
   182
 73
   183
  0
VERTEX
  5
264
330
3C
100
AcDbEntity
  8
0
 62
     9
420
 12632256
100
AcDbFaceRecord
 10
0.0
 20
0.0
 30
0.0
 70
   128
 71
   151
 72
   181
 73
   182
  0
VERTEX
  5
265
330
3C
100
AcDbEntity
  8
0
 62
     9
420
 12632256
100
AcDbFaceRecord
 10
0.0
 20
0.0
 30
0.0
 70
   128
 71
   180
 72
   210
 73
   181
  0
VERTEX
  5
266
330
3C
100
AcDbEntity
  8
0
 62
     9
420
 12632256
100
AcDbFaceRecord
 10
0.0
 20
0.0
 30
0.0
 70
   128
 71
   148
 72
   178
 73
   179
  0
VERTEX
  5
267
330
3C
100
AcDbEntity
  8
0
 62
     9
420
 12632256
100
AcDbFaceRecord
 10
0.0
 20
0.0
 30
0.0
 70
   128
 71
   147
 72
   177
 73
   178
  0
VERTEX
  5
268
330
3C
100
AcDbEntity
  8
0
 62
     9
420
 12632256
100
AcDbFaceRecord
 10
0.0
 20
0.0
 30
0.0
 70
   128
 71
   146
 72
   176
 73
   177
  0
VERTEX
  5
269
330
3C
100
AcDbEntity
  8
0
 62
     9
420
 12632256
100
AcDbFaceRecord
 10
0.0
 20
0.0
 30
0.0
 70
   128
 71
   145
 72
   175
 73
   176
  0
VERTEX
  5
26A
330
3C
100
AcDbEntity
  8
0
 62
     9
420
 12632256
100
AcDbFaceRecord
 10
0.0
 20
0.0
 30
0.0
 70
   128
 71
   144
 72
   174
 73
   175
  0
VERTEX
  5
26B
330
3C
100
AcDbEntity
  8
0
 62
     9
420
 12632256
100
AcDbFaceRecord
 10
0.0
 20
0.0
 30
0.0
 70
   128
 71
   143
 72
   173
 73
   174
  0
VERTEX
  5
26C
330
3C
100
AcDbEntity
  8
0
 62
     9
420
 12632256
100
AcDbFaceRecord
 10
0.0
 20
0.0
 30
0.0
 70
   128
 71
   142
 72
   172
 73
   173
  0
VERTEX
  5
26D
330
3C
100
AcDbEntity
  8
0
 62
     9
420
 12632256
100
AcDbFaceRecord
 10
0.0
 20
0.0
 30
0.0
 70
   128
 71
   141
 72
   171
 73
   172
  0
VERTEX
  5
26E
330
3C
100
AcDbEntity
  8
0
 62
     9
420
 12632256
100
AcDbFaceRecord
 10
0.0
 20
0.0
 30
0.0
 70
   128
 71
   140
 72
   170
 73
   171
  0
VERTEX
  5
26F
330
3C
100
AcDbEntity
  8
0
 62
     9
420
 12632256
100
AcDbFaceRecord
 10
0.0
 20
0.0
 30
0.0
 70
   128
 71
   139
 72
   169
 73
   170
  0
VERTEX
  5
270
330
3C
100
AcDbEntity
  8
0
 62
     9
420
 12632256
100
AcDbFaceRecord
 10
0.0
 20
0.0
 30
0.0
 70
   128
 71
   138
 72
   168
 73
   169
  0
VERTEX
  5
271
330
3C
100
AcDbEntity
  8
0
 62
     9
420
 12632256
100
AcDbFaceRecord
 10
0.0
 20
0.0
 30
0.0
 70
   128
 71
   137
 72
   167
 73
   168
  0
VERTEX
  5
272
330
3C
100
AcDbEntity
  8
0
 62
     9
420
 12632256
100
AcDbFaceRecord
 10
0.0
 20
0.0
 30
0.0
 70
   128
 71
   136
 72
   166
 73
   167
  0
VERTEX
  5
273
330
3C
100
AcDbEntity
  8
0
 62
     9
420
 12632256
100
AcDbFaceRecord
 10
0.0
 20
0.0
 30
0.0
 70
   128
 71
   135
 72
   165
 73
   166
  0
VERTEX
  5
274
330
3C
100
AcDbEntity
  8
0
 62
     9
420
 12632256
100
AcDbFaceRecord
 10
0.0
 20
0.0
 30
0.0
 70
   128
 71
   134
 72
   164
 73
   165
  0
VERTEX
  5
275
330
3C
100
AcDbEntity
  8
0
 62
     9
420
 12632256
100
AcDbFaceRecord
 10
0.0
 20
0.0
 30
0.0
 70
   128
 71
   133
 72
   163
 73
   164
  0
VERTEX
  5
276
330
3C
100
AcDbEntity
  8
0
 62
     9
420
 12632256
100
AcDbFaceRecord
 10
0.0
 20
0.0
 30
0.0
 70
   128
 71
   132
 72
   162
 73
   163
  0
VERTEX
  5
277
330
3C
100
AcDbEntity
  8
0
 62
     9
420
 12632256
100
AcDbFaceRecord
 10
0.0
 20
0.0
 30
0.0
 70
   128
 71
   131
 72
   161
 73
   162
  0
VERTEX
  5
278
330
3C
100
AcDbEntity
  8
0
 62
     9
420
 12632256
100
AcDbFaceRecord
 10
0.0
 20
0.0
 30
0.0
 70
   128
 71
   130
 72
   160
 73
   161
  0
VERTEX
  5
279
330
3C
100
AcDbEntity
  8
0
 62
     9
420
 12632256
100
AcDbFaceRecord
 10
0.0
 20
0.0
 30
0.0
 70
   128
 71
   129
 72
   159
 73
   160
  0
VERTEX
  5
27A
330
3C
100
AcDbEntity
  8
0
 62
     9
420
 12632256
100
AcDbFaceRecord
 10
0.0
 20
0.0
 30
0.0
 70
   128
 71
   128
 72
   158
 73
   159
  0
VERTEX
  5
27B
330
3C
100
AcDbEntity
  8
0
 62
     9
420
 12632256
100
AcDbFaceRecord
 10
0.0
 20
0.0
 30
0.0
 70
   128
 71
   127
 72
   157
 73
   158
  0
VERTEX
  5
27C
330
3C
100
AcDbEntity
  8
0
 62
     9
420
 12632256
100
AcDbFaceRecord
 10
0.0
 20
0.0
 30
0.0
 70
   128
 71
   126
 72
   156
 73
   157
  0
VERTEX
  5
27D
330
3C
100
AcDbEntity
  8
0
 62
     9
420
 12632256
100
AcDbFaceRecord
 10
0.0
 20
0.0
 30
0.0
 70
   128
 71
   125
 72
   155
 73
   156
  0
VERTEX
  5
27E
330
3C
100
AcDbEntity
  8
0
 62
     9
420
 12632256
100
AcDbFaceRecord
 10
0.0
 20
0.0
 30
0.0
 70
   128
 71
   124
 72
   154
 73
   155
  0
VERTEX
  5
27F
330
3C
100
AcDbEntity
  8
0
 62
     9
420
 12632256
100
AcDbFaceRecord
 10
0.0
 20
0.0
 30
0.0
 70
   128
 71
   123
 72
   153
 73
   154
  0
VERTEX
  5
280
330
3C
100
AcDbEntity
  8
0
 62
     9
420
 12632256
100
AcDbFaceRecord
 10
0.0
 20
0.0
 30
0.0
 70
   128
 71
   122
 72
   152
 73
   153
  0
VERTEX
  5
281
330
3C
100
AcDbEntity
  8
0
 62
     9
420
 12632256
100
AcDbFaceRecord
 10
0.0
 20
0.0
 30
0.0
 70
   128
 71
   121
 72
   151
 73
   152
  0
VERTEX
  5
282
330
3C
100
AcDbEntity
  8
0
 62
     9
420
 12632256
100
AcDbFaceRecord
 10
0.0
 20
0.0
 30
0.0
 70
   128
 71
   150
 72
   180
 73
   151
  0
VERTEX
  5
283
330
3C
100
AcDbEntity
  8
0
 62
     9
420
 12632256
100
AcDbFaceRecord
 10
0.0
 20
0.0
 30
0.0
 70
   128
 71
   118
 72
   148
 73
   149
  0
VERTEX
  5
284
330
3C
100
AcDbEntity
  8
0
 62
     9
420
 12632256
100
AcDbFaceRecord
 10
0.0
 20
0.0
 30
0.0
 70
   128
 71
   117
 72
   147
 73
   148
  0
VERTEX
  5
285
330
3C
100
AcDbEntity
  8
0
 62
     9
420
 12632256
100
AcDbFaceRecord
 10
0.0
 20
0.0
 30
0.0
 70
   128
 71
   116
 72
   146
 73
   147
  0
VERTEX
  5
286
330
3C
100
AcDbEntity
  8
0
 62
     9
420
 12632256
100
AcDbFaceRecord
 10
0.0
 20
0.0
 30
0.0
 70
   128
 71
   115
 72
   145
 73
   146
  0
VERTEX
  5
287
330
3C
100
AcDbEntity
  8
0
 62
     9
420
 12632256
100
AcDbFaceRecord
 10
0.0
 20
0.0
 30
0.0
 70
   128
 71
   114
 72
   144
 73
   145
  0
VERTEX
  5
288
330
3C
100
AcDbEntity
  8
0
 62
     9
420
 12632256
100
AcDbFaceRecord
 10
0.0
 20
0.0
 30
0.0
 70
   128
 71
   113
 72
   143
 73
   144
  0
VERTEX
  5
289
330
3C
100
AcDbEntity
  8
0
 62
     9
420
 12632256
100
AcDbFaceRecord
 10
0.0
 20
0.0
 30
0.0
 70
   128
 71
   112
 72
   142
 73
   143
  0
VERTEX
  5
28A
330
3C
100
AcDbEntity
  8
0
 62
     9
420
 12632256
100
AcDbFaceRecord
 10
0.0
 20
0.0
 30
0.0
 70
   128
 71
   111
 72
   141
 73
   142
  0
VERTEX
  5
28B
330
3C
100
AcDbEntity
  8
0
 62
     9
420
 12632256
100
AcDbFaceRecord
 10
0.0
 20
0.0
 30
0.0
 70
   128
 71
   110
 72
   140
 73
   141
  0
VERTEX
  5
28C
330
3C
100
AcDbEntity
  8
0
 62
     9
420
 12632256
100
AcDbFaceRecord
 10
0.0
 20
0.0
 30
0.0
 70
   128
 71
   109
 72
   139
 73
   140
  0
VERTEX
  5
28D
330
3C
100
AcDbEntity
  8
0
 62
     9
420
 12632256
100
AcDbFaceRecord
 10
0.0
 20
0.0
 30
0.0
 70
   128
 71
   108
 72
   138
 73
   139
  0
VERTEX
  5
28E
330
3C
100
AcDbEntity
  8
0
 62
     9
420
 12632256
100
AcDbFaceRecord
 10
0.0
 20
0.0
 30
0.0
 70
   128
 71
   107
 72
   137
 73
   138
  0
VERTEX
  5
28F
330
3C
100
AcDbEntity
  8
0
 62
     9
420
 12632256
100
AcDbFaceRecord
 10
0.0
 20
0.0
 30
0.0
 70
   128
 71
   106
 72
   136
 73
   137
  0
VERTEX
  5
290
330
3C
100
AcDbEntity
  8
0
 62
     9
420
 12632256
100
AcDbFaceRecord
 10
0.0
 20
0.0
 30
0.0
 70
   128
 71
   105
 72
   135
 73
   136
  0
VERTEX
  5
291
330
3C
100
AcDbEntity
  8
0
 62
     9
420
 12632256
100
AcDbFaceRecord
 10
0.0
 20
0.0
 30
0.0
 70
   128
 71
   104
 72
   134
 73
   135
  0
VERTEX
  5
292
330
3C
100
AcDbEntity
  8
0
 62
     9
420
 12632256
100
AcDbFaceRecord
 10
0.0
 20
0.0
 30
0.0
 70
   128
 71
   103
 72
   133
 73
   134
  0
VERTEX
  5
293
330
3C
100
AcDbEntity
  8
0
 62
     9
420
 12632256
100
AcDbFaceRecord
 10
0.0
 20
0.0
 30
0.0
 70
   128
 71
   102
 72
   132
 73
   133
  0
VERTEX
  5
294
330
3C
100
AcDbEntity
  8
0
 62
     9
420
 12632256
100
AcDbFaceRecord
 10
0.0
 20
0.0
 30
0.0
 70
   128
 71
   101
 72
   131
 73
   132
  0
VERTEX
  5
295
330
3C
100
AcDbEntity
  8
0
 62
     9
420
 12632256
100
AcDbFaceRecord
 10
0.0
 20
0.0
 30
0.0
 70
   128
 71
   100
 72
   130
 73
   131
  0
VERTEX
  5
296
330
3C
100
AcDbEntity
  8
0
 62
     9
420
 12632256
100
AcDbFaceRecord
 10
0.0
 20
0.0
 30
0.0
 70
   128
 71
    99
 72
   129
 73
   130
  0
VERTEX
  5
297
330
3C
100
AcDbEntity
  8
0
 62
     9
420
 12632256
100
AcDbFaceRecord
 10
0.0
 20
0.0
 30
0.0
 70
   128
 71
    98
 72
   128
 73
   129
  0
VERTEX
  5
298
330
3C
100
AcDbEntity
  8
0
 62
     9
420
 12632256
100
AcDbFaceRecord
 10
0.0
 20
0.0
 30
0.0
 70
   128
 71
    97
 72
   127
 73
   128
  0
VERTEX
  5
299
330
3C
100
AcDbEntity
  8
0
 62
     9
420
 12632256
100
AcDbFaceRecord
 10
0.0
 20
0.0
 30
0.0
 70
   128
 71
    96
 72
   126
 73
   127
  0
VERTEX
  5
29A
330
3C
100
AcDbEntity
  8
0
 62
     9
420
 12632256
100
AcDbFaceRecord
 10
0.0
 20
0.0
 30
0.0
 70
   128
 71
    95
 72
   125
 73
   126
  0
VERTEX
  5
29B
330
3C
100
AcDbEntity
  8
0
 62
     9
420
 12632256
100
AcDbFaceRecord
 10
0.0
 20
0.0
 30
0.0
 70
   128
 71
    94
 72
   124
 73
   125
  0
VERTEX
  5
29C
330
3C
100
AcDbEntity
  8
0
 62
     9
420
 12632256
100
AcDbFaceRecord
 10
0.0
 20
0.0
 30
0.0
 70
   128
 71
    93
 72
   123
 73
   124
  0
VERTEX
  5
29D
330
3C
100
AcDbEntity
  8
0
 62
     9
420
 12632256
100
AcDbFaceRecord
 10
0.0
 20
0.0
 30
0.0
 70
   128
 71
    92
 72
   122
 73
   123
  0
VERTEX
  5
29E
330
3C
100
AcDbEntity
  8
0
 62
     9
420
 12632256
100
AcDbFaceRecord
 10
0.0
 20
0.0
 30
0.0
 70
   128
 71
    91
 72
   121
 73
   122
  0
VERTEX
  5
29F
330
3C
100
AcDbEntity
  8
0
 62
     9
420
 12632256
100
AcDbFaceRecord
 10
0.0
 20
0.0
 30
0.0
 70
   128
 71
   120
 72
   150
 73
   121
  0
VERTEX
  5
2A0
330
3C
100
AcDbEntity
  8
0
 62
     9
420
 12632256
100
AcDbFaceRecord
 10
0.0
 20
0.0
 30
0.0
 70
   128
 71
    88
 72
   118
 73
   119
  0
VERTEX
  5
2A1
330
3C
100
AcDbEntity
  8
0
 62
     9
420
 12632256
100
AcDbFaceRecord
 10
0.0
 20
0.0
 30
0.0
 70
   128
 71
    87
 72
   117
 73
   118
  0
VERTEX
  5
2A2
330
3C
100
AcDbEntity
  8
0
 62
     9
420
 12632256
100
AcDbFaceRecord
 10
0.0
 20
0.0
 30
0.0
 70
   128
 71
    86
 72
   116
 73
   117
  0
VERTEX
  5
2A3
330
3C
100
AcDbEntity
  8
0
 62
     9
420
 12632256
100
AcDbFaceRecord
 10
0.0
 20
0.0
 30
0.0
 70
   128
 71
    85
 72
   115
 73
   116
  0
VERTEX
  5
2A4
330
3C
100
AcDbEntity
  8
0
 62
     9
420
 12632256
100
AcDbFaceRecord
 10
0.0
 20
0.0
 30
0.0
 70
   128
 71
    84
 72
   114
 73
   115
  0
VERTEX
  5
2A5
330
3C
100
AcDbEntity
  8
0
 62
     9
420
 12632256
100
AcDbFaceRecord
 10
0.0
 20
0.0
 30
0.0
 70
   128
 71
    83
 72
   113
 73
   114
  0
VERTEX
  5
2A6
330
3C
100
AcDbEntity
  8
0
 62
     9
420
 12632256
100
AcDbFaceRecord
 10
0.0
 20
0.0
 30
0.0
 70
   128
 71
    82
 72
   112
 73
   113
  0
VERTEX
  5
2A7
330
3C
100
AcDbEntity
  8
0
 62
     9
420
 12632256
100
AcDbFaceRecord
 10
0.0
 20
0.0
 30
0.0
 70
   128
 71
    81
 72
   111
 73
   112
  0
VERTEX
  5
2A8
330
3C
100
AcDbEntity
  8
0
 62
     9
420
 12632256
100
AcDbFaceRecord
 10
0.0
 20
0.0
 30
0.0
 70
   128
 71
    80
 72
   110
 73
   111
  0
VERTEX
  5
2A9
330
3C
100
AcDbEntity
  8
0
 62
     9
420
 12632256
100
AcDbFaceRecord
 10
0.0
 20
0.0
 30
0.0
 70
   128
 71
    79
 72
   109
 73
   110
  0
VERTEX
  5
2AA
330
3C
100
AcDbEntity
  8
0
 62
     9
420
 12632256
100
AcDbFaceRecord
 10
0.0
 20
0.0
 30
0.0
 70
   128
 71
    78
 72
   108
 73
   109
  0
VERTEX
  5
2AB
330
3C
100
AcDbEntity
  8
0
 62
     9
420
 12632256
100
AcDbFaceRecord
 10
0.0
 20
0.0
 30
0.0
 70
   128
 71
    77
 72
   107
 73
   108
  0
VERTEX
  5
2AC
330
3C
100
AcDbEntity
  8
0
 62
     9
420
 12632256
100
AcDbFaceRecord
 10
0.0
 20
0.0
 30
0.0
 70
   128
 71
    76
 72
   106
 73
   107
  0
VERTEX
  5
2AD
330
3C
100
AcDbEntity
  8
0
 62
     9
420
 12632256
100
AcDbFaceRecord
 10
0.0
 20
0.0
 30
0.0
 70
   128
 71
    75
 72
   105
 73
   106
  0
VERTEX
  5
2AE
330
3C
100
AcDbEntity
  8
0
 62
     9
420
 12632256
100
AcDbFaceRecord
 10
0.0
 20
0.0
 30
0.0
 70
   128
 71
    74
 72
   104
 73
   105
  0
VERTEX
  5
2AF
330
3C
100
AcDbEntity
  8
0
 62
     9
420
 12632256
100
AcDbFaceRecord
 10
0.0
 20
0.0
 30
0.0
 70
   128
 71
    73
 72
   103
 73
   104
  0
VERTEX
  5
2B0
330
3C
100
AcDbEntity
  8
0
 62
     9
420
 12632256
100
AcDbFaceRecord
 10
0.0
 20
0.0
 30
0.0
 70
   128
 71
    72
 72
   102
 73
   103
  0
VERTEX
  5
2B1
330
3C
100
AcDbEntity
  8
0
 62
     9
420
 12632256
100
AcDbFaceRecord
 10
0.0
 20
0.0
 30
0.0
 70
   128
 71
    71
 72
   101
 73
   102
  0
VERTEX
  5
2B2
330
3C
100
AcDbEntity
  8
0
 62
     9
420
 12632256
100
AcDbFaceRecord
 10
0.0
 20
0.0
 30
0.0
 70
   128
 71
    70
 72
   100
 73
   101
  0
VERTEX
  5
2B3
330
3C
100
AcDbEntity
  8
0
 62
     9
420
 12632256
100
AcDbFaceRecord
 10
0.0
 20
0.0
 30
0.0
 70
   128
 71
    69
 72
    99
 73
   100
  0
VERTEX
  5
2B4
330
3C
100
AcDbEntity
  8
0
 62
     9
420
 12632256
100
AcDbFaceRecord
 10
0.0
 20
0.0
 30
0.0
 70
   128
 71
    68
 72
    98
 73
    99
  0
VERTEX
  5
2B5
330
3C
100
AcDbEntity
  8
0
 62
     9
420
 12632256
100
AcDbFaceRecord
 10
0.0
 20
0.0
 30
0.0
 70
   128
 71
    67
 72
    97
 73
    98
  0
VERTEX
  5
2B6
330
3C
100
AcDbEntity
  8
0
 62
     9
420
 12632256
100
AcDbFaceRecord
 10
0.0
 20
0.0
 30
0.0
 70
   128
 71
    66
 72
    96
 73
    97
  0
VERTEX
  5
2B7
330
3C
100
AcDbEntity
  8
0
 62
     9
420
 12632256
100
AcDbFaceRecord
 10
0.0
 20
0.0
 30
0.0
 70
   128
 71
    65
 72
    95
 73
    96
  0
VERTEX
  5
2B8
330
3C
100
AcDbEntity
  8
0
 62
     9
420
 12632256
100
AcDbFaceRecord
 10
0.0
 20
0.0
 30
0.0
 70
   128
 71
    64
 72
    94
 73
    95
  0
VERTEX
  5
2B9
330
3C
100
AcDbEntity
  8
0
 62
     9
420
 12632256
100
AcDbFaceRecord
 10
0.0
 20
0.0
 30
0.0
 70
   128
 71
    63
 72
    93
 73
    94
  0
VERTEX
  5
2BA
330
3C
100
AcDbEntity
  8
0
 62
     9
420
 12632256
100
AcDbFaceRecord
 10
0.0
 20
0.0
 30
0.0
 70
   128
 71
    62
 72
    92
 73
    93
  0
VERTEX
  5
2BB
330
3C
100
AcDbEntity
  8
0
 62
     9
420
 12632256
100
AcDbFaceRecord
 10
0.0
 20
0.0
 30
0.0
 70
   128
 71
    61
 72
    91
 73
    92
  0
VERTEX
  5
2BC
330
3C
100
AcDbEntity
  8
0
 62
     9
420
 12632256
100
AcDbFaceRecord
 10
0.0
 20
0.0
 30
0.0
 70
   128
 71
    90
 72
   120
 73
    91
  0
VERTEX
  5
2BD
330
3C
100
AcDbEntity
  8
0
 62
     9
420
 12632256
100
AcDbFaceRecord
 10
0.0
 20
0.0
 30
0.0
 70
   128
 71
    57
 72
    88
 73
    89
  0
VERTEX
  5
2BE
330
3C
100
AcDbEntity
  8
0
 62
     9
420
 12632256
100
AcDbFaceRecord
 10
0.0
 20
0.0
 30
0.0
 70
   128
 71
    55
 72
    87
 73
    88
  0
VERTEX
  5
2BF
330
3C
100
AcDbEntity
  8
0
 62
     9
420
 12632256
100
AcDbFaceRecord
 10
0.0
 20
0.0
 30
0.0
 70
   128
 71
    53
 72
    86
 73
    87
  0
VERTEX
  5
2C0
330
3C
100
AcDbEntity
  8
0
 62
     9
420
 12632256
100
AcDbFaceRecord
 10
0.0
 20
0.0
 30
0.0
 70
   128
 71
    51
 72
    85
 73
    86
  0
VERTEX
  5
2C1
330
3C
100
AcDbEntity
  8
0
 62
     9
420
 12632256
100
AcDbFaceRecord
 10
0.0
 20
0.0
 30
0.0
 70
   128
 71
    49
 72
    84
 73
    85
  0
VERTEX
  5
2C2
330
3C
100
AcDbEntity
  8
0
 62
     9
420
 12632256
100
AcDbFaceRecord
 10
0.0
 20
0.0
 30
0.0
 70
   128
 71
    47
 72
    83
 73
    84
  0
VERTEX
  5
2C3
330
3C
100
AcDbEntity
  8
0
 62
     9
420
 12632256
100
AcDbFaceRecord
 10
0.0
 20
0.0
 30
0.0
 70
   128
 71
    45
 72
    82
 73
    83
  0
VERTEX
  5
2C4
330
3C
100
AcDbEntity
  8
0
 62
     9
420
 12632256
100
AcDbFaceRecord
 10
0.0
 20
0.0
 30
0.0
 70
   128
 71
    43
 72
    81
 73
    82
  0
VERTEX
  5
2C5
330
3C
100
AcDbEntity
  8
0
 62
     9
420
 12632256
100
AcDbFaceRecord
 10
0.0
 20
0.0
 30
0.0
 70
   128
 71
    41
 72
    80
 73
    81
  0
VERTEX
  5
2C6
330
3C
100
AcDbEntity
  8
0
 62
     9
420
 12632256
100
AcDbFaceRecord
 10
0.0
 20
0.0
 30
0.0
 70
   128
 71
    39
 72
    79
 73
    80
  0
VERTEX
  5
2C7
330
3C
100
AcDbEntity
  8
0
 62
     9
420
 12632256
100
AcDbFaceRecord
 10
0.0
 20
0.0
 30
0.0
 70
   128
 71
    37
 72
    78
 73
    79
  0
VERTEX
  5
2C8
330
3C
100
AcDbEntity
  8
0
 62
     9
420
 12632256
100
AcDbFaceRecord
 10
0.0
 20
0.0
 30
0.0
 70
   128
 71
    35
 72
    77
 73
    78
  0
VERTEX
  5
2C9
330
3C
100
AcDbEntity
  8
0
 62
     9
420
 12632256
100
AcDbFaceRecord
 10
0.0
 20
0.0
 30
0.0
 70
   128
 71
    33
 72
    76
 73
    77
  0
VERTEX
  5
2CA
330
3C
100
AcDbEntity
  8
0
 62
     9
420
 12632256
100
AcDbFaceRecord
 10
0.0
 20
0.0
 30
0.0
 70
   128
 71
    31
 72
    75
 73
    76
  0
VERTEX
  5
2CB
330
3C
100
AcDbEntity
  8
0
 62
     9
420
 12632256
100
AcDbFaceRecord
 10
0.0
 20
0.0
 30
0.0
 70
   128
 71
    29
 72
    74
 73
    75
  0
VERTEX
  5
2CC
330
3C
100
AcDbEntity
  8
0
 62
     9
420
 12632256
100
AcDbFaceRecord
 10
0.0
 20
0.0
 30
0.0
 70
   128
 71
    27
 72
    73
 73
    74
  0
VERTEX
  5
2CD
330
3C
100
AcDbEntity
  8
0
 62
     9
420
 12632256
100
AcDbFaceRecord
 10
0.0
 20
0.0
 30
0.0
 70
   128
 71
    25
 72
    72
 73
    73
  0
VERTEX
  5
2CE
330
3C
100
AcDbEntity
  8
0
 62
     9
420
 12632256
100
AcDbFaceRecord
 10
0.0
 20
0.0
 30
0.0
 70
   128
 71
    23
 72
    71
 73
    72
  0
VERTEX
  5
2CF
330
3C
100
AcDbEntity
  8
0
 62
     9
420
 12632256
100
AcDbFaceRecord
 10
0.0
 20
0.0
 30
0.0
 70
   128
 71
    21
 72
    70
 73
    71
  0
VERTEX
  5
2D0
330
3C
100
AcDbEntity
  8
0
 62
     9
420
 12632256
100
AcDbFaceRecord
 10
0.0
 20
0.0
 30
0.0
 70
   128
 71
    19
 72
    69
 73
    70
  0
VERTEX
  5
2D1
330
3C
100
AcDbEntity
  8
0
 62
     9
420
 12632256
100
AcDbFaceRecord
 10
0.0
 20
0.0
 30
0.0
 70
   128
 71
    17
 72
    68
 73
    69
  0
VERTEX
  5
2D2
330
3C
100
AcDbEntity
  8
0
 62
     9
420
 12632256
100
AcDbFaceRecord
 10
0.0
 20
0.0
 30
0.0
 70
   128
 71
    15
 72
    67
 73
    68
  0
VERTEX
  5
2D3
330
3C
100
AcDbEntity
  8
0
 62
     9
420
 12632256
100
AcDbFaceRecord
 10
0.0
 20
0.0
 30
0.0
 70
   128
 71
    13
 72
    66
 73
    67
  0
VERTEX
  5
2D4
330
3C
100
AcDbEntity
  8
0
 62
     9
420
 12632256
100
AcDbFaceRecord
 10
0.0
 20
0.0
 30
0.0
 70
   128
 71
    11
 72
    65
 73
    66
  0
VERTEX
  5
2D5
330
3C
100
AcDbEntity
  8
0
 62
     9
420
 12632256
100
AcDbFaceRecord
 10
0.0
 20
0.0
 30
0.0
 70
   128
 71
     9
 72
    64
 73
    65
  0
VERTEX
  5
2D6
330
3C
100
AcDbEntity
  8
0
 62
     9
420
 12632256
100
AcDbFaceRecord
 10
0.0
 20
0.0
 30
0.0
 70
   128
 71
     7
 72
    63
 73
    64
  0
VERTEX
  5
2D7
330
3C
100
AcDbEntity
  8
0
 62
     9
420
 12632256
100
AcDbFaceRecord
 10
0.0
 20
0.0
 30
0.0
 70
   128
 71
     5
 72
    62
 73
    63
  0
VERTEX
  5
2D8
330
3C
100
AcDbEntity
  8
0
 62
     9
420
 12632256
100
AcDbFaceRecord
 10
0.0
 20
0.0
 30
0.0
 70
   128
 71
     3
 72
    61
 73
    62
  0
VERTEX
  5
2D9
330
3C
100
AcDbEntity
  8
0
 62
     9
420
 12632256
100
AcDbFaceRecord
 10
0.0
 20
0.0
 30
0.0
 70
   128
 71
    60
 72
    90
 73
    61
  0
VERTEX
  5
2DA
330
3C
100
AcDbEntity
  8
0
 62
     9
420
 12632256
100
AcDbFaceRecord
 10
0.0
 20
0.0
 30
0.0
 70
   128
 71
    56
 72
    57
 73
    59
  0
VERTEX
  5
2DB
330
3C
100
AcDbEntity
  8
0
 62
     9
420
 12632256
100
AcDbFaceRecord
 10
0.0
 20
0.0
 30
0.0
 70
   128
 71
    54
 72
    55
 73
    57
  0
VERTEX
  5
2DC
330
3C
100
AcDbEntity
  8
0
 62
     9
420
 12632256
100
AcDbFaceRecord
 10
0.0
 20
0.0
 30
0.0
 70
   128
 71
    52
 72
    53
 73
    55
  0
VERTEX
  5
2DD
330
3C
100
AcDbEntity
  8
0
 62
     9
420
 12632256
100
AcDbFaceRecord
 10
0.0
 20
0.0
 30
0.0
 70
   128
 71
    50
 72
    51
 73
    53
  0
VERTEX
  5
2DE
330
3C
100
AcDbEntity
  8
0
 62
     9
420
 12632256
100
AcDbFaceRecord
 10
0.0
 20
0.0
 30
0.0
 70
   128
 71
    48
 72
    49
 73
    51
  0
VERTEX
  5
2DF
330
3C
100
AcDbEntity
  8
0
 62
     9
420
 12632256
100
AcDbFaceRecord
 10
0.0
 20
0.0
 30
0.0
 70
   128
 71
    46
 72
    47
 73
    49
  0
VERTEX
  5
2E0
330
3C
100
AcDbEntity
  8
0
 62
     9
420
 12632256
100
AcDbFaceRecord
 10
0.0
 20
0.0
 30
0.0
 70
   128
 71
    44
 72
    45
 73
    47
  0
VERTEX
  5
2E1
330
3C
100
AcDbEntity
  8
0
 62
     9
420
 12632256
100
AcDbFaceRecord
 10
0.0
 20
0.0
 30
0.0
 70
   128
 71
    42
 72
    43
 73
    45
  0
VERTEX
  5
2E2
330
3C
100
AcDbEntity
  8
0
 62
     9
420
 12632256
100
AcDbFaceRecord
 10
0.0
 20
0.0
 30
0.0
 70
   128
 71
    40
 72
    41
 73
    43
  0
VERTEX
  5
2E3
330
3C
100
AcDbEntity
  8
0
 62
     9
420
 12632256
100
AcDbFaceRecord
 10
0.0
 20
0.0
 30
0.0
 70
   128
 71
    38
 72
    39
 73
    41
  0
VERTEX
  5
2E4
330
3C
100
AcDbEntity
  8
0
 62
     9
420
 12632256
100
AcDbFaceRecord
 10
0.0
 20
0.0
 30
0.0
 70
   128
 71
    36
 72
    37
 73
    39
  0
VERTEX
  5
2E5
330
3C
100
AcDbEntity
  8
0
 62
     9
420
 12632256
100
AcDbFaceRecord
 10
0.0
 20
0.0
 30
0.0
 70
   128
 71
    34
 72
    35
 73
    37
  0
VERTEX
  5
2E6
330
3C
100
AcDbEntity
  8
0
 62
     9
420
 12632256
100
AcDbFaceRecord
 10
0.0
 20
0.0
 30
0.0
 70
   128
 71
    32
 72
    33
 73
    35
  0
VERTEX
  5
2E7
330
3C
100
AcDbEntity
  8
0
 62
     9
420
 12632256
100
AcDbFaceRecord
 10
0.0
 20
0.0
 30
0.0
 70
   128
 71
    30
 72
    31
 73
    33
  0
VERTEX
  5
2E8
330
3C
100
AcDbEntity
  8
0
 62
     9
420
 12632256
100
AcDbFaceRecord
 10
0.0
 20
0.0
 30
0.0
 70
   128
 71
    28
 72
    29
 73
    31
  0
VERTEX
  5
2E9
330
3C
100
AcDbEntity
  8
0
 62
     9
420
 12632256
100
AcDbFaceRecord
 10
0.0
 20
0.0
 30
0.0
 70
   128
 71
    26
 72
    27
 73
    29
  0
VERTEX
  5
2EA
330
3C
100
AcDbEntity
  8
0
 62
     9
420
 12632256
100
AcDbFaceRecord
 10
0.0
 20
0.0
 30
0.0
 70
   128
 71
    24
 72
    25
 73
    27
  0
VERTEX
  5
2EB
330
3C
100
AcDbEntity
  8
0
 62
     9
420
 12632256
100
AcDbFaceRecord
 10
0.0
 20
0.0
 30
0.0
 70
   128
 71
    22
 72
    23
 73
    25
  0
VERTEX
  5
2EC
330
3C
100
AcDbEntity
  8
0
 62
     9
420
 12632256
100
AcDbFaceRecord
 10
0.0
 20
0.0
 30
0.0
 70
   128
 71
    20
 72
    21
 73
    23
  0
VERTEX
  5
2ED
330
3C
100
AcDbEntity
  8
0
 62
     9
420
 12632256
100
AcDbFaceRecord
 10
0.0
 20
0.0
 30
0.0
 70
   128
 71
    18
 72
    19
 73
    21
  0
VERTEX
  5
2EE
330
3C
100
AcDbEntity
  8
0
 62
     9
420
 12632256
100
AcDbFaceRecord
 10
0.0
 20
0.0
 30
0.0
 70
   128
 71
    16
 72
    17
 73
    19
  0
VERTEX
  5
2EF
330
3C
100
AcDbEntity
  8
0
 62
     9
420
 12632256
100
AcDbFaceRecord
 10
0.0
 20
0.0
 30
0.0
 70
   128
 71
    14
 72
    15
 73
    17
  0
VERTEX
  5
2F0
330
3C
100
AcDbEntity
  8
0
 62
     9
420
 12632256
100
AcDbFaceRecord
 10
0.0
 20
0.0
 30
0.0
 70
   128
 71
    12
 72
    13
 73
    15
  0
VERTEX
  5
2F1
330
3C
100
AcDbEntity
  8
0
 62
     9
420
 12632256
100
AcDbFaceRecord
 10
0.0
 20
0.0
 30
0.0
 70
   128
 71
    10
 72
    11
 73
    13
  0
VERTEX
  5
2F2
330
3C
100
AcDbEntity
  8
0
 62
     9
420
 12632256
100
AcDbFaceRecord
 10
0.0
 20
0.0
 30
0.0
 70
   128
 71
     8
 72
     9
 73
    11
  0
VERTEX
  5
2F3
330
3C
100
AcDbEntity
  8
0
 62
     9
420
 12632256
100
AcDbFaceRecord
 10
0.0
 20
0.0
 30
0.0
 70
   128
 71
     6
 72
     7
 73
     9
  0
VERTEX
  5
2F4
330
3C
100
AcDbEntity
  8
0
 62
     9
420
 12632256
100
AcDbFaceRecord
 10
0.0
 20
0.0
 30
0.0
 70
   128
 71
     4
 72
     5
 73
     7
  0
VERTEX
  5
2F5
330
3C
100
AcDbEntity
  8
0
 62
     9
420
 12632256
100
AcDbFaceRecord
 10
0.0
 20
0.0
 30
0.0
 70
   128
 71
     2
 72
     3
 73
     5
  0
VERTEX
  5
2F6
330
3C
100
AcDbEntity
  8
0
 62
     9
420
 12632256
100
AcDbFaceRecord
 10
0.0
 20
0.0
 30
0.0
 70
   128
 71
     1
 72
    60
 73
     3
  0
SEQEND
  5
2F7
330
3C
100
AcDbEntity
  8
0
 62
     9
420
 12632256
  0
ENDBLK
  5
2FB
330
3B
100
AcDbEntity
  8
0
100
AcDbBlockEnd
  0
BLOCK
  5
31C
330
2FC
100
AcDbEntity
  8
0
100
AcDbBlockBegin
  2
e3_node(1)
 70
     0
 10
0.0
 20
0.0
 30
0.0
  3
e3_node(1)
  1

  0
POLYLINE
  5
2FD
330
2FC
100
AcDbEntity
  8
0
 62
     9
420
 12632256
100
AcDbPolyFaceMesh
 66
     1
 10
0.0
 20
0.0
 30
0.0
 70
    64
 71
    15
 72
    13
  0
VERTEX
  5
2FE
330
2FD
100
AcDbEntity
  8
0
100
AcDbVertex
100
AcDbPolyFaceMeshVertex
 10
0.0
 20
-19.52300071716309
 30
13.76099967956543
 70
   192
  0
VERTEX
  5
2FF
330
2FD
100
AcDbEntity
  8
0
100
AcDbVertex
100
AcDbPolyFaceMeshVertex
 10
0.0
 20
-11.61900043487549
 30
20.86899948120117
 70
   192
  0
VERTEX
  5
300
330
2FD
100
AcDbEntity
  8
0
100
AcDbVertex
100
AcDbPolyFaceMeshVertex
 10
0.0
 20
-1.414000034332275
 30
23.8430004119873
 70
   192
  0
VERTEX
  5
301
330
2FD
100
AcDbEntity
  8
0
100
AcDbVertex
100
AcDbPolyFaceMeshVertex
 10
0.0
 20
9.071999549865723
 30
22.09499931335449
 70
   192
  0
VERTEX
  5
302
330
2FD
100
AcDbEntity
  8
0
100
AcDbVertex
100
AcDbPolyFaceMeshVertex
 10
0.0
 20
-22.93099975585938
 30
-6.684000015258789
 70
   192
  0
VERTEX
  5
303
330
2FD
100
AcDbEntity
  8
0
100
AcDbVertex
100
AcDbPolyFaceMeshVertex
 10
0.0
 20
-23.55999946594238
 30
3.927999973297119
 70
   192
  0
VERTEX
  5
304
330
2FD
100
AcDbEntity
  8
0
100
AcDbVertex
100
AcDbPolyFaceMeshVertex
 10
0.0
 20
1.414000034332275
 30
-23.8430004119873
 70
   192
  0
VERTEX
  5
305
330
2FD
100
AcDbEntity
  8
0
100
AcDbVertex
100
AcDbPolyFaceMeshVertex
 10
0.0
 20
23.55999946594238
 30
-3.927999973297119
 70
   192
  0
VERTEX
  5
306
330
2FD
100
AcDbEntity
  8
0
100
AcDbVertex
100
AcDbPolyFaceMeshVertex
 10
0.0
 20
19.52300071716309
 30
-13.76099967956543
 70
   192
  0
VERTEX
  5
307
330
2FD
100
AcDbEntity
  8
0
100
AcDbVertex
100
AcDbPolyFaceMeshVertex
 10
0.0
 20
17.76000022888184
 30
15.9709997177124
 70
   192
  0
VERTEX
  5
308
330
2FD
100
AcDbEntity
  8
0
100
AcDbVertex
100
AcDbPolyFaceMeshVertex
 10
0.0
 20
22.93099975585938
 30
6.684000015258789
 70
   192
  0
VERTEX
  5
309
330
2FD
100
AcDbEntity
  8
0
100
AcDbVertex
100
AcDbPolyFaceMeshVertex
 10
0.0
 20
-9.071999549865723
 30
-22.09499931335449
 70
   192
  0
VERTEX
  5
30A
330
2FD
100
AcDbEntity
  8
0
100
AcDbVertex
100
AcDbPolyFaceMeshVertex
 10
0.0
 20
-17.76000022888184
 30
-15.9709997177124
 70
   192
  0
VERTEX
  5
30B
330
2FD
100
AcDbEntity
  8
0
100
AcDbVertex
100
AcDbPolyFaceMeshVertex
 10
0.0
 20
0.0
 30
-23.88500022888184
 70
   192
  0
VERTEX
  5
30C
330
2FD
100
AcDbEntity
  8
0
100
AcDbVertex
100
AcDbPolyFaceMeshVertex
 10
0.0
 20
11.61900043487549
 30
-20.86899948120117
 70
   192
  0
VERTEX
  5
30D
330
2FD
100
AcDbEntity
  8
0
 62
     9
420
 12632256
100
AcDbFaceRecord
 10
0.0
 20
0.0
 30
0.0
 70
   128
 71
     3
 72
     2
 73
     1
  0
VERTEX
  5
30E
330
2FD
100
AcDbEntity
  8
0
 62
     9
420
 12632256
100
AcDbFaceRecord
 10
0.0
 20
0.0
 30
0.0
 70
   128
 71
     6
 72
     5
 73
     4
  0
VERTEX
  5
30F
330
2FD
100
AcDbEntity
  8
0
 62
     9
420
 12632256
100
AcDbFaceRecord
 10
0.0
 20
0.0
 30
0.0
 70
   128
 71
     9
 72
     8
 73
     7
  0
VERTEX
  5
310
330
2FD
100
AcDbEntity
  8
0
 62
     9
420
 12632256
100
AcDbFaceRecord
 10
0.0
 20
0.0
 30
0.0
 70
   128
 71
    11
 72
    10
 73
     7
  0
VERTEX
  5
311
330
2FD
100
AcDbEntity
  8
0
 62
     9
420
 12632256
100
AcDbFaceRecord
 10
0.0
 20
0.0
 30
0.0
 70
   128
 71
     4
 72
     1
 73
     6
  0
VERTEX
  5
312
330
2FD
100
AcDbEntity
  8
0
 62
     9
420
 12632256
100
AcDbFaceRecord
 10
0.0
 20
0.0
 30
0.0
 70
   128
 71
    13
 72
    12
 73
     4
  0
VERTEX
  5
313
330
2FD
100
AcDbEntity
  8
0
 62
     9
420
 12632256
100
AcDbFaceRecord
 10
0.0
 20
0.0
 30
0.0
 70
   128
 71
     7
 72
     8
 73
    11
  0
VERTEX
  5
314
330
2FD
100
AcDbEntity
  8
0
 62
     9
420
 12632256
100
AcDbFaceRecord
 10
0.0
 20
0.0
 30
0.0
 70
   128
 71
     4
 72
     5
 73
    13
  0
VERTEX
  5
315
330
2FD
100
AcDbEntity
  8
0
 62
     9
420
 12632256
100
AcDbFaceRecord
 10
0.0
 20
0.0
 30
0.0
 70
   128
 71
    10
 72
     4
 73
     7
  0
VERTEX
  5
316
330
2FD
100
AcDbEntity
  8
0
 62
     9
420
 12632256
100
AcDbFaceRecord
 10
0.0
 20
0.0
 30
0.0
 70
   128
 71
    12
 72
    14
 73
     4
  0
VERTEX
  5
317
330
2FD
100
AcDbEntity
  8
0
 62
     9
420
 12632256
100
AcDbFaceRecord
 10
0.0
 20
0.0
 30
0.0
 70
   128
 71
     7
 72
    15
 73
     9
  0
VERTEX
  5
318
330
2FD
100
AcDbEntity
  8
0
 62
     9
420
 12632256
100
AcDbFaceRecord
 10
0.0
 20
0.0
 30
0.0
 70
   128
 71
     4
 72
    14
 73
     7
  0
VERTEX
  5
319
330
2FD
100
AcDbEntity
  8
0
 62
     9
420
 12632256
100
AcDbFaceRecord
 10
0.0
 20
0.0
 30
0.0
 70
   128
 71
     1
 72
     4
 73
     3
  0
SEQEND
  5
31A
330
2FD
100
AcDbEntity
  8
0
 62
     9
420
 12632256
  0
ENDBLK
  5
31D
330
2FC
100
AcDbEntity
  8
0
100
AcDbBlockEnd
  0
BLOCK
  5
3D4
330
31E
100
AcDbEntity
  8
0
100
AcDbBlockBegin
  2
e3_node(2)
 70
     0
 10
0.0
 20
0.0
 30
0.0
  3
e3_node(2)
  1

  0
POLYLINE
  5
31F
330
31E
100
AcDbEntity
  8
0
 62
     9
420
 12632256
100
AcDbPolyFaceMesh
 66
     1
 10
0.0
 20
0.0
 30
0.0
 70
    64
 71
    89
 72
    89
  0
VERTEX
  5
320
330
31F
100
AcDbEntity
  8
0
100
AcDbVertex
100
AcDbPolyFaceMeshVertex
 10
0.0
 20
19.52300071716309
 30
-13.76099967956543
 70
   192
  0
VERTEX
  5
321
330
31F
100
AcDbEntity
  8
0
100
AcDbVertex
100
AcDbPolyFaceMeshVertex
 10
0.0
 20
23.55999946594238
 30
-3.927999973297119
 70
   192
  0
VERTEX
  5
322
330
31F
100
AcDbEntity
  8
0
100
AcDbVertex
100
AcDbPolyFaceMeshVertex
 10
1.865000009536743
 20
23.05900001525879
 30
-8.163999557495117
 70
   192
  0
VERTEX
  5
323
330
31F
100
AcDbEntity
  8
0
100
AcDbVertex
100
AcDbPolyFaceMeshVertex
 10
1.45799994468689
 20
20.80599975585938
 30
-12.70199966430664
 70
   192
  0
VERTEX
  5
324
330
31F
100
AcDbEntity
  8
0
100
AcDbVertex
100
AcDbPolyFaceMeshVertex
 10
1.922999978065491
 20
24.00600051879883
 30
-4.00600004196167
 70
   192
  0
VERTEX
  5
325
330
31F
100
AcDbEntity
  8
0
100
AcDbVertex
100
AcDbPolyFaceMeshVertex
 10
2.321000099182129
 20
23.69499969482422
 30
-6.348999977111816
 70
   192
  0
VERTEX
  5
326
330
31F
100
AcDbEntity
  8
0
100
AcDbVertex
100
AcDbPolyFaceMeshVertex
 10
2.059999942779541
 20
23.38100051879883
 30
-7.301000118255615
 70
   192
  0
VERTEX
  5
327
330
31F
100
AcDbEntity
  8
0
100
AcDbVertex
100
AcDbPolyFaceMeshVertex
 10
1.496000051498413
 20
20.33200073242188
 30
-13.46300029754639
 70
   192
  0
VERTEX
  5
328
330
31F
100
AcDbEntity
  8
0
100
AcDbVertex
100
AcDbPolyFaceMeshVertex
 10
0.0
 20
11.61900043487549
 30
-20.86899948120117
 70
   192
  0
VERTEX
  5
329
330
31F
100
AcDbEntity
  8
0
100
AcDbVertex
100
AcDbPolyFaceMeshVertex
 10
1.865000009536743
 20
15.88799953460693
 30
-18.60000038146973
 70
   192
  0
VERTEX
  5
32A
330
31F
100
AcDbEntity
  8
0
100
AcDbVertex
100
AcDbPolyFaceMeshVertex
 10
1.615000009536743
 20
19.90099906921387
 30
-14.02400016784668
 70
   192
  0
VERTEX
  5
32B
330
31F
100
AcDbEntity
  8
0
100
AcDbVertex
100
AcDbPolyFaceMeshVertex
 10
2.321000099182129
 20
17.34600067138672
 30
-17.34600067138672
 70
   192
  0
VERTEX
  5
32C
330
31F
100
AcDbEntity
  8
0
100
AcDbVertex
100
AcDbPolyFaceMeshVertex
 10
2.059999942779541
 20
16.59799957275391
 30
-18.01300048828125
 70
   192
  0
VERTEX
  5
32D
330
31F
100
AcDbEntity
  8
0
100
AcDbVertex
100
AcDbPolyFaceMeshVertex
 10
2.059999942779541
 20
5.368000030517578
 30
-23.89900016784668
 70
   192
  0
VERTEX
  5
32E
330
31F
100
AcDbEntity
  8
0
100
AcDbVertex
100
AcDbPolyFaceMeshVertex
 10
1.865000009536743
 20
4.459000110626221
 30
-24.05200004577637
 70
   192
  0
VERTEX
  5
32F
330
31F
100
AcDbEntity
  8
0
100
AcDbVertex
100
AcDbPolyFaceMeshVertex
 10
1.496000051498413
 20
10.8769998550415
 30
-21.82600021362305
 70
   192
  0
VERTEX
  5
330
330
31F
100
AcDbEntity
  8
0
100
AcDbVertex
100
AcDbPolyFaceMeshVertex
 10
2.321000099182129
 20
6.348999977111816
 30
-23.69499969482422
 70
   192
  0
VERTEX
  5
331
330
31F
100
AcDbEntity
  8
0
100
AcDbVertex
100
AcDbPolyFaceMeshVertex
 10
1.45799994468689
 20
11.66699981689453
 30
-21.40299987792969
 70
   192
  0
VERTEX
  5
332
330
31F
100
AcDbEntity
  8
0
100
AcDbVertex
100
AcDbPolyFaceMeshVertex
 10
0.0
 20
1.414000034332275
 30
-23.8430004119873
 70
   192
  0
VERTEX
  5
333
330
31F
100
AcDbEntity
  8
0
100
AcDbVertex
100
AcDbPolyFaceMeshVertex
 10
1.475000023841858
 20
11.84799957275391
 30
-21.28400039672852
 70
   192
  0
VERTEX
  5
334
330
31F
100
AcDbEntity
  8
0
100
AcDbVertex
100
AcDbPolyFaceMeshVertex
 10
0.0
 20
-9.071999549865723
 30
-22.09499931335449
 70
   192
  0
VERTEX
  5
335
330
31F
100
AcDbEntity
  8
0
100
AcDbVertex
100
AcDbPolyFaceMeshVertex
 10
0.0
 20
0.0
 30
-23.88500022888184
 70
   192
  0
VERTEX
  5
336
330
31F
100
AcDbEntity
  8
0
100
AcDbVertex
100
AcDbPolyFaceMeshVertex
 10
1.496000051498413
 20
-1.493000030517578
 30
-24.34000015258789
 70
   192
  0
VERTEX
  5
337
330
31F
100
AcDbEntity
  8
0
100
AcDbVertex
100
AcDbPolyFaceMeshVertex
 10
2.321000099182129
 20
-6.348999977111816
 30
-23.69499969482422
 70
   192
  0
VERTEX
  5
338
330
31F
100
AcDbEntity
  8
0
100
AcDbVertex
100
AcDbPolyFaceMeshVertex
 10
2.059999942779541
 20
-7.301000118255615
 30
-23.38100051879883
 70
   192
  0
VERTEX
  5
339
330
31F
100
AcDbEntity
  8
0
100
AcDbVertex
100
AcDbPolyFaceMeshVertex
 10
1.45799994468689
 20
-0.5979999899864197
 30
-24.3700008392334
 70
   192
  0
VERTEX
  5
33A
330
31F
100
AcDbEntity
  8
0
100
AcDbVertex
100
AcDbPolyFaceMeshVertex
 10
1.865000009536743
 20
-8.163999557495117
 30
-23.05900001525879
 70
   192
  0
VERTEX
  5
33B
330
31F
100
AcDbEntity
  8
0
100
AcDbVertex
100
AcDbPolyFaceMeshVertex
 10
1.621999979019165
 20
1.437000036239624
 30
-24.24200057983398
 70
   192
  0
VERTEX
  5
33C
330
31F
100
AcDbEntity
  8
0
100
AcDbVertex
100
AcDbPolyFaceMeshVertex
 10
0.0
 20
-17.76000022888184
 30
-15.9709997177124
 70
   192
  0
VERTEX
  5
33D
330
31F
100
AcDbEntity
  8
0
100
AcDbVertex
100
AcDbPolyFaceMeshVertex
 10
1.496000051498413
 20
-13.46300029754639
 30
-20.33200073242188
 70
   192
  0
VERTEX
  5
33E
330
31F
100
AcDbEntity
  8
0
100
AcDbVertex
100
AcDbPolyFaceMeshVertex
 10
2.321000099182129
 20
-17.34600067138672
 30
-17.34600067138672
 70
   192
  0
VERTEX
  5
33F
330
31F
100
AcDbEntity
  8
0
100
AcDbVertex
100
AcDbPolyFaceMeshVertex
 10
2.059999942779541
 20
-18.01300048828125
 30
-16.59799957275391
 70
   192
  0
VERTEX
  5
340
330
31F
100
AcDbEntity
  8
0
100
AcDbVertex
100
AcDbPolyFaceMeshVertex
 10
1.45799994468689
 20
-12.70199966430664
 30
-20.80599975585938
 70
   192
  0
VERTEX
  5
341
330
31F
100
AcDbEntity
  8
0
100
AcDbVertex
100
AcDbPolyFaceMeshVertex
 10
1.76800000667572
 20
-9.239999771118164
 30
-22.52499961853027
 70
   192
  0
VERTEX
  5
342
330
31F
100
AcDbEntity
  8
0
100
AcDbVertex
100
AcDbPolyFaceMeshVertex
 10
1.865000009536743
 20
-18.60000038146973
 30
-15.88799953460693
 70
   192
  0
VERTEX
  5
343
330
31F
100
AcDbEntity
  8
0
100
AcDbVertex
100
AcDbPolyFaceMeshVertex
 10
1.45799994468689
 20
-21.40299987792969
 30
-11.66699981689453
 70
   192
  0
VERTEX
  5
344
330
31F
100
AcDbEntity
  8
0
100
AcDbVertex
100
AcDbPolyFaceMeshVertex
 10
0.0
 20
-22.93099975585938
 30
-6.684000015258789
 70
   192
  0
VERTEX
  5
345
330
31F
100
AcDbEntity
  8
0
100
AcDbVertex
100
AcDbPolyFaceMeshVertex
 10
1.496000051498413
 20
-21.82600021362305
 30
-10.8769998550415
 70
   192
  0
VERTEX
  5
346
330
31F
100
AcDbEntity
  8
0
100
AcDbVertex
100
AcDbPolyFaceMeshVertex
 10
1.996999979019165
 20
-18.20199966430664
 30
-16.36899948120117
 70
   192
  0
VERTEX
  5
347
330
31F
100
AcDbEntity
  8
0
100
AcDbVertex
100
AcDbPolyFaceMeshVertex
 10
1.865000009536743
 20
-24.05200004577637
 30
-4.459000110626221
 70
   192
  0
VERTEX
  5
348
330
31F
100
AcDbEntity
  8
0
100
AcDbVertex
100
AcDbPolyFaceMeshVertex
 10
1.45799994468689
 20
-24.3700008392334
 30
0.5979999899864197
 70
   192
  0
VERTEX
  5
349
330
31F
100
AcDbEntity
  8
0
100
AcDbVertex
100
AcDbPolyFaceMeshVertex
 10
0.0
 20
-23.55999946594238
 30
3.927999973297119
 70
   192
  0
VERTEX
  5
34A
330
31F
100
AcDbEntity
  8
0
100
AcDbVertex
100
AcDbPolyFaceMeshVertex
 10
1.496000051498413
 20
-24.34000015258789
 30
1.493000030517578
 70
   192
  0
VERTEX
  5
34B
330
31F
100
AcDbEntity
  8
0
100
AcDbVertex
100
AcDbPolyFaceMeshVertex
 10
2.232000112533569
 20
-23.49200057983398
 30
-6.841000080108643
 70
   192
  0
VERTEX
  5
34C
330
31F
100
AcDbEntity
  8
0
100
AcDbVertex
100
AcDbPolyFaceMeshVertex
 10
2.321000099182129
 20
-23.69499969482422
 30
-6.348999977111816
 70
   192
  0
VERTEX
  5
34D
330
31F
100
AcDbEntity
  8
0
100
AcDbVertex
100
AcDbPolyFaceMeshVertex
 10
2.059999942779541
 20
-23.89900016784668
 30
-5.368000030517578
 70
   192
  0
VERTEX
  5
34E
330
31F
100
AcDbEntity
  8
0
100
AcDbVertex
100
AcDbPolyFaceMeshVertex
 10
0.0
 20
-19.52300071716309
 30
13.76099967956543
 70
   192
  0
VERTEX
  5
34F
330
31F
100
AcDbEntity
  8
0
100
AcDbVertex
100
AcDbPolyFaceMeshVertex
 10
1.865000009536743
 20
-23.05900001525879
 30
8.163999557495117
 70
   192
  0
VERTEX
  5
350
330
31F
100
AcDbEntity
  8
0
100
AcDbVertex
100
AcDbPolyFaceMeshVertex
 10
1.45799994468689
 20
-20.80599975585938
 30
12.70199966430664
 70
   192
  0
VERTEX
  5
351
330
31F
100
AcDbEntity
  8
0
100
AcDbVertex
100
AcDbPolyFaceMeshVertex
 10
1.922999978065491
 20
-24.00600051879883
 30
4.00600004196167
 70
   192
  0
VERTEX
  5
352
330
31F
100
AcDbEntity
  8
0
100
AcDbVertex
100
AcDbPolyFaceMeshVertex
 10
2.321000099182129
 20
-23.69499969482422
 30
6.348999977111816
 70
   192
  0
VERTEX
  5
353
330
31F
100
AcDbEntity
  8
0
100
AcDbVertex
100
AcDbPolyFaceMeshVertex
 10
2.059999942779541
 20
-23.38100051879883
 30
7.301000118255615
 70
   192
  0
VERTEX
  5
354
330
31F
100
AcDbEntity
  8
0
100
AcDbVertex
100
AcDbPolyFaceMeshVertex
 10
1.496000051498413
 20
-20.33200073242188
 30
13.46300029754639
 70
   192
  0
VERTEX
  5
355
330
31F
100
AcDbEntity
  8
0
100
AcDbVertex
100
AcDbPolyFaceMeshVertex
 10
0.0
 20
-11.61900043487549
 30
20.86899948120117
 70
   192
  0
VERTEX
  5
356
330
31F
100
AcDbEntity
  8
0
100
AcDbVertex
100
AcDbPolyFaceMeshVertex
 10
1.865000009536743
 20
-15.88799953460693
 30
18.60000038146973
 70
   192
  0
VERTEX
  5
357
330
31F
100
AcDbEntity
  8
0
100
AcDbVertex
100
AcDbPolyFaceMeshVertex
 10
1.615000009536743
 20
-19.90099906921387
 30
14.02400016784668
 70
   192
  0
VERTEX
  5
358
330
31F
100
AcDbEntity
  8
0
100
AcDbVertex
100
AcDbPolyFaceMeshVertex
 10
2.321000099182129
 20
-17.34600067138672
 30
17.34600067138672
 70
   192
  0
VERTEX
  5
359
330
31F
100
AcDbEntity
  8
0
100
AcDbVertex
100
AcDbPolyFaceMeshVertex
 10
2.059999942779541
 20
-16.59799957275391
 30
18.01300048828125
 70
   192
  0
VERTEX
  5
35A
330
31F
100
AcDbEntity
  8
0
100
AcDbVertex
100
AcDbPolyFaceMeshVertex
 10
2.059999942779541
 20
-5.368000030517578
 30
23.89900016784668
 70
   192
  0
VERTEX
  5
35B
330
31F
100
AcDbEntity
  8
0
100
AcDbVertex
100
AcDbPolyFaceMeshVertex
 10
1.865000009536743
 20
-4.459000110626221
 30
24.05200004577637
 70
   192
  0
VERTEX
  5
35C
330
31F
100
AcDbEntity
  8
0
100
AcDbVertex
100
AcDbPolyFaceMeshVertex
 10
1.496000051498413
 20
-10.8769998550415
 30
21.82600021362305
 70
   192
  0
VERTEX
  5
35D
330
31F
100
AcDbEntity
  8
0
100
AcDbVertex
100
AcDbPolyFaceMeshVertex
 10
2.321000099182129
 20
-6.348999977111816
 30
23.69499969482422
 70
   192
  0
VERTEX
  5
35E
330
31F
100
AcDbEntity
  8
0
100
AcDbVertex
100
AcDbPolyFaceMeshVertex
 10
1.45799994468689
 20
-11.66699981689453
 30
21.40299987792969
 70
   192
  0
VERTEX
  5
35F
330
31F
100
AcDbEntity
  8
0
100
AcDbVertex
100
AcDbPolyFaceMeshVertex
 10
0.0
 20
-1.414000034332275
 30
23.8430004119873
 70
   192
  0
VERTEX
  5
360
330
31F
100
AcDbEntity
  8
0
100
AcDbVertex
100
AcDbPolyFaceMeshVertex
 10
1.475000023841858
 20
-11.84799957275391
 30
21.28400039672852
 70
   192
  0
VERTEX
  5
361
330
31F
100
AcDbEntity
  8
0
100
AcDbVertex
100
AcDbPolyFaceMeshVertex
 10
0.0
 20
9.071999549865723
 30
22.09499931335449
 70
   192
  0
VERTEX
  5
362
330
31F
100
AcDbEntity
  8
0
100
AcDbVertex
100
AcDbPolyFaceMeshVertex
 10
1.496000051498413
 20
1.493000030517578
 30
24.34000015258789
 70
   192
  0
VERTEX
  5
363
330
31F
100
AcDbEntity
  8
0
100
AcDbVertex
100
AcDbPolyFaceMeshVertex
 10
2.321000099182129
 20
6.348999977111816
 30
23.69499969482422
 70
   192
  0
VERTEX
  5
364
330
31F
100
AcDbEntity
  8
0
100
AcDbVertex
100
AcDbPolyFaceMeshVertex
 10
2.059999942779541
 20
7.301000118255615
 30
23.38100051879883
 70
   192
  0
VERTEX
  5
365
330
31F
100
AcDbEntity
  8
0
100
AcDbVertex
100
AcDbPolyFaceMeshVertex
 10
1.45799994468689
 20
0.5979999899864197
 30
24.3700008392334
 70
   192
  0
VERTEX
  5
366
330
31F
100
AcDbEntity
  8
0
100
AcDbVertex
100
AcDbPolyFaceMeshVertex
 10
1.865000009536743
 20
8.163999557495117
 30
23.05900001525879
 70
   192
  0
VERTEX
  5
367
330
31F
100
AcDbEntity
  8
0
100
AcDbVertex
100
AcDbPolyFaceMeshVertex
 10
1.621999979019165
 20
-1.437000036239624
 30
24.24200057983398
 70
   192
  0
VERTEX
  5
368
330
31F
100
AcDbEntity
  8
0
100
AcDbVertex
100
AcDbPolyFaceMeshVertex
 10
0.0
 20
17.76000022888184
 30
15.9709997177124
 70
   192
  0
VERTEX
  5
369
330
31F
100
AcDbEntity
  8
0
100
AcDbVertex
100
AcDbPolyFaceMeshVertex
 10
1.496000051498413
 20
13.46300029754639
 30
20.33200073242188
 70
   192
  0
VERTEX
  5
36A
330
31F
100
AcDbEntity
  8
0
100
AcDbVertex
100
AcDbPolyFaceMeshVertex
 10
2.321000099182129
 20
17.34600067138672
 30
17.34600067138672
 70
   192
  0
VERTEX
  5
36B
330
31F
100
AcDbEntity
  8
0
100
AcDbVertex
100
AcDbPolyFaceMeshVertex
 10
2.059999942779541
 20
18.01300048828125
 30
16.59799957275391
 70
   192
  0
VERTEX
  5
36C
330
31F
100
AcDbEntity
  8
0
100
AcDbVertex
100
AcDbPolyFaceMeshVertex
 10
1.45799994468689
 20
12.70199966430664
 30
20.80599975585938
 70
   192
  0
VERTEX
  5
36D
330
31F
100
AcDbEntity
  8
0
100
AcDbVertex
100
AcDbPolyFaceMeshVertex
 10
1.76800000667572
 20
9.239999771118164
 30
22.52499961853027
 70
   192
  0
VERTEX
  5
36E
330
31F
100
AcDbEntity
  8
0
100
AcDbVertex
100
AcDbPolyFaceMeshVertex
 10
1.865000009536743
 20
18.60000038146973
 30
15.88799953460693
 70
   192
  0
VERTEX
  5
36F
330
31F
100
AcDbEntity
  8
0
100
AcDbVertex
100
AcDbPolyFaceMeshVertex
 10
1.45799994468689
 20
21.40299987792969
 30
11.66699981689453
 70
   192
  0
VERTEX
  5
370
330
31F
100
AcDbEntity
  8
0
100
AcDbVertex
100
AcDbPolyFaceMeshVertex
 10
0.0
 20
22.93099975585938
 30
6.684000015258789
 70
   192
  0
VERTEX
  5
371
330
31F
100
AcDbEntity
  8
0
100
AcDbVertex
100
AcDbPolyFaceMeshVertex
 10
1.496000051498413
 20
21.82600021362305
 30
10.8769998550415
 70
   192
  0
VERTEX
  5
372
330
31F
100
AcDbEntity
  8
0
100
AcDbVertex
100
AcDbPolyFaceMeshVertex
 10
1.996999979019165
 20
18.20199966430664
 30
16.36899948120117
 70
   192
  0
VERTEX
  5
373
330
31F
100
AcDbEntity
  8
0
100
AcDbVertex
100
AcDbPolyFaceMeshVertex
 10
1.865000009536743
 20
24.05200004577637
 30
4.459000110626221
 70
   192
  0
VERTEX
  5
374
330
31F
100
AcDbEntity
  8
0
100
AcDbVertex
100
AcDbPolyFaceMeshVertex
 10
1.45799994468689
 20
24.3700008392334
 30
-0.5979999899864197
 70
   192
  0
VERTEX
  5
375
330
31F
100
AcDbEntity
  8
0
100
AcDbVertex
100
AcDbPolyFaceMeshVertex
 10
1.496000051498413
 20
24.34000015258789
 30
-1.493000030517578
 70
   192
  0
VERTEX
  5
376
330
31F
100
AcDbEntity
  8
0
100
AcDbVertex
100
AcDbPolyFaceMeshVertex
 10
2.232000112533569
 20
23.49200057983398
 30
6.841000080108643
 70
   192
  0
VERTEX
  5
377
330
31F
100
AcDbEntity
  8
0
100
AcDbVertex
100
AcDbPolyFaceMeshVertex
 10
2.321000099182129
 20
23.69499969482422
 30
6.348999977111816
 70
   192
  0
VERTEX
  5
378
330
31F
100
AcDbEntity
  8
0
100
AcDbVertex
100
AcDbPolyFaceMeshVertex
 10
2.059999942779541
 20
23.89900016784668
 30
5.368000030517578
 70
   192
  0
VERTEX
  5
379
330
31F
100
AcDbEntity
  8
0
 62
     9
420
 12632256
100
AcDbFaceRecord
 10
0.0
 20
0.0
 30
0.0
 70
   128
 71
     3
 72
     2
 73
     1
  0
VERTEX
  5
37A
330
31F
100
AcDbEntity
  8
0
 62
     9
420
 12632256
100
AcDbFaceRecord
 10
0.0
 20
0.0
 30
0.0
 70
   128
 71
     1
 72
     4
 73
     3
  0
VERTEX
  5
37B
330
31F
100
AcDbEntity
  8
0
 62
     9
420
 12632256
100
AcDbFaceRecord
 10
0.0
 20
0.0
 30
0.0
 70
   128
 71
     6
 72
     5
 73
     2
  0
VERTEX
  5
37C
330
31F
100
AcDbEntity
  8
0
 62
     9
420
 12632256
100
AcDbFaceRecord
 10
0.0
 20
0.0
 30
0.0
 70
   128
 71
     2
 72
     7
 73
     6
  0
VERTEX
  5
37D
330
31F
100
AcDbEntity
  8
0
 62
     9
420
 12632256
100
AcDbFaceRecord
 10
0.0
 20
0.0
 30
0.0
 70
   128
 71
     2
 72
     3
 73
     7
  0
VERTEX
  5
37E
330
31F
100
AcDbEntity
  8
0
 62
     9
420
 12632256
100
AcDbFaceRecord
 10
0.0
 20
0.0
 30
0.0
 70
   128
 71
     1
 72
     8
 73
     4
  0
VERTEX
  5
37F
330
31F
100
AcDbEntity
  8
0
 62
     9
420
 12632256
100
AcDbFaceRecord
 10
0.0
 20
0.0
 30
0.0
 70
   128
 71
    10
 72
     1
 73
     9
  0
VERTEX
  5
380
330
31F
100
AcDbEntity
  8
0
 62
     9
420
 12632256
100
AcDbFaceRecord
 10
0.0
 20
0.0
 30
0.0
 70
   128
 71
    12
 72
    11
 73
     1
  0
VERTEX
  5
381
330
31F
100
AcDbEntity
  8
0
 62
     9
420
 12632256
100
AcDbFaceRecord
 10
0.0
 20
0.0
 30
0.0
 70
   128
 71
     1
 72
    13
 73
    12
  0
VERTEX
  5
382
330
31F
100
AcDbEntity
  8
0
 62
     9
420
 12632256
100
AcDbFaceRecord
 10
0.0
 20
0.0
 30
0.0
 70
   128
 71
     1
 72
    10
 73
    13
  0
VERTEX
  5
383
330
31F
100
AcDbEntity
  8
0
 62
     9
420
 12632256
100
AcDbFaceRecord
 10
0.0
 20
0.0
 30
0.0
 70
   128
 71
    15
 72
    14
 73
     9
  0
VERTEX
  5
384
330
31F
100
AcDbEntity
  8
0
 62
     9
420
 12632256
100
AcDbFaceRecord
 10
0.0
 20
0.0
 30
0.0
 70
   128
 71
    17
 72
    16
 73
     9
  0
VERTEX
  5
385
330
31F
100
AcDbEntity
  8
0
 62
     9
420
 12632256
100
AcDbFaceRecord
 10
0.0
 20
0.0
 30
0.0
 70
   128
 71
     9
 72
    14
 73
    17
  0
VERTEX
  5
386
330
31F
100
AcDbEntity
  8
0
 62
     9
420
 12632256
100
AcDbFaceRecord
 10
0.0
 20
0.0
 30
0.0
 70
   128
 71
    16
 72
    18
 73
     9
  0
VERTEX
  5
387
330
31F
100
AcDbEntity
  8
0
 62
     9
420
 12632256
100
AcDbFaceRecord
 10
0.0
 20
0.0
 30
0.0
 70
   128
 71
     9
 72
    19
 73
    15
  0
VERTEX
  5
388
330
31F
100
AcDbEntity
  8
0
 62
     9
420
 12632256
100
AcDbFaceRecord
 10
0.0
 20
0.0
 30
0.0
 70
   128
 71
    18
 72
    20
 73
     9
  0
VERTEX
  5
389
330
31F
100
AcDbEntity
  8
0
 62
     9
420
 12632256
100
AcDbFaceRecord
 10
0.0
 20
0.0
 30
0.0
 70
   128
 71
    23
 72
    22
 73
    21
  0
VERTEX
  5
38A
330
31F
100
AcDbEntity
  8
0
 62
     9
420
 12632256
100
AcDbFaceRecord
 10
0.0
 20
0.0
 30
0.0
 70
   128
 71
    21
 72
    24
 73
    23
  0
VERTEX
  5
38B
330
31F
100
AcDbEntity
  8
0
 62
     9
420
 12632256
100
AcDbFaceRecord
 10
0.0
 20
0.0
 30
0.0
 70
   128
 71
    21
 72
    25
 73
    24
  0
VERTEX
  5
38C
330
31F
100
AcDbEntity
  8
0
 62
     9
420
 12632256
100
AcDbFaceRecord
 10
0.0
 20
0.0
 30
0.0
 70
   128
 71
    23
 72
    26
 73
    22
  0
VERTEX
  5
38D
330
31F
100
AcDbEntity
  8
0
 62
     9
420
 12632256
100
AcDbFaceRecord
 10
0.0
 20
0.0
 30
0.0
 70
   128
 71
    21
 72
    27
 73
    25
  0
VERTEX
  5
38E
330
31F
100
AcDbEntity
  8
0
 62
     9
420
 12632256
100
AcDbFaceRecord
 10
0.0
 20
0.0
 30
0.0
 70
   128
 71
    22
 72
    26
 73
    28
  0
VERTEX
  5
38F
330
31F
100
AcDbEntity
  8
0
 62
     9
420
 12632256
100
AcDbFaceRecord
 10
0.0
 20
0.0
 30
0.0
 70
   128
 71
    28
 72
    19
 73
    22
  0
VERTEX
  5
390
330
31F
100
AcDbEntity
  8
0
 62
     9
420
 12632256
100
AcDbFaceRecord
 10
0.0
 20
0.0
 30
0.0
 70
   128
 71
    31
 72
    30
 73
    29
  0
VERTEX
  5
391
330
31F
100
AcDbEntity
  8
0
 62
     9
420
 12632256
100
AcDbFaceRecord
 10
0.0
 20
0.0
 30
0.0
 70
   128
 71
    29
 72
    32
 73
    31
  0
VERTEX
  5
392
330
31F
100
AcDbEntity
  8
0
 62
     9
420
 12632256
100
AcDbFaceRecord
 10
0.0
 20
0.0
 30
0.0
 70
   128
 71
    30
 72
    33
 73
    21
  0
VERTEX
  5
393
330
31F
100
AcDbEntity
  8
0
 62
     9
420
 12632256
100
AcDbFaceRecord
 10
0.0
 20
0.0
 30
0.0
 70
   128
 71
    33
 72
    34
 73
    21
  0
VERTEX
  5
394
330
31F
100
AcDbEntity
  8
0
 62
     9
420
 12632256
100
AcDbFaceRecord
 10
0.0
 20
0.0
 30
0.0
 70
   128
 71
    21
 72
    29
 73
    30
  0
VERTEX
  5
395
330
31F
100
AcDbEntity
  8
0
 62
     9
420
 12632256
100
AcDbFaceRecord
 10
0.0
 20
0.0
 30
0.0
 70
   128
 71
    36
 72
    35
 73
    29
  0
VERTEX
  5
396
330
31F
100
AcDbEntity
  8
0
 62
     9
420
 12632256
100
AcDbFaceRecord
 10
0.0
 20
0.0
 30
0.0
 70
   128
 71
    29
 72
    37
 73
    36
  0
VERTEX
  5
397
330
31F
100
AcDbEntity
  8
0
 62
     9
420
 12632256
100
AcDbFaceRecord
 10
0.0
 20
0.0
 30
0.0
 70
   128
 71
    37
 72
    38
 73
    36
  0
VERTEX
  5
398
330
31F
100
AcDbEntity
  8
0
 62
     9
420
 12632256
100
AcDbFaceRecord
 10
0.0
 20
0.0
 30
0.0
 70
   128
 71
    35
 72
    39
 73
    29
  0
VERTEX
  5
399
330
31F
100
AcDbEntity
  8
0
 62
     9
420
 12632256
100
AcDbFaceRecord
 10
0.0
 20
0.0
 30
0.0
 70
   128
 71
    41
 72
    40
 73
    37
  0
VERTEX
  5
39A
330
31F
100
AcDbEntity
  8
0
 62
     9
420
 12632256
100
AcDbFaceRecord
 10
0.0
 20
0.0
 30
0.0
 70
   128
 71
    37
 72
    42
 73
    41
  0
VERTEX
  5
39B
330
31F
100
AcDbEntity
  8
0
 62
     9
420
 12632256
100
AcDbFaceRecord
 10
0.0
 20
0.0
 30
0.0
 70
   128
 71
    42
 72
    43
 73
    41
  0
VERTEX
  5
39C
330
31F
100
AcDbEntity
  8
0
 62
     9
420
 12632256
100
AcDbFaceRecord
 10
0.0
 20
0.0
 30
0.0
 70
   128
 71
    45
 72
    44
 73
    37
  0
VERTEX
  5
39D
330
31F
100
AcDbEntity
  8
0
 62
     9
420
 12632256
100
AcDbFaceRecord
 10
0.0
 20
0.0
 30
0.0
 70
   128
 71
    37
 72
    46
 73
    45
  0
VERTEX
  5
39E
330
31F
100
AcDbEntity
  8
0
 62
     9
420
 12632256
100
AcDbFaceRecord
 10
0.0
 20
0.0
 30
0.0
 70
   128
 71
    37
 72
    40
 73
    46
  0
VERTEX
  5
39F
330
31F
100
AcDbEntity
  8
0
 62
     9
420
 12632256
100
AcDbFaceRecord
 10
0.0
 20
0.0
 30
0.0
 70
   128
 71
    48
 72
    42
 73
    47
  0
VERTEX
  5
3A0
330
31F
100
AcDbEntity
  8
0
 62
     9
420
 12632256
100
AcDbFaceRecord
 10
0.0
 20
0.0
 30
0.0
 70
   128
 71
    47
 72
    49
 73
    48
  0
VERTEX
  5
3A1
330
31F
100
AcDbEntity
  8
0
 62
     9
420
 12632256
100
AcDbFaceRecord
 10
0.0
 20
0.0
 30
0.0
 70
   128
 71
    51
 72
    50
 73
    42
  0
VERTEX
  5
3A2
330
31F
100
AcDbEntity
  8
0
 62
     9
420
 12632256
100
AcDbFaceRecord
 10
0.0
 20
0.0
 30
0.0
 70
   128
 71
    42
 72
    52
 73
    51
  0
VERTEX
  5
3A3
330
31F
100
AcDbEntity
  8
0
 62
     9
420
 12632256
100
AcDbFaceRecord
 10
0.0
 20
0.0
 30
0.0
 70
   128
 71
    42
 72
    48
 73
    52
  0
VERTEX
  5
3A4
330
31F
100
AcDbEntity
  8
0
 62
     9
420
 12632256
100
AcDbFaceRecord
 10
0.0
 20
0.0
 30
0.0
 70
   128
 71
    47
 72
    53
 73
    49
  0
VERTEX
  5
3A5
330
31F
100
AcDbEntity
  8
0
 62
     9
420
 12632256
100
AcDbFaceRecord
 10
0.0
 20
0.0
 30
0.0
 70
   128
 71
    55
 72
    47
 73
    54
  0
VERTEX
  5
3A6
330
31F
100
AcDbEntity
  8
0
 62
     9
420
 12632256
100
AcDbFaceRecord
 10
0.0
 20
0.0
 30
0.0
 70
   128
 71
    57
 72
    56
 73
    47
  0
VERTEX
  5
3A7
330
31F
100
AcDbEntity
  8
0
 62
     9
420
 12632256
100
AcDbFaceRecord
 10
0.0
 20
0.0
 30
0.0
 70
   128
 71
    47
 72
    58
 73
    57
  0
VERTEX
  5
3A8
330
31F
100
AcDbEntity
  8
0
 62
     9
420
 12632256
100
AcDbFaceRecord
 10
0.0
 20
0.0
 30
0.0
 70
   128
 71
    47
 72
    55
 73
    58
  0
VERTEX
  5
3A9
330
31F
100
AcDbEntity
  8
0
 62
     9
420
 12632256
100
AcDbFaceRecord
 10
0.0
 20
0.0
 30
0.0
 70
   128
 71
    60
 72
    59
 73
    54
  0
VERTEX
  5
3AA
330
31F
100
AcDbEntity
  8
0
 62
     9
420
 12632256
100
AcDbFaceRecord
 10
0.0
 20
0.0
 30
0.0
 70
   128
 71
    62
 72
    61
 73
    54
  0
VERTEX
  5
3AB
330
31F
100
AcDbEntity
  8
0
 62
     9
420
 12632256
100
AcDbFaceRecord
 10
0.0
 20
0.0
 30
0.0
 70
   128
 71
    54
 72
    59
 73
    62
  0
VERTEX
  5
3AC
330
31F
100
AcDbEntity
  8
0
 62
     9
420
 12632256
100
AcDbFaceRecord
 10
0.0
 20
0.0
 30
0.0
 70
   128
 71
    61
 72
    63
 73
    54
  0
VERTEX
  5
3AD
330
31F
100
AcDbEntity
  8
0
 62
     9
420
 12632256
100
AcDbFaceRecord
 10
0.0
 20
0.0
 30
0.0
 70
   128
 71
    54
 72
    64
 73
    60
  0
VERTEX
  5
3AE
330
31F
100
AcDbEntity
  8
0
 62
     9
420
 12632256
100
AcDbFaceRecord
 10
0.0
 20
0.0
 30
0.0
 70
   128
 71
    63
 72
    65
 73
    54
  0
VERTEX
  5
3AF
330
31F
100
AcDbEntity
  8
0
 62
     9
420
 12632256
100
AcDbFaceRecord
 10
0.0
 20
0.0
 30
0.0
 70
   128
 71
    68
 72
    67
 73
    66
  0
VERTEX
  5
3B0
330
31F
100
AcDbEntity
  8
0
 62
     9
420
 12632256
100
AcDbFaceRecord
 10
0.0
 20
0.0
 30
0.0
 70
   128
 71
    67
 72
    64
 73
    66
  0
VERTEX
  5
3B1
330
31F
100
AcDbEntity
  8
0
 62
     9
420
 12632256
100
AcDbFaceRecord
 10
0.0
 20
0.0
 30
0.0
 70
   128
 71
    66
 72
    69
 73
    68
  0
VERTEX
  5
3B2
330
31F
100
AcDbEntity
  8
0
 62
     9
420
 12632256
100
AcDbFaceRecord
 10
0.0
 20
0.0
 30
0.0
 70
   128
 71
    67
 72
    70
 73
    64
  0
VERTEX
  5
3B3
330
31F
100
AcDbEntity
  8
0
 62
     9
420
 12632256
100
AcDbFaceRecord
 10
0.0
 20
0.0
 30
0.0
 70
   128
 71
    66
 72
    71
 73
    69
  0
VERTEX
  5
3B4
330
31F
100
AcDbEntity
  8
0
 62
     9
420
 12632256
100
AcDbFaceRecord
 10
0.0
 20
0.0
 30
0.0
 70
   128
 71
    70
 72
    72
 73
    64
  0
VERTEX
  5
3B5
330
31F
100
AcDbEntity
  8
0
 62
     9
420
 12632256
100
AcDbFaceRecord
 10
0.0
 20
0.0
 30
0.0
 70
   128
 71
    75
 72
    74
 73
    73
  0
VERTEX
  5
3B6
330
31F
100
AcDbEntity
  8
0
 62
     9
420
 12632256
100
AcDbFaceRecord
 10
0.0
 20
0.0
 30
0.0
 70
   128
 71
    73
 72
    76
 73
    75
  0
VERTEX
  5
3B7
330
31F
100
AcDbEntity
  8
0
 62
     9
420
 12632256
100
AcDbFaceRecord
 10
0.0
 20
0.0
 30
0.0
 70
   128
 71
    74
 72
    77
 73
    66
  0
VERTEX
  5
3B8
330
31F
100
AcDbEntity
  8
0
 62
     9
420
 12632256
100
AcDbFaceRecord
 10
0.0
 20
0.0
 30
0.0
 70
   128
 71
    77
 72
    78
 73
    66
  0
VERTEX
  5
3B9
330
31F
100
AcDbEntity
  8
0
 62
     9
420
 12632256
100
AcDbFaceRecord
 10
0.0
 20
0.0
 30
0.0
 70
   128
 71
    66
 72
    73
 73
    74
  0
VERTEX
  5
3BA
330
31F
100
AcDbEntity
  8
0
 62
     9
420
 12632256
100
AcDbFaceRecord
 10
0.0
 20
0.0
 30
0.0
 70
   128
 71
    80
 72
    79
 73
    73
  0
VERTEX
  5
3BB
330
31F
100
AcDbEntity
  8
0
 62
     9
420
 12632256
100
AcDbFaceRecord
 10
0.0
 20
0.0
 30
0.0
 70
   128
 71
    73
 72
    81
 73
    80
  0
VERTEX
  5
3BC
330
31F
100
AcDbEntity
  8
0
 62
     9
420
 12632256
100
AcDbFaceRecord
 10
0.0
 20
0.0
 30
0.0
 70
   128
 71
    81
 72
    82
 73
    80
  0
VERTEX
  5
3BD
330
31F
100
AcDbEntity
  8
0
 62
     9
420
 12632256
100
AcDbFaceRecord
 10
0.0
 20
0.0
 30
0.0
 70
   128
 71
    79
 72
    83
 73
    73
  0
VERTEX
  5
3BE
330
31F
100
AcDbEntity
  8
0
 62
     9
420
 12632256
100
AcDbFaceRecord
 10
0.0
 20
0.0
 30
0.0
 70
   128
 71
    85
 72
    84
 73
    81
  0
VERTEX
  5
3BF
330
31F
100
AcDbEntity
  8
0
 62
     9
420
 12632256
100
AcDbFaceRecord
 10
0.0
 20
0.0
 30
0.0
 70
   128
 71
    81
 72
     2
 73
    85
  0
VERTEX
  5
3C0
330
31F
100
AcDbEntity
  8
0
 62
     9
420
 12632256
100
AcDbFaceRecord
 10
0.0
 20
0.0
 30
0.0
 70
   128
 71
     2
 72
    86
 73
    85
  0
VERTEX
  5
3C1
330
31F
100
AcDbEntity
  8
0
 62
     9
420
 12632256
100
AcDbFaceRecord
 10
0.0
 20
0.0
 30
0.0
 70
   128
 71
    88
 72
    87
 73
    81
  0
VERTEX
  5
3C2
330
31F
100
AcDbEntity
  8
0
 62
     9
420
 12632256
100
AcDbFaceRecord
 10
0.0
 20
0.0
 30
0.0
 70
   128
 71
    81
 72
    89
 73
    88
  0
VERTEX
  5
3C3
330
31F
100
AcDbEntity
  8
0
 62
     9
420
 12632256
100
AcDbFaceRecord
 10
0.0
 20
0.0
 30
0.0
 70
   128
 71
    81
 72
    84
 73
    89
  0
VERTEX
  5
3C4
330
31F
100
AcDbEntity
  8
0
 62
     9
420
 12632256
100
AcDbFaceRecord
 10
0.0
 20
0.0
 30
0.0
 70
   128
 71
     2
 72
     5
 73
    86
  0
VERTEX
  5
3C5
330
31F
100
AcDbEntity
  8
0
 62
     9
420
 12632256
100
AcDbFaceRecord
 10
0.0
 20
0.0
 30
0.0
 70
   128
 71
    81
 72
    87
 73
    82
  0
VERTEX
  5
3C6
330
31F
100
AcDbEntity
  8
0
 62
     9
420
 12632256
100
AcDbFaceRecord
 10
0.0
 20
0.0
 30
0.0
 70
   128
 71
    73
 72
    83
 73
    76
  0
VERTEX
  5
3C7
330
31F
100
AcDbEntity
  8
0
 62
     9
420
 12632256
100
AcDbFaceRecord
 10
0.0
 20
0.0
 30
0.0
 70
   128
 71
    66
 72
    78
 73
    71
  0
VERTEX
  5
3C8
330
31F
100
AcDbEntity
  8
0
 62
     9
420
 12632256
100
AcDbFaceRecord
 10
0.0
 20
0.0
 30
0.0
 70
   128
 71
    64
 72
    72
 73
    60
  0
VERTEX
  5
3C9
330
31F
100
AcDbEntity
  8
0
 62
     9
420
 12632256
100
AcDbFaceRecord
 10
0.0
 20
0.0
 30
0.0
 70
   128
 71
    54
 72
    65
 73
    55
  0
VERTEX
  5
3CA
330
31F
100
AcDbEntity
  8
0
 62
     9
420
 12632256
100
AcDbFaceRecord
 10
0.0
 20
0.0
 30
0.0
 70
   128
 71
    47
 72
    56
 73
    53
  0
VERTEX
  5
3CB
330
31F
100
AcDbEntity
  8
0
 62
     9
420
 12632256
100
AcDbFaceRecord
 10
0.0
 20
0.0
 30
0.0
 70
   128
 71
    42
 72
    50
 73
    43
  0
VERTEX
  5
3CC
330
31F
100
AcDbEntity
  8
0
 62
     9
420
 12632256
100
AcDbFaceRecord
 10
0.0
 20
0.0
 30
0.0
 70
   128
 71
    37
 72
    44
 73
    38
  0
VERTEX
  5
3CD
330
31F
100
AcDbEntity
  8
0
 62
     9
420
 12632256
100
AcDbFaceRecord
 10
0.0
 20
0.0
 30
0.0
 70
   128
 71
    29
 72
    39
 73
    32
  0
VERTEX
  5
3CE
330
31F
100
AcDbEntity
  8
0
 62
     9
420
 12632256
100
AcDbFaceRecord
 10
0.0
 20
0.0
 30
0.0
 70
   128
 71
    21
 72
    34
 73
    27
  0
VERTEX
  5
3CF
330
31F
100
AcDbEntity
  8
0
 62
     9
420
 12632256
100
AcDbFaceRecord
 10
0.0
 20
0.0
 30
0.0
 70
   128
 71
    19
 72
    28
 73
    15
  0
VERTEX
  5
3D0
330
31F
100
AcDbEntity
  8
0
 62
     9
420
 12632256
100
AcDbFaceRecord
 10
0.0
 20
0.0
 30
0.0
 70
   128
 71
     9
 72
    20
 73
    10
  0
VERTEX
  5
3D1
330
31F
100
AcDbEntity
  8
0
 62
     9
420
 12632256
100
AcDbFaceRecord
 10
0.0
 20
0.0
 30
0.0
 70
   128
 71
     1
 72
    11
 73
     8
  0
SEQEND
  5
3D2
330
31F
100
AcDbEntity
  8
0
 62
     9
420
 12632256
  0
ENDBLK
  5
3D5
330
31E
100
AcDbEntity
  8
0
100
AcDbBlockEnd
  0
BLOCK
  5
3EA
330
3D6
100
AcDbEntity
  8
0
100
AcDbBlockBegin
  2
e3_node(3)
 70
     0
 10
0.0
 20
0.0
 30
0.0
  3
e3_node(3)
  1

  0
POLYLINE
  5
3D7
330
3D6
100
AcDbEntity
  8
0
 62
     9
420
 12632256
100
AcDbPolyFaceMesh
 66
     1
 10
0.0
 20
0.0
 30
0.0
 70
    64
 71
     9
 72
     7
  0
VERTEX
  5
3D8
330
3D7
100
AcDbEntity
  8
0
100
AcDbVertex
100
AcDbPolyFaceMeshVertex
 10
9.0
 20
4.951000213623047
 30
18.47699928283691
 70
   192
  0
VERTEX
  5
3D9
330
3D7
100
AcDbEntity
  8
0
100
AcDbVertex
100
AcDbPolyFaceMeshVertex
 10
1.76800000667572
 20
9.239999771118164
 30
22.52499961853027
 70
   192
  0
VERTEX
  5
3DA
330
3D7
100
AcDbEntity
  8
0
100
AcDbVertex
100
AcDbPolyFaceMeshVertex
 10
1.865000009536743
 20
8.163999557495117
 30
23.05900001525879
 70
   192
  0
VERTEX
  5
3DB
330
3D7
100
AcDbEntity
  8
0
100
AcDbVertex
100
AcDbPolyFaceMeshVertex
 10
9.0
 20
13.52600002288818
 30
13.52600002288818
 70
   192
  0
VERTEX
  5
3DC
330
3D7
100
AcDbEntity
  8
0
100
AcDbVertex
100
AcDbPolyFaceMeshVertex
 10
1.45799994468689
 20
12.70199966430664
 30
20.80599975585938
 70
   192
  0
VERTEX
  5
3DD
330
3D7
100
AcDbEntity
  8
0
100
AcDbVertex
100
AcDbPolyFaceMeshVertex
 10
2.321000099182129
 20
17.34600067138672
 30
17.34600067138672
 70
   192
  0
VERTEX
  5
3DE
330
3D7
100
AcDbEntity
  8
0
100
AcDbVertex
100
AcDbPolyFaceMeshVertex
 10
1.496000051498413
 20
13.46300029754639
 30
20.33200073242188
 70
   192
  0
VERTEX
  5
3DF
330
3D7
100
AcDbEntity
  8
0
100
AcDbVertex
100
AcDbPolyFaceMeshVertex
 10
2.059999942779541
 20
7.301000118255615
 30
23.38100051879883
 70
   192
  0
VERTEX
  5
3E0
330
3D7
100
AcDbEntity
  8
0
100
AcDbVertex
100
AcDbPolyFaceMeshVertex
 10
2.321000099182129
 20
6.348999977111816
 30
23.69499969482422
 70
   192
  0
VERTEX
  5
3E1
330
3D7
100
AcDbEntity
  8
0
 62
     9
420
 12632256
100
AcDbFaceRecord
 10
0.0
 20
0.0
 30
0.0
 70
   128
 71
     3
 72
     2
 73
     1
  0
VERTEX
  5
3E2
330
3D7
100
AcDbEntity
  8
0
 62
     9
420
 12632256
100
AcDbFaceRecord
 10
0.0
 20
0.0
 30
0.0
 70
   128
 71
     5
 72
     4
 73
     1
  0
VERTEX
  5
3E3
330
3D7
100
AcDbEntity
  8
0
 62
     9
420
 12632256
100
AcDbFaceRecord
 10
0.0
 20
0.0
 30
0.0
 70
   128
 71
     7
 72
     6
 73
     4
  0
VERTEX
  5
3E4
330
3D7
100
AcDbEntity
  8
0
 62
     9
420
 12632256
100
AcDbFaceRecord
 10
0.0
 20
0.0
 30
0.0
 70
   128
 71
     1
 72
     8
 73
     3
  0
VERTEX
  5
3E5
330
3D7
100
AcDbEntity
  8
0
 62
     9
420
 12632256
100
AcDbFaceRecord
 10
0.0
 20
0.0
 30
0.0
 70
   128
 71
     4
 72
     5
 73
     7
  0
VERTEX
  5
3E6
330
3D7
100
AcDbEntity
  8
0
 62
     9
420
 12632256
100
AcDbFaceRecord
 10
0.0
 20
0.0
 30
0.0
 70
   128
 71
     1
 72
     2
 73
     5
  0
VERTEX
  5
3E7
330
3D7
100
AcDbEntity
  8
0
 62
     9
420
 12632256
100
AcDbFaceRecord
 10
0.0
 20
0.0
 30
0.0
 70
   128
 71
     1
 72
     9
 73
     8
  0
SEQEND
  5
3E8
330
3D7
100
AcDbEntity
  8
0
 62
     9
420
 12632256
  0
ENDBLK
  5
3EB
330
3D6
100
AcDbEntity
  8
0
100
AcDbBlockEnd
  0
BLOCK
  5
406
330
3EC
100
AcDbEntity
  8
0
100
AcDbBlockBegin
  2
e3_node(4)
 70
     0
 10
0.0
 20
0.0
 30
0.0
  3
e3_node(4)
  1

  0
POLYLINE
  5
3ED
330
3EC
100
AcDbEntity
  8
0
 62
     9
420
 12632256
100
AcDbPolyFaceMesh
 66
     1
 10
0.0
 20
0.0
 30
0.0
 70
    64
 71
    12
 72
    10
  0
VERTEX
  5
3EE
330
3ED
100
AcDbEntity
  8
0
100
AcDbVertex
100
AcDbPolyFaceMeshVertex
 10
9.0
 20
-13.52600002288818
 30
-13.52600002288818
 70
   192
  0
VERTEX
  5
3EF
330
3ED
100
AcDbEntity
  8
0
100
AcDbVertex
100
AcDbPolyFaceMeshVertex
 10
9.0
 20
13.52600002288818
 30
13.52600002288818
 70
   192
  0
VERTEX
  5
3F0
330
3ED
100
AcDbEntity
  8
0
100
AcDbVertex
100
AcDbPolyFaceMeshVertex
 10
9.0
 20
4.951000213623047
 30
18.47699928283691
 70
   192
  0
VERTEX
  5
3F1
330
3ED
100
AcDbEntity
  8
0
100
AcDbVertex
100
AcDbPolyFaceMeshVertex
 10
9.0
 20
-4.951000213623047
 30
-18.47699928283691
 70
   192
  0
VERTEX
  5
3F2
330
3ED
100
AcDbEntity
  8
0
100
AcDbVertex
100
AcDbPolyFaceMeshVertex
 10
9.0
 20
-13.52600002288818
 30
13.52600002288818
 70
   192
  0
VERTEX
  5
3F3
330
3ED
100
AcDbEntity
  8
0
100
AcDbVertex
100
AcDbPolyFaceMeshVertex
 10
9.0
 20
-18.47699928283691
 30
4.951000213623047
 70
   192
  0
VERTEX
  5
3F4
330
3ED
100
AcDbEntity
  8
0
100
AcDbVertex
100
AcDbPolyFaceMeshVertex
 10
9.0
 20
-4.951000213623047
 30
18.47699928283691
 70
   192
  0
VERTEX
  5
3F5
330
3ED
100
AcDbEntity
  8
0
100
AcDbVertex
100
AcDbPolyFaceMeshVertex
 10
9.0
 20
13.52600002288818
 30
-13.52600002288818
 70
   192
  0
VERTEX
  5
3F6
330
3ED
100
AcDbEntity
  8
0
100
AcDbVertex
100
AcDbPolyFaceMeshVertex
 10
9.0
 20
18.47699928283691
 30
-4.951000213623047
 70
   192
  0
VERTEX
  5
3F7
330
3ED
100
AcDbEntity
  8
0
100
AcDbVertex
100
AcDbPolyFaceMeshVertex
 10
9.0
 20
18.47699928283691
 30
4.951000213623047
 70
   192
  0
VERTEX
  5
3F8
330
3ED
100
AcDbEntity
  8
0
100
AcDbVertex
100
AcDbPolyFaceMeshVertex
 10
9.0
 20
4.951000213623047
 30
-18.47699928283691
 70
   192
  0
VERTEX
  5
3F9
330
3ED
100
AcDbEntity
  8
0
100
AcDbVertex
100
AcDbPolyFaceMeshVertex
 10
9.0
 20
-18.47699928283691
 30
-4.951000213623047
 70
   192
  0
VERTEX
  5
3FA
330
3ED
100
AcDbEntity
  8
0
 62
     9
420
 12632256
100
AcDbFaceRecord
 10
0.0
 20
0.0
 30
0.0
 70
   128
 71
     3
 72
     2
 73
     1
  0
VERTEX
  5
3FB
330
3ED
100
AcDbEntity
  8
0
 62
     9
420
 12632256
100
AcDbFaceRecord
 10
0.0
 20
0.0
 30
0.0
 70
   128
 71
     4
 72
     1
 73
     2
  0
VERTEX
  5
3FC
330
3ED
100
AcDbEntity
  8
0
 62
     9
420
 12632256
100
AcDbFaceRecord
 10
0.0
 20
0.0
 30
0.0
 70
   128
 71
     6
 72
     5
 73
     1
  0
VERTEX
  5
3FD
330
3ED
100
AcDbEntity
  8
0
 62
     9
420
 12632256
100
AcDbFaceRecord
 10
0.0
 20
0.0
 30
0.0
 70
   128
 71
     1
 72
     7
 73
     3
  0
VERTEX
  5
3FE
330
3ED
100
AcDbEntity
  8
0
 62
     9
420
 12632256
100
AcDbFaceRecord
 10
0.0
 20
0.0
 30
0.0
 70
   128
 71
    10
 72
     9
 73
     8
  0
VERTEX
  5
3FF
330
3ED
100
AcDbEntity
  8
0
 62
     9
420
 12632256
100
AcDbFaceRecord
 10
0.0
 20
0.0
 30
0.0
 70
   128
 71
     2
 72
    11
 73
     4
  0
VERTEX
  5
400
330
3ED
100
AcDbEntity
  8
0
 62
     9
420
 12632256
100
AcDbFaceRecord
 10
0.0
 20
0.0
 30
0.0
 70
   128
 71
     1
 72
     5
 73
     7
  0
VERTEX
  5
401
330
3ED
100
AcDbEntity
  8
0
 62
     9
420
 12632256
100
AcDbFaceRecord
 10
0.0
 20
0.0
 30
0.0
 70
   128
 71
     2
 72
     8
 73
    11
  0
VERTEX
  5
402
330
3ED
100
AcDbEntity
  8
0
 62
     9
420
 12632256
100
AcDbFaceRecord
 10
0.0
 20
0.0
 30
0.0
 70
   128
 71
     8
 72
     2
 73
    10
  0
VERTEX
  5
403
330
3ED
100
AcDbEntity
  8
0
 62
     9
420
 12632256
100
AcDbFaceRecord
 10
0.0
 20
0.0
 30
0.0
 70
   128
 71
     1
 72
    12
 73
     6
  0
SEQEND
  5
404
330
3ED
100
AcDbEntity
  8
0
 62
     9
420
 12632256
  0
ENDBLK
  5
407
330
3EC
100
AcDbEntity
  8
0
100
AcDbBlockEnd
  0
BLOCK
  5
41C
330
408
100
AcDbEntity
  8
0
100
AcDbBlockBegin
  2
e3_node(5)
 70
     0
 10
0.0
 20
0.0
 30
0.0
  3
e3_node(5)
  1

  0
POLYLINE
  5
409
330
408
100
AcDbEntity
  8
0
 62
     9
420
 12632256
100
AcDbPolyFaceMesh
 66
     1
 10
0.0
 20
0.0
 30
0.0
 70
    64
 71
     9
 72
     7
  0
VERTEX
  5
40A
330
409
100
AcDbEntity
  8
0
100
AcDbVertex
100
AcDbPolyFaceMeshVertex
 10
9.0
 20
18.47699928283691
 30
4.951000213623047
 70
   192
  0
VERTEX
  5
40B
330
409
100
AcDbEntity
  8
0
100
AcDbVertex
100
AcDbPolyFaceMeshVertex
 10
9.0
 20
18.47699928283691
 30
-4.951000213623047
 70
   192
  0
VERTEX
  5
40C
330
409
100
AcDbEntity
  8
0
100
AcDbVertex
100
AcDbPolyFaceMeshVertex
 10
1.45799994468689
 20
24.3700008392334
 30
-0.5979999899864197
 70
   192
  0
VERTEX
  5
40D
330
409
100
AcDbEntity
  8
0
100
AcDbVertex
100
AcDbPolyFaceMeshVertex
 10
1.865000009536743
 20
24.05200004577637
 30
4.459000110626221
 70
   192
  0
VERTEX
  5
40E
330
409
100
AcDbEntity
  8
0
100
AcDbVertex
100
AcDbPolyFaceMeshVertex
 10
1.922999978065491
 20
24.00600051879883
 30
-4.00600004196167
 70
   192
  0
VERTEX
  5
40F
330
409
100
AcDbEntity
  8
0
100
AcDbVertex
100
AcDbPolyFaceMeshVertex
 10
1.496000051498413
 20
24.34000015258789
 30
-1.493000030517578
 70
   192
  0
VERTEX
  5
410
330
409
100
AcDbEntity
  8
0
100
AcDbVertex
100
AcDbPolyFaceMeshVertex
 10
2.059999942779541
 20
23.89900016784668
 30
5.368000030517578
 70
   192
  0
VERTEX
  5
411
330
409
100
AcDbEntity
  8
0
100
AcDbVertex
100
AcDbPolyFaceMeshVertex
 10
2.321000099182129
 20
23.69499969482422
 30
-6.348999977111816
 70
   192
  0
VERTEX
  5
412
330
409
100
AcDbEntity
  8
0
100
AcDbVertex
100
AcDbPolyFaceMeshVertex
 10
2.321000099182129
 20
23.69499969482422
 30
6.348999977111816
 70
   192
  0
VERTEX
  5
413
330
409
100
AcDbEntity
  8
0
 62
     9
420
 12632256
100
AcDbFaceRecord
 10
0.0
 20
0.0
 30
0.0
 70
   128
 71
     3
 72
     2
 73
     1
  0
VERTEX
  5
414
330
409
100
AcDbEntity
  8
0
 62
     9
420
 12632256
100
AcDbFaceRecord
 10
0.0
 20
0.0
 30
0.0
 70
   128
 71
     1
 72
     4
 73
     3
  0
VERTEX
  5
415
330
409
100
AcDbEntity
  8
0
 62
     9
420
 12632256
100
AcDbFaceRecord
 10
0.0
 20
0.0
 30
0.0
 70
   128
 71
     6
 72
     5
 73
     2
  0
VERTEX
  5
416
330
409
100
AcDbEntity
  8
0
 62
     9
420
 12632256
100
AcDbFaceRecord
 10
0.0
 20
0.0
 30
0.0
 70
   128
 71
     2
 72
     3
 73
     6
  0
VERTEX
  5
417
330
409
100
AcDbEntity
  8
0
 62
     9
420
 12632256
100
AcDbFaceRecord
 10
0.0
 20
0.0
 30
0.0
 70
   128
 71
     1
 72
     7
 73
     4
  0
VERTEX
  5
418
330
409
100
AcDbEntity
  8
0
 62
     9
420
 12632256
100
AcDbFaceRecord
 10
0.0
 20
0.0
 30
0.0
 70
   128
 71
     5
 72
     8
 73
     2
  0
VERTEX
  5
419
330
409
100
AcDbEntity
  8
0
 62
     9
420
 12632256
100
AcDbFaceRecord
 10
0.0
 20
0.0
 30
0.0
 70
   128
 71
     1
 72
     9
 73
     7
  0
SEQEND
  5
41A
330
409
100
AcDbEntity
  8
0
 62
     9
420
 12632256
  0
ENDBLK
  5
41D
330
408
100
AcDbEntity
  8
0
100
AcDbBlockEnd
  0
BLOCK
  5
432
330
41E
100
AcDbEntity
  8
0
100
AcDbBlockBegin
  2
e3_node(6)
 70
     0
 10
0.0
 20
0.0
 30
0.0
  3
e3_node(6)
  1

  0
POLYLINE
  5
41F
330
41E
100
AcDbEntity
  8
0
 62
     9
420
 12632256
100
AcDbPolyFaceMesh
 66
     1
 10
0.0
 20
0.0
 30
0.0
 70
    64
 71
     9
 72
     7
  0
VERTEX
  5
420
330
41F
100
AcDbEntity
  8
0
100
AcDbVertex
100
AcDbPolyFaceMeshVertex
 10
9.0
 20
18.47699928283691
 30
-4.951000213623047
 70
   192
  0
VERTEX
  5
421
330
41F
100
AcDbEntity
  8
0
100
AcDbVertex
100
AcDbPolyFaceMeshVertex
 10
1.45799994468689
 20
20.80599975585938
 30
-12.70199966430664
 70
   192
  0
VERTEX
  5
422
330
41F
100
AcDbEntity
  8
0
100
AcDbVertex
100
AcDbPolyFaceMeshVertex
 10
1.865000009536743
 20
23.05900001525879
 30
-8.163999557495117
 70
   192
  0
VERTEX
  5
423
330
41F
100
AcDbEntity
  8
0
100
AcDbVertex
100
AcDbPolyFaceMeshVertex
 10
1.615000009536743
 20
19.90099906921387
 30
-14.02400016784668
 70
   192
  0
VERTEX
  5
424
330
41F
100
AcDbEntity
  8
0
100
AcDbVertex
100
AcDbPolyFaceMeshVertex
 10
1.496000051498413
 20
20.33200073242188
 30
-13.46300029754639
 70
   192
  0
VERTEX
  5
425
330
41F
100
AcDbEntity
  8
0
100
AcDbVertex
100
AcDbPolyFaceMeshVertex
 10
2.059999942779541
 20
23.38100051879883
 30
-7.301000118255615
 70
   192
  0
VERTEX
  5
426
330
41F
100
AcDbEntity
  8
0
100
AcDbVertex
100
AcDbPolyFaceMeshVertex
 10
9.0
 20
13.52600002288818
 30
-13.52600002288818
 70
   192
  0
VERTEX
  5
427
330
41F
100
AcDbEntity
  8
0
100
AcDbVertex
100
AcDbPolyFaceMeshVertex
 10
2.321000099182129
 20
17.34600067138672
 30
-17.34600067138672
 70
   192
  0
VERTEX
  5
428
330
41F
100
AcDbEntity
  8
0
100
AcDbVertex
100
AcDbPolyFaceMeshVertex
 10
2.321000099182129
 20
23.69499969482422
 30
-6.348999977111816
 70
   192
  0
VERTEX
  5
429
330
41F
100
AcDbEntity
  8
0
 62
     9
420
 12632256
100
AcDbFaceRecord
 10
0.0
 20
0.0
 30
0.0
 70
   128
 71
     3
 72
     2
 73
     1
  0
VERTEX
  5
42A
330
41F
100
AcDbEntity
  8
0
 62
     9
420
 12632256
100
AcDbFaceRecord
 10
0.0
 20
0.0
 30
0.0
 70
   128
 71
     5
 72
     4
 73
     1
  0
VERTEX
  5
42B
330
41F
100
AcDbEntity
  8
0
 62
     9
420
 12632256
100
AcDbFaceRecord
 10
0.0
 20
0.0
 30
0.0
 70
   128
 71
     1
 72
     2
 73
     5
  0
VERTEX
  5
42C
330
41F
100
AcDbEntity
  8
0
 62
     9
420
 12632256
100
AcDbFaceRecord
 10
0.0
 20
0.0
 30
0.0
 70
   128
 71
     1
 72
     6
 73
     3
  0
VERTEX
  5
42D
330
41F
100
AcDbEntity
  8
0
 62
     9
420
 12632256
100
AcDbFaceRecord
 10
0.0
 20
0.0
 30
0.0
 70
   128
 71
     4
 72
     8
 73
     7
  0
VERTEX
  5
42E
330
41F
100
AcDbEntity
  8
0
 62
     9
420
 12632256
100
AcDbFaceRecord
 10
0.0
 20
0.0
 30
0.0
 70
   128
 71
     7
 72
     1
 73
     4
  0
VERTEX
  5
42F
330
41F
100
AcDbEntity
  8
0
 62
     9
420
 12632256
100
AcDbFaceRecord
 10
0.0
 20
0.0
 30
0.0
 70
   128
 71
     1
 72
     9
 73
     6
  0
SEQEND
  5
430
330
41F
100
AcDbEntity
  8
0
 62
     9
420
 12632256
  0
ENDBLK
  5
433
330
41E
100
AcDbEntity
  8
0
100
AcDbBlockEnd
  0
BLOCK
  5
44A
330
434
100
AcDbEntity
  8
0
100
AcDbBlockBegin
  2
e3_node(7)
 70
     0
 10
0.0
 20
0.0
 30
0.0
  3
e3_node(7)
  1

  0
POLYLINE
  5
435
330
434
100
AcDbEntity
  8
0
 62
     9
420
 12632256
100
AcDbPolyFaceMesh
 66
     1
 10
0.0
 20
0.0
 30
0.0
 70
    64
 71
    10
 72
     8
  0
VERTEX
  5
436
330
435
100
AcDbEntity
  8
0
100
AcDbVertex
100
AcDbPolyFaceMeshVertex
 10
9.0
 20
13.52600002288818
 30
13.52600002288818
 70
   192
  0
VERTEX
  5
437
330
435
100
AcDbEntity
  8
0
100
AcDbVertex
100
AcDbPolyFaceMeshVertex
 10
9.0
 20
18.47699928283691
 30
4.951000213623047
 70
   192
  0
VERTEX
  5
438
330
435
100
AcDbEntity
  8
0
100
AcDbVertex
100
AcDbPolyFaceMeshVertex
 10
1.45799994468689
 20
21.40299987792969
 30
11.66699981689453
 70
   192
  0
VERTEX
  5
439
330
435
100
AcDbEntity
  8
0
100
AcDbVertex
100
AcDbPolyFaceMeshVertex
 10
1.865000009536743
 20
18.60000038146973
 30
15.88799953460693
 70
   192
  0
VERTEX
  5
43A
330
435
100
AcDbEntity
  8
0
100
AcDbVertex
100
AcDbPolyFaceMeshVertex
 10
2.232000112533569
 20
23.49200057983398
 30
6.841000080108643
 70
   192
  0
VERTEX
  5
43B
330
435
100
AcDbEntity
  8
0
100
AcDbVertex
100
AcDbPolyFaceMeshVertex
 10
1.496000051498413
 20
21.82600021362305
 30
10.8769998550415
 70
   192
  0
VERTEX
  5
43C
330
435
100
AcDbEntity
  8
0
100
AcDbVertex
100
AcDbPolyFaceMeshVertex
 10
1.996999979019165
 20
18.20199966430664
 30
16.36899948120117
 70
   192
  0
VERTEX
  5
43D
330
435
100
AcDbEntity
  8
0
100
AcDbVertex
100
AcDbPolyFaceMeshVertex
 10
2.059999942779541
 20
18.01300048828125
 30
16.59799957275391
 70
   192
  0
VERTEX
  5
43E
330
435
100
AcDbEntity
  8
0
100
AcDbVertex
100
AcDbPolyFaceMeshVertex
 10
2.321000099182129
 20
23.69499969482422
 30
6.348999977111816
 70
   192
  0
VERTEX
  5
43F
330
435
100
AcDbEntity
  8
0
100
AcDbVertex
100
AcDbPolyFaceMeshVertex
 10
2.321000099182129
 20
17.34600067138672
 30
17.34600067138672
 70
   192
  0
VERTEX
  5
440
330
435
100
AcDbEntity
  8
0
 62
     9
420
 12632256
100
AcDbFaceRecord
 10
0.0
 20
0.0
 30
0.0
 70
   128
 71
     3
 72
     2
 73
     1
  0
VERTEX
  5
441
330
435
100
AcDbEntity
  8
0
 62
     9
420
 12632256
100
AcDbFaceRecord
 10
0.0
 20
0.0
 30
0.0
 70
   128
 71
     1
 72
     4
 73
     3
  0
VERTEX
  5
442
330
435
100
AcDbEntity
  8
0
 62
     9
420
 12632256
100
AcDbFaceRecord
 10
0.0
 20
0.0
 30
0.0
 70
   128
 71
     6
 72
     5
 73
     2
  0
VERTEX
  5
443
330
435
100
AcDbEntity
  8
0
 62
     9
420
 12632256
100
AcDbFaceRecord
 10
0.0
 20
0.0
 30
0.0
 70
   128
 71
     8
 72
     7
 73
     1
  0
VERTEX
  5
444
330
435
100
AcDbEntity
  8
0
 62
     9
420
 12632256
100
AcDbFaceRecord
 10
0.0
 20
0.0
 30
0.0
 70
   128
 71
     2
 72
     3
 73
     6
  0
VERTEX
  5
445
330
435
100
AcDbEntity
  8
0
 62
     9
420
 12632256
100
AcDbFaceRecord
 10
0.0
 20
0.0
 30
0.0
 70
   128
 71
     1
 72
     7
 73
     4
  0
VERTEX
  5
446
330
435
100
AcDbEntity
  8
0
 62
     9
420
 12632256
100
AcDbFaceRecord
 10
0.0
 20
0.0
 30
0.0
 70
   128
 71
     5
 72
     9
 73
     2
  0
VERTEX
  5
447
330
435
100
AcDbEntity
  8
0
 62
     9
420
 12632256
100
AcDbFaceRecord
 10
0.0
 20
0.0
 30
0.0
 70
   128
 71
     1
 72
    10
 73
     8
  0
SEQEND
  5
448
330
435
100
AcDbEntity
  8
0
 62
     9
420
 12632256
  0
ENDBLK
  5
44B
330
434
100
AcDbEntity
  8
0
100
AcDbBlockEnd
  0
BLOCK
  5
460
330
44C
100
AcDbEntity
  8
0
100
AcDbBlockBegin
  2
e3_node(8)
 70
     0
 10
0.0
 20
0.0
 30
0.0
  3
e3_node(8)
  1

  0
POLYLINE
  5
44D
330
44C
100
AcDbEntity
  8
0
 62
     9
420
 12632256
100
AcDbPolyFaceMesh
 66
     1
 10
0.0
 20
0.0
 30
0.0
 70
    64
 71
     9
 72
     7
  0
VERTEX
  5
44E
330
44D
100
AcDbEntity
  8
0
100
AcDbVertex
100
AcDbPolyFaceMeshVertex
 10
9.0
 20
13.52600002288818
 30
-13.52600002288818
 70
   192
  0
VERTEX
  5
44F
330
44D
100
AcDbEntity
  8
0
100
AcDbVertex
100
AcDbPolyFaceMeshVertex
 10
9.0
 20
4.951000213623047
 30
-18.47699928283691
 70
   192
  0
VERTEX
  5
450
330
44D
100
AcDbEntity
  8
0
100
AcDbVertex
100
AcDbPolyFaceMeshVertex
 10
1.475000023841858
 20
11.84799957275391
 30
-21.28400039672852
 70
   192
  0
VERTEX
  5
451
330
44D
100
AcDbEntity
  8
0
100
AcDbVertex
100
AcDbPolyFaceMeshVertex
 10
1.865000009536743
 20
15.88799953460693
 30
-18.60000038146973
 70
   192
  0
VERTEX
  5
452
330
44D
100
AcDbEntity
  8
0
100
AcDbVertex
100
AcDbPolyFaceMeshVertex
 10
2.321000099182129
 20
6.348999977111816
 30
-23.69499969482422
 70
   192
  0
VERTEX
  5
453
330
44D
100
AcDbEntity
  8
0
100
AcDbVertex
100
AcDbPolyFaceMeshVertex
 10
1.496000051498413
 20
10.8769998550415
 30
-21.82600021362305
 70
   192
  0
VERTEX
  5
454
330
44D
100
AcDbEntity
  8
0
100
AcDbVertex
100
AcDbPolyFaceMeshVertex
 10
2.059999942779541
 20
16.59799957275391
 30
-18.01300048828125
 70
   192
  0
VERTEX
  5
455
330
44D
100
AcDbEntity
  8
0
100
AcDbVertex
100
AcDbPolyFaceMeshVertex
 10
1.45799994468689
 20
11.66699981689453
 30
-21.40299987792969
 70
   192
  0
VERTEX
  5
456
330
44D
100
AcDbEntity
  8
0
100
AcDbVertex
100
AcDbPolyFaceMeshVertex
 10
2.321000099182129
 20
17.34600067138672
 30
-17.34600067138672
 70
   192
  0
VERTEX
  5
457
330
44D
100
AcDbEntity
  8
0
 62
     9
420
 12632256
100
AcDbFaceRecord
 10
0.0
 20
0.0
 30
0.0
 70
   128
 71
     3
 72
     2
 73
     1
  0
VERTEX
  5
458
330
44D
100
AcDbEntity
  8
0
 62
     9
420
 12632256
100
AcDbFaceRecord
 10
0.0
 20
0.0
 30
0.0
 70
   128
 71
     1
 72
     4
 73
     3
  0
VERTEX
  5
459
330
44D
100
AcDbEntity
  8
0
 62
     9
420
 12632256
100
AcDbFaceRecord
 10
0.0
 20
0.0
 30
0.0
 70
   128
 71
     6
 72
     5
 73
     2
  0
VERTEX
  5
45A
330
44D
100
AcDbEntity
  8
0
 62
     9
420
 12632256
100
AcDbFaceRecord
 10
0.0
 20
0.0
 30
0.0
 70
   128
 71
     1
 72
     7
 73
     4
  0
VERTEX
  5
45B
330
44D
100
AcDbEntity
  8
0
 62
     9
420
 12632256
100
AcDbFaceRecord
 10
0.0
 20
0.0
 30
0.0
 70
   128
 71
     2
 72
     8
 73
     6
  0
VERTEX
  5
45C
330
44D
100
AcDbEntity
  8
0
 62
     9
420
 12632256
100
AcDbFaceRecord
 10
0.0
 20
0.0
 30
0.0
 70
   128
 71
     2
 72
     3
 73
     8
  0
VERTEX
  5
45D
330
44D
100
AcDbEntity
  8
0
 62
     9
420
 12632256
100
AcDbFaceRecord
 10
0.0
 20
0.0
 30
0.0
 70
   128
 71
     1
 72
     9
 73
     7
  0
SEQEND
  5
45E
330
44D
100
AcDbEntity
  8
0
 62
     9
420
 12632256
  0
ENDBLK
  5
461
330
44C
100
AcDbEntity
  8
0
100
AcDbBlockEnd
  0
BLOCK
  5
476
330
462
100
AcDbEntity
  8
0
100
AcDbBlockBegin
  2
e3_node(9)
 70
     0
 10
0.0
 20
0.0
 30
0.0
  3
e3_node(9)
  1

  0
POLYLINE
  5
463
330
462
100
AcDbEntity
  8
0
 62
     9
420
 12632256
100
AcDbPolyFaceMesh
 66
     1
 10
0.0
 20
0.0
 30
0.0
 70
    64
 71
     9
 72
     7
  0
VERTEX
  5
464
330
463
100
AcDbEntity
  8
0
100
AcDbVertex
100
AcDbPolyFaceMeshVertex
 10
9.0
 20
4.951000213623047
 30
-18.47699928283691
 70
   192
  0
VERTEX
  5
465
330
463
100
AcDbEntity
  8
0
100
AcDbVertex
100
AcDbPolyFaceMeshVertex
 10
1.621999979019165
 20
1.437000036239624
 30
-24.24200057983398
 70
   192
  0
VERTEX
  5
466
330
463
100
AcDbEntity
  8
0
100
AcDbVertex
100
AcDbPolyFaceMeshVertex
 10
1.865000009536743
 20
4.459000110626221
 30
-24.05200004577637
 70
   192
  0
VERTEX
  5
467
330
463
100
AcDbEntity
  8
0
100
AcDbVertex
100
AcDbPolyFaceMeshVertex
 10
9.0
 20
-4.951000213623047
 30
-18.47699928283691
 70
   192
  0
VERTEX
  5
468
330
463
100
AcDbEntity
  8
0
100
AcDbVertex
100
AcDbPolyFaceMeshVertex
 10
1.45799994468689
 20
-0.5979999899864197
 30
-24.3700008392334
 70
   192
  0
VERTEX
  5
469
330
463
100
AcDbEntity
  8
0
100
AcDbVertex
100
AcDbPolyFaceMeshVertex
 10
2.321000099182129
 20
-6.348999977111816
 30
-23.69499969482422
 70
   192
  0
VERTEX
  5
46A
330
463
100
AcDbEntity
  8
0
100
AcDbVertex
100
AcDbPolyFaceMeshVertex
 10
1.496000051498413
 20
-1.493000030517578
 30
-24.34000015258789
 70
   192
  0
VERTEX
  5
46B
330
463
100
AcDbEntity
  8
0
100
AcDbVertex
100
AcDbPolyFaceMeshVertex
 10
2.059999942779541
 20
5.368000030517578
 30
-23.89900016784668
 70
   192
  0
VERTEX
  5
46C
330
463
100
AcDbEntity
  8
0
100
AcDbVertex
100
AcDbPolyFaceMeshVertex
 10
2.321000099182129
 20
6.348999977111816
 30
-23.69499969482422
 70
   192
  0
VERTEX
  5
46D
330
463
100
AcDbEntity
  8
0
 62
     9
420
 12632256
100
AcDbFaceRecord
 10
0.0
 20
0.0
 30
0.0
 70
   128
 71
     3
 72
     2
 73
     1
  0
VERTEX
  5
46E
330
463
100
AcDbEntity
  8
0
 62
     9
420
 12632256
100
AcDbFaceRecord
 10
0.0
 20
0.0
 30
0.0
 70
   128
 71
     2
 72
     5
 73
     4
  0
VERTEX
  5
46F
330
463
100
AcDbEntity
  8
0
 62
     9
420
 12632256
100
AcDbFaceRecord
 10
0.0
 20
0.0
 30
0.0
 70
   128
 71
     7
 72
     6
 73
     4
  0
VERTEX
  5
470
330
463
100
AcDbEntity
  8
0
 62
     9
420
 12632256
100
AcDbFaceRecord
 10
0.0
 20
0.0
 30
0.0
 70
   128
 71
     1
 72
     8
 73
     3
  0
VERTEX
  5
471
330
463
100
AcDbEntity
  8
0
 62
     9
420
 12632256
100
AcDbFaceRecord
 10
0.0
 20
0.0
 30
0.0
 70
   128
 71
     4
 72
     5
 73
     7
  0
VERTEX
  5
472
330
463
100
AcDbEntity
  8
0
 62
     9
420
 12632256
100
AcDbFaceRecord
 10
0.0
 20
0.0
 30
0.0
 70
   128
 71
     4
 72
     1
 73
     2
  0
VERTEX
  5
473
330
463
100
AcDbEntity
  8
0
 62
     9
420
 12632256
100
AcDbFaceRecord
 10
0.0
 20
0.0
 30
0.0
 70
   128
 71
     1
 72
     9
 73
     8
  0
SEQEND
  5
474
330
463
100
AcDbEntity
  8
0
 62
     9
420
 12632256
  0
ENDBLK
  5
477
330
462
100
AcDbEntity
  8
0
100
AcDbBlockEnd
  0
BLOCK
  5
48C
330
478
100
AcDbEntity
  8
0
100
AcDbBlockBegin
  2
e3_node(10)
 70
     0
 10
0.0
 20
0.0
 30
0.0
  3
e3_node(10)
  1

  0
POLYLINE
  5
479
330
478
100
AcDbEntity
  8
0
 62
     9
420
 12632256
100
AcDbPolyFaceMesh
 66
     1
 10
0.0
 20
0.0
 30
0.0
 70
    64
 71
     9
 72
     7
  0
VERTEX
  5
47A
330
479
100
AcDbEntity
  8
0
100
AcDbVertex
100
AcDbPolyFaceMeshVertex
 10
9.0
 20
-4.951000213623047
 30
18.47699928283691
 70
   192
  0
VERTEX
  5
47B
330
479
100
AcDbEntity
  8
0
100
AcDbVertex
100
AcDbPolyFaceMeshVertex
 10
1.621999979019165
 20
-1.437000036239624
 30
24.24200057983398
 70
   192
  0
VERTEX
  5
47C
330
479
100
AcDbEntity
  8
0
100
AcDbVertex
100
AcDbPolyFaceMeshVertex
 10
1.865000009536743
 20
-4.459000110626221
 30
24.05200004577637
 70
   192
  0
VERTEX
  5
47D
330
479
100
AcDbEntity
  8
0
100
AcDbVertex
100
AcDbPolyFaceMeshVertex
 10
9.0
 20
4.951000213623047
 30
18.47699928283691
 70
   192
  0
VERTEX
  5
47E
330
479
100
AcDbEntity
  8
0
100
AcDbVertex
100
AcDbPolyFaceMeshVertex
 10
1.45799994468689
 20
0.5979999899864197
 30
24.3700008392334
 70
   192
  0
VERTEX
  5
47F
330
479
100
AcDbEntity
  8
0
100
AcDbVertex
100
AcDbPolyFaceMeshVertex
 10
2.321000099182129
 20
6.348999977111816
 30
23.69499969482422
 70
   192
  0
VERTEX
  5
480
330
479
100
AcDbEntity
  8
0
100
AcDbVertex
100
AcDbPolyFaceMeshVertex
 10
1.496000051498413
 20
1.493000030517578
 30
24.34000015258789
 70
   192
  0
VERTEX
  5
481
330
479
100
AcDbEntity
  8
0
100
AcDbVertex
100
AcDbPolyFaceMeshVertex
 10
2.059999942779541
 20
-5.368000030517578
 30
23.89900016784668
 70
   192
  0
VERTEX
  5
482
330
479
100
AcDbEntity
  8
0
100
AcDbVertex
100
AcDbPolyFaceMeshVertex
 10
2.321000099182129
 20
-6.348999977111816
 30
23.69499969482422
 70
   192
  0
VERTEX
  5
483
330
479
100
AcDbEntity
  8
0
 62
     9
420
 12632256
100
AcDbFaceRecord
 10
0.0
 20
0.0
 30
0.0
 70
   128
 71
     3
 72
     2
 73
     1
  0
VERTEX
  5
484
330
479
100
AcDbEntity
  8
0
 62
     9
420
 12632256
100
AcDbFaceRecord
 10
0.0
 20
0.0
 30
0.0
 70
   128
 71
     2
 72
     5
 73
     4
  0
VERTEX
  5
485
330
479
100
AcDbEntity
  8
0
 62
     9
420
 12632256
100
AcDbFaceRecord
 10
0.0
 20
0.0
 30
0.0
 70
   128
 71
     7
 72
     6
 73
     4
  0
VERTEX
  5
486
330
479
100
AcDbEntity
  8
0
 62
     9
420
 12632256
100
AcDbFaceRecord
 10
0.0
 20
0.0
 30
0.0
 70
   128
 71
     1
 72
     8
 73
     3
  0
VERTEX
  5
487
330
479
100
AcDbEntity
  8
0
 62
     9
420
 12632256
100
AcDbFaceRecord
 10
0.0
 20
0.0
 30
0.0
 70
   128
 71
     4
 72
     5
 73
     7
  0
VERTEX
  5
488
330
479
100
AcDbEntity
  8
0
 62
     9
420
 12632256
100
AcDbFaceRecord
 10
0.0
 20
0.0
 30
0.0
 70
   128
 71
     4
 72
     1
 73
     2
  0
VERTEX
  5
489
330
479
100
AcDbEntity
  8
0
 62
     9
420
 12632256
100
AcDbFaceRecord
 10
0.0
 20
0.0
 30
0.0
 70
   128
 71
     1
 72
     9
 73
     8
  0
SEQEND
  5
48A
330
479
100
AcDbEntity
  8
0
 62
     9
420
 12632256
  0
ENDBLK
  5
48D
330
478
100
AcDbEntity
  8
0
100
AcDbBlockEnd
  0
BLOCK
  5
4A2
330
48E
100
AcDbEntity
  8
0
100
AcDbBlockBegin
  2
e3_node(11)
 70
     0
 10
0.0
 20
0.0
 30
0.0
  3
e3_node(11)
  1

  0
POLYLINE
  5
48F
330
48E
100
AcDbEntity
  8
0
 62
     9
420
 12632256
100
AcDbPolyFaceMesh
 66
     1
 10
0.0
 20
0.0
 30
0.0
 70
    64
 71
     9
 72
     7
  0
VERTEX
  5
490
330
48F
100
AcDbEntity
  8
0
100
AcDbVertex
100
AcDbPolyFaceMeshVertex
 10
9.0
 20
-4.951000213623047
 30
-18.47699928283691
 70
   192
  0
VERTEX
  5
491
330
48F
100
AcDbEntity
  8
0
100
AcDbVertex
100
AcDbPolyFaceMeshVertex
 10
1.76800000667572
 20
-9.239999771118164
 30
-22.52499961853027
 70
   192
  0
VERTEX
  5
492
330
48F
100
AcDbEntity
  8
0
100
AcDbVertex
100
AcDbPolyFaceMeshVertex
 10
1.865000009536743
 20
-8.163999557495117
 30
-23.05900001525879
 70
   192
  0
VERTEX
  5
493
330
48F
100
AcDbEntity
  8
0
100
AcDbVertex
100
AcDbPolyFaceMeshVertex
 10
9.0
 20
-13.52600002288818
 30
-13.52600002288818
 70
   192
  0
VERTEX
  5
494
330
48F
100
AcDbEntity
  8
0
100
AcDbVertex
100
AcDbPolyFaceMeshVertex
 10
1.45799994468689
 20
-12.70199966430664
 30
-20.80599975585938
 70
   192
  0
VERTEX
  5
495
330
48F
100
AcDbEntity
  8
0
100
AcDbVertex
100
AcDbPolyFaceMeshVertex
 10
2.321000099182129
 20
-17.34600067138672
 30
-17.34600067138672
 70
   192
  0
VERTEX
  5
496
330
48F
100
AcDbEntity
  8
0
100
AcDbVertex
100
AcDbPolyFaceMeshVertex
 10
1.496000051498413
 20
-13.46300029754639
 30
-20.33200073242188
 70
   192
  0
VERTEX
  5
497
330
48F
100
AcDbEntity
  8
0
100
AcDbVertex
100
AcDbPolyFaceMeshVertex
 10
2.059999942779541
 20
-7.301000118255615
 30
-23.38100051879883
 70
   192
  0
VERTEX
  5
498
330
48F
100
AcDbEntity
  8
0
100
AcDbVertex
100
AcDbPolyFaceMeshVertex
 10
2.321000099182129
 20
-6.348999977111816
 30
-23.69499969482422
 70
   192
  0
VERTEX
  5
499
330
48F
100
AcDbEntity
  8
0
 62
     9
420
 12632256
100
AcDbFaceRecord
 10
0.0
 20
0.0
 30
0.0
 70
   128
 71
     3
 72
     2
 73
     1
  0
VERTEX
  5
49A
330
48F
100
AcDbEntity
  8
0
 62
     9
420
 12632256
100
AcDbFaceRecord
 10
0.0
 20
0.0
 30
0.0
 70
   128
 71
     5
 72
     4
 73
     1
  0
VERTEX
  5
49B
330
48F
100
AcDbEntity
  8
0
 62
     9
420
 12632256
100
AcDbFaceRecord
 10
0.0
 20
0.0
 30
0.0
 70
   128
 71
     7
 72
     6
 73
     4
  0
VERTEX
  5
49C
330
48F
100
AcDbEntity
  8
0
 62
     9
420
 12632256
100
AcDbFaceRecord
 10
0.0
 20
0.0
 30
0.0
 70
   128
 71
     1
 72
     8
 73
     3
  0
VERTEX
  5
49D
330
48F
100
AcDbEntity
  8
0
 62
     9
420
 12632256
100
AcDbFaceRecord
 10
0.0
 20
0.0
 30
0.0
 70
   128
 71
     4
 72
     5
 73
     7
  0
VERTEX
  5
49E
330
48F
100
AcDbEntity
  8
0
 62
     9
420
 12632256
100
AcDbFaceRecord
 10
0.0
 20
0.0
 30
0.0
 70
   128
 71
     1
 72
     2
 73
     5
  0
VERTEX
  5
49F
330
48F
100
AcDbEntity
  8
0
 62
     9
420
 12632256
100
AcDbFaceRecord
 10
0.0
 20
0.0
 30
0.0
 70
   128
 71
     1
 72
     9
 73
     8
  0
SEQEND
  5
4A0
330
48F
100
AcDbEntity
  8
0
 62
     9
420
 12632256
  0
ENDBLK
  5
4A3
330
48E
100
AcDbEntity
  8
0
100
AcDbBlockEnd
  0
BLOCK
  5
4B8
330
4A4
100
AcDbEntity
  8
0
100
AcDbBlockBegin
  2
e3_node(12)
 70
     0
 10
0.0
 20
0.0
 30
0.0
  3
e3_node(12)
  1

  0
POLYLINE
  5
4A5
330
4A4
100
AcDbEntity
  8
0
 62
     9
420
 12632256
100
AcDbPolyFaceMesh
 66
     1
 10
0.0
 20
0.0
 30
0.0
 70
    64
 71
     9
 72
     7
  0
VERTEX
  5
4A6
330
4A5
100
AcDbEntity
  8
0
100
AcDbVertex
100
AcDbPolyFaceMeshVertex
 10
9.0
 20
-13.52600002288818
 30
13.52600002288818
 70
   192
  0
VERTEX
  5
4A7
330
4A5
100
AcDbEntity
  8
0
100
AcDbVertex
100
AcDbPolyFaceMeshVertex
 10
9.0
 20
-4.951000213623047
 30
18.47699928283691
 70
   192
  0
VERTEX
  5
4A8
330
4A5
100
AcDbEntity
  8
0
100
AcDbVertex
100
AcDbPolyFaceMeshVertex
 10
1.475000023841858
 20
-11.84799957275391
 30
21.28400039672852
 70
   192
  0
VERTEX
  5
4A9
330
4A5
100
AcDbEntity
  8
0
100
AcDbVertex
100
AcDbPolyFaceMeshVertex
 10
1.865000009536743
 20
-15.88799953460693
 30
18.60000038146973
 70
   192
  0
VERTEX
  5
4AA
330
4A5
100
AcDbEntity
  8
0
100
AcDbVertex
100
AcDbPolyFaceMeshVertex
 10
2.321000099182129
 20
-6.348999977111816
 30
23.69499969482422
 70
   192
  0
VERTEX
  5
4AB
330
4A5
100
AcDbEntity
  8
0
100
AcDbVertex
100
AcDbPolyFaceMeshVertex
 10
1.496000051498413
 20
-10.8769998550415
 30
21.82600021362305
 70
   192
  0
VERTEX
  5
4AC
330
4A5
100
AcDbEntity
  8
0
100
AcDbVertex
100
AcDbPolyFaceMeshVertex
 10
2.059999942779541
 20
-16.59799957275391
 30
18.01300048828125
 70
   192
  0
VERTEX
  5
4AD
330
4A5
100
AcDbEntity
  8
0
100
AcDbVertex
100
AcDbPolyFaceMeshVertex
 10
1.45799994468689
 20
-11.66699981689453
 30
21.40299987792969
 70
   192
  0
VERTEX
  5
4AE
330
4A5
100
AcDbEntity
  8
0
100
AcDbVertex
100
AcDbPolyFaceMeshVertex
 10
2.321000099182129
 20
-17.34600067138672
 30
17.34600067138672
 70
   192
  0
VERTEX
  5
4AF
330
4A5
100
AcDbEntity
  8
0
 62
     9
420
 12632256
100
AcDbFaceRecord
 10
0.0
 20
0.0
 30
0.0
 70
   128
 71
     3
 72
     2
 73
     1
  0
VERTEX
  5
4B0
330
4A5
100
AcDbEntity
  8
0
 62
     9
420
 12632256
100
AcDbFaceRecord
 10
0.0
 20
0.0
 30
0.0
 70
   128
 71
     1
 72
     4
 73
     3
  0
VERTEX
  5
4B1
330
4A5
100
AcDbEntity
  8
0
 62
     9
420
 12632256
100
AcDbFaceRecord
 10
0.0
 20
0.0
 30
0.0
 70
   128
 71
     6
 72
     5
 73
     2
  0
VERTEX
  5
4B2
330
4A5
100
AcDbEntity
  8
0
 62
     9
420
 12632256
100
AcDbFaceRecord
 10
0.0
 20
0.0
 30
0.0
 70
   128
 71
     1
 72
     7
 73
     4
  0
VERTEX
  5
4B3
330
4A5
100
AcDbEntity
  8
0
 62
     9
420
 12632256
100
AcDbFaceRecord
 10
0.0
 20
0.0
 30
0.0
 70
   128
 71
     2
 72
     8
 73
     6
  0
VERTEX
  5
4B4
330
4A5
100
AcDbEntity
  8
0
 62
     9
420
 12632256
100
AcDbFaceRecord
 10
0.0
 20
0.0
 30
0.0
 70
   128
 71
     2
 72
     3
 73
     8
  0
VERTEX
  5
4B5
330
4A5
100
AcDbEntity
  8
0
 62
     9
420
 12632256
100
AcDbFaceRecord
 10
0.0
 20
0.0
 30
0.0
 70
   128
 71
     1
 72
     9
 73
     7
  0
SEQEND
  5
4B6
330
4A5
100
AcDbEntity
  8
0
 62
     9
420
 12632256
  0
ENDBLK
  5
4B9
330
4A4
100
AcDbEntity
  8
0
100
AcDbBlockEnd
  0
BLOCK
  5
4D0
330
4BA
100
AcDbEntity
  8
0
100
AcDbBlockBegin
  2
e3_node(13)
 70
     0
 10
0.0
 20
0.0
 30
0.0
  3
e3_node(13)
  1

  0
POLYLINE
  5
4BB
330
4BA
100
AcDbEntity
  8
0
 62
     9
420
 12632256
100
AcDbPolyFaceMesh
 66
     1
 10
0.0
 20
0.0
 30
0.0
 70
    64
 71
    10
 72
     8
  0
VERTEX
  5
4BC
330
4BB
100
AcDbEntity
  8
0
100
AcDbVertex
100
AcDbPolyFaceMeshVertex
 10
9.0
 20
-13.52600002288818
 30
-13.52600002288818
 70
   192
  0
VERTEX
  5
4BD
330
4BB
100
AcDbEntity
  8
0
100
AcDbVertex
100
AcDbPolyFaceMeshVertex
 10
9.0
 20
-18.47699928283691
 30
-4.951000213623047
 70
   192
  0
VERTEX
  5
4BE
330
4BB
100
AcDbEntity
  8
0
100
AcDbVertex
100
AcDbPolyFaceMeshVertex
 10
1.45799994468689
 20
-21.40299987792969
 30
-11.66699981689453
 70
   192
  0
VERTEX
  5
4BF
330
4BB
100
AcDbEntity
  8
0
100
AcDbVertex
100
AcDbPolyFaceMeshVertex
 10
1.865000009536743
 20
-18.60000038146973
 30
-15.88799953460693
 70
   192
  0
VERTEX
  5
4C0
330
4BB
100
AcDbEntity
  8
0
100
AcDbVertex
100
AcDbPolyFaceMeshVertex
 10
2.232000112533569
 20
-23.49200057983398
 30
-6.841000080108643
 70
   192
  0
VERTEX
  5
4C1
330
4BB
100
AcDbEntity
  8
0
100
AcDbVertex
100
AcDbPolyFaceMeshVertex
 10
1.496000051498413
 20
-21.82600021362305
 30
-10.8769998550415
 70
   192
  0
VERTEX
  5
4C2
330
4BB
100
AcDbEntity
  8
0
100
AcDbVertex
100
AcDbPolyFaceMeshVertex
 10
1.996999979019165
 20
-18.20199966430664
 30
-16.36899948120117
 70
   192
  0
VERTEX
  5
4C3
330
4BB
100
AcDbEntity
  8
0
100
AcDbVertex
100
AcDbPolyFaceMeshVertex
 10
2.059999942779541
 20
-18.01300048828125
 30
-16.59799957275391
 70
   192
  0
VERTEX
  5
4C4
330
4BB
100
AcDbEntity
  8
0
100
AcDbVertex
100
AcDbPolyFaceMeshVertex
 10
2.321000099182129
 20
-23.69499969482422
 30
-6.348999977111816
 70
   192
  0
VERTEX
  5
4C5
330
4BB
100
AcDbEntity
  8
0
100
AcDbVertex
100
AcDbPolyFaceMeshVertex
 10
2.321000099182129
 20
-17.34600067138672
 30
-17.34600067138672
 70
   192
  0
VERTEX
  5
4C6
330
4BB
100
AcDbEntity
  8
0
 62
     9
420
 12632256
100
AcDbFaceRecord
 10
0.0
 20
0.0
 30
0.0
 70
   128
 71
     3
 72
     2
 73
     1
  0
VERTEX
  5
4C7
330
4BB
100
AcDbEntity
  8
0
 62
     9
420
 12632256
100
AcDbFaceRecord
 10
0.0
 20
0.0
 30
0.0
 70
   128
 71
     1
 72
     4
 73
     3
  0
VERTEX
  5
4C8
330
4BB
100
AcDbEntity
  8
0
 62
     9
420
 12632256
100
AcDbFaceRecord
 10
0.0
 20
0.0
 30
0.0
 70
   128
 71
     6
 72
     5
 73
     2
  0
VERTEX
  5
4C9
330
4BB
100
AcDbEntity
  8
0
 62
     9
420
 12632256
100
AcDbFaceRecord
 10
0.0
 20
0.0
 30
0.0
 70
   128
 71
     2
 72
     3
 73
     6
  0
VERTEX
  5
4CA
330
4BB
100
AcDbEntity
  8
0
 62
     9
420
 12632256
100
AcDbFaceRecord
 10
0.0
 20
0.0
 30
0.0
 70
   128
 71
     8
 72
     7
 73
     1
  0
VERTEX
  5
4CB
330
4BB
100
AcDbEntity
  8
0
 62
     9
420
 12632256
100
AcDbFaceRecord
 10
0.0
 20
0.0
 30
0.0
 70
   128
 71
     5
 72
     9
 73
     2
  0
VERTEX
  5
4CC
330
4BB
100
AcDbEntity
  8
0
 62
     9
420
 12632256
100
AcDbFaceRecord
 10
0.0
 20
0.0
 30
0.0
 70
   128
 71
     1
 72
     7
 73
     4
  0
VERTEX
  5
4CD
330
4BB
100
AcDbEntity
  8
0
 62
     9
420
 12632256
100
AcDbFaceRecord
 10
0.0
 20
0.0
 30
0.0
 70
   128
 71
     1
 72
    10
 73
     8
  0
SEQEND
  5
4CE
330
4BB
100
AcDbEntity
  8
0
 62
     9
420
 12632256
  0
ENDBLK
  5
4D1
330
4BA
100
AcDbEntity
  8
0
100
AcDbBlockEnd
  0
BLOCK
  5
4E6
330
4D2
100
AcDbEntity
  8
0
100
AcDbBlockBegin
  2
e3_node(14)
 70
     0
 10
0.0
 20
0.0
 30
0.0
  3
e3_node(14)
  1

  0
POLYLINE
  5
4D3
330
4D2
100
AcDbEntity
  8
0
 62
     9
420
 12632256
100
AcDbPolyFaceMesh
 66
     1
 10
0.0
 20
0.0
 30
0.0
 70
    64
 71
     9
 72
     7
  0
VERTEX
  5
4D4
330
4D3
100
AcDbEntity
  8
0
100
AcDbVertex
100
AcDbPolyFaceMeshVertex
 10
9.0
 20
-18.47699928283691
 30
4.951000213623047
 70
   192
  0
VERTEX
  5
4D5
330
4D3
100
AcDbEntity
  8
0
100
AcDbVertex
100
AcDbPolyFaceMeshVertex
 10
1.45799994468689
 20
-20.80599975585938
 30
12.70199966430664
 70
   192
  0
VERTEX
  5
4D6
330
4D3
100
AcDbEntity
  8
0
100
AcDbVertex
100
AcDbPolyFaceMeshVertex
 10
1.865000009536743
 20
-23.05900001525879
 30
8.163999557495117
 70
   192
  0
VERTEX
  5
4D7
330
4D3
100
AcDbEntity
  8
0
100
AcDbVertex
100
AcDbPolyFaceMeshVertex
 10
1.615000009536743
 20
-19.90099906921387
 30
14.02400016784668
 70
   192
  0
VERTEX
  5
4D8
330
4D3
100
AcDbEntity
  8
0
100
AcDbVertex
100
AcDbPolyFaceMeshVertex
 10
1.496000051498413
 20
-20.33200073242188
 30
13.46300029754639
 70
   192
  0
VERTEX
  5
4D9
330
4D3
100
AcDbEntity
  8
0
100
AcDbVertex
100
AcDbPolyFaceMeshVertex
 10
2.059999942779541
 20
-23.38100051879883
 30
7.301000118255615
 70
   192
  0
VERTEX
  5
4DA
330
4D3
100
AcDbEntity
  8
0
100
AcDbVertex
100
AcDbPolyFaceMeshVertex
 10
9.0
 20
-13.52600002288818
 30
13.52600002288818
 70
   192
  0
VERTEX
  5
4DB
330
4D3
100
AcDbEntity
  8
0
100
AcDbVertex
100
AcDbPolyFaceMeshVertex
 10
2.321000099182129
 20
-17.34600067138672
 30
17.34600067138672
 70
   192
  0
VERTEX
  5
4DC
330
4D3
100
AcDbEntity
  8
0
100
AcDbVertex
100
AcDbPolyFaceMeshVertex
 10
2.321000099182129
 20
-23.69499969482422
 30
6.348999977111816
 70
   192
  0
VERTEX
  5
4DD
330
4D3
100
AcDbEntity
  8
0
 62
     9
420
 12632256
100
AcDbFaceRecord
 10
0.0
 20
0.0
 30
0.0
 70
   128
 71
     3
 72
     2
 73
     1
  0
VERTEX
  5
4DE
330
4D3
100
AcDbEntity
  8
0
 62
     9
420
 12632256
100
AcDbFaceRecord
 10
0.0
 20
0.0
 30
0.0
 70
   128
 71
     5
 72
     4
 73
     1
  0
VERTEX
  5
4DF
330
4D3
100
AcDbEntity
  8
0
 62
     9
420
 12632256
100
AcDbFaceRecord
 10
0.0
 20
0.0
 30
0.0
 70
   128
 71
     1
 72
     2
 73
     5
  0
VERTEX
  5
4E0
330
4D3
100
AcDbEntity
  8
0
 62
     9
420
 12632256
100
AcDbFaceRecord
 10
0.0
 20
0.0
 30
0.0
 70
   128
 71
     1
 72
     6
 73
     3
  0
VERTEX
  5
4E1
330
4D3
100
AcDbEntity
  8
0
 62
     9
420
 12632256
100
AcDbFaceRecord
 10
0.0
 20
0.0
 30
0.0
 70
   128
 71
     4
 72
     8
 73
     7
  0
VERTEX
  5
4E2
330
4D3
100
AcDbEntity
  8
0
 62
     9
420
 12632256
100
AcDbFaceRecord
 10
0.0
 20
0.0
 30
0.0
 70
   128
 71
     7
 72
     1
 73
     4
  0
VERTEX
  5
4E3
330
4D3
100
AcDbEntity
  8
0
 62
     9
420
 12632256
100
AcDbFaceRecord
 10
0.0
 20
0.0
 30
0.0
 70
   128
 71
     1
 72
     9
 73
     6
  0
SEQEND
  5
4E4
330
4D3
100
AcDbEntity
  8
0
 62
     9
420
 12632256
  0
ENDBLK
  5
4E7
330
4D2
100
AcDbEntity
  8
0
100
AcDbBlockEnd
  0
BLOCK
  5
4FC
330
4E8
100
AcDbEntity
  8
0
100
AcDbBlockBegin
  2
e3_node(15)
 70
     0
 10
0.0
 20
0.0
 30
0.0
  3
e3_node(15)
  1

  0
POLYLINE
  5
4E9
330
4E8
100
AcDbEntity
  8
0
 62
     9
420
 12632256
100
AcDbPolyFaceMesh
 66
     1
 10
0.0
 20
0.0
 30
0.0
 70
    64
 71
     9
 72
     7
  0
VERTEX
  5
4EA
330
4E9
100
AcDbEntity
  8
0
100
AcDbVertex
100
AcDbPolyFaceMeshVertex
 10
9.0
 20
-18.47699928283691
 30
-4.951000213623047
 70
   192
  0
VERTEX
  5
4EB
330
4E9
100
AcDbEntity
  8
0
100
AcDbVertex
100
AcDbPolyFaceMeshVertex
 10
9.0
 20
-18.47699928283691
 30
4.951000213623047
 70
   192
  0
VERTEX
  5
4EC
330
4E9
100
AcDbEntity
  8
0
100
AcDbVertex
100
AcDbPolyFaceMeshVertex
 10
1.45799994468689
 20
-24.3700008392334
 30
0.5979999899864197
 70
   192
  0
VERTEX
  5
4ED
330
4E9
100
AcDbEntity
  8
0
100
AcDbVertex
100
AcDbPolyFaceMeshVertex
 10
1.865000009536743
 20
-24.05200004577637
 30
-4.459000110626221
 70
   192
  0
VERTEX
  5
4EE
330
4E9
100
AcDbEntity
  8
0
100
AcDbVertex
100
AcDbPolyFaceMeshVertex
 10
1.922999978065491
 20
-24.00600051879883
 30
4.00600004196167
 70
   192
  0
VERTEX
  5
4EF
330
4E9
100
AcDbEntity
  8
0
100
AcDbVertex
100
AcDbPolyFaceMeshVertex
 10
1.496000051498413
 20
-24.34000015258789
 30
1.493000030517578
 70
   192
  0
VERTEX
  5
4F0
330
4E9
100
AcDbEntity
  8
0
100
AcDbVertex
100
AcDbPolyFaceMeshVertex
 10
2.059999942779541
 20
-23.89900016784668
 30
-5.368000030517578
 70
   192
  0
VERTEX
  5
4F1
330
4E9
100
AcDbEntity
  8
0
100
AcDbVertex
100
AcDbPolyFaceMeshVertex
 10
2.321000099182129
 20
-23.69499969482422
 30
6.348999977111816
 70
   192
  0
VERTEX
  5
4F2
330
4E9
100
AcDbEntity
  8
0
100
AcDbVertex
100
AcDbPolyFaceMeshVertex
 10
2.321000099182129
 20
-23.69499969482422
 30
-6.348999977111816
 70
   192
  0
VERTEX
  5
4F3
330
4E9
100
AcDbEntity
  8
0
 62
     9
420
 12632256
100
AcDbFaceRecord
 10
0.0
 20
0.0
 30
0.0
 70
   128
 71
     3
 72
     2
 73
     1
  0
VERTEX
  5
4F4
330
4E9
100
AcDbEntity
  8
0
 62
     9
420
 12632256
100
AcDbFaceRecord
 10
0.0
 20
0.0
 30
0.0
 70
   128
 71
     1
 72
     4
 73
     3
  0
VERTEX
  5
4F5
330
4E9
100
AcDbEntity
  8
0
 62
     9
420
 12632256
100
AcDbFaceRecord
 10
0.0
 20
0.0
 30
0.0
 70
   128
 71
     6
 72
     5
 73
     2
  0
VERTEX
  5
4F6
330
4E9
100
AcDbEntity
  8
0
 62
     9
420
 12632256
100
AcDbFaceRecord
 10
0.0
 20
0.0
 30
0.0
 70
   128
 71
     2
 72
     3
 73
     6
  0
VERTEX
  5
4F7
330
4E9
100
AcDbEntity
  8
0
 62
     9
420
 12632256
100
AcDbFaceRecord
 10
0.0
 20
0.0
 30
0.0
 70
   128
 71
     1
 72
     7
 73
     4
  0
VERTEX
  5
4F8
330
4E9
100
AcDbEntity
  8
0
 62
     9
420
 12632256
100
AcDbFaceRecord
 10
0.0
 20
0.0
 30
0.0
 70
   128
 71
     5
 72
     8
 73
     2
  0
VERTEX
  5
4F9
330
4E9
100
AcDbEntity
  8
0
 62
     9
420
 12632256
100
AcDbFaceRecord
 10
0.0
 20
0.0
 30
0.0
 70
   128
 71
     1
 72
     9
 73
     7
  0
SEQEND
  5
4FA
330
4E9
100
AcDbEntity
  8
0
 62
     9
420
 12632256
  0
ENDBLK
  5
4FD
330
4E8
100
AcDbEntity
  8
0
100
AcDbBlockEnd
  0
BLOCK
  5
53C
330
4FE
100
AcDbEntity
  8
0
100
AcDbBlockBegin
  2
e3_node(16)
 70
     0
 10
0.0
 20
0.0
 30
0.0
  3
e3_node(16)
  1

  0
POLYLINE
  5
4FF
330
4FE
100
AcDbEntity
  8
0
 62
     9
420
 12632256
100
AcDbPolyFaceMesh
 66
     1
 10
0.0
 20
0.0
 30
0.0
 70
    64
 71
    24
 72
    34
  0
VERTEX
  5
500
330
4FF
100
AcDbEntity
  8
0
100
AcDbVertex
100
AcDbPolyFaceMeshVertex
 10
65.6500015258789
 20
7.60099983215332
 30
-11.82699966430664
 70
   192
  0
VERTEX
  5
501
330
4FF
100
AcDbEntity
  8
0
100
AcDbVertex
100
AcDbPolyFaceMeshVertex
 10
68.89600372314453
 20
3.976999998092651
 30
-6.188000202178955
 70
   192
  0
VERTEX
  5
502
330
4FF
100
AcDbEntity
  8
0
100
AcDbVertex
100
AcDbPolyFaceMeshVertex
 10
68.89600372314453
 20
0.0
 30
-7.355999946594238
 70
   192
  0
VERTEX
  5
503
330
4FF
100
AcDbEntity
  8
0
100
AcDbVertex
100
AcDbPolyFaceMeshVertex
 10
65.6500015258789
 20
12.78800010681152
 30
-5.840000152587891
 70
   192
  0
VERTEX
  5
504
330
4FF
100
AcDbEntity
  8
0
100
AcDbVertex
100
AcDbPolyFaceMeshVertex
 10
68.89600372314453
 20
6.690999984741211
 30
-3.055999994277954
 70
   192
  0
VERTEX
  5
505
330
4FF
100
AcDbEntity
  8
0
100
AcDbVertex
100
AcDbPolyFaceMeshVertex
 10
65.6500015258789
 20
13.91499996185303
 30
2.000999927520752
 70
   192
  0
VERTEX
  5
506
330
4FF
100
AcDbEntity
  8
0
100
AcDbVertex
100
AcDbPolyFaceMeshVertex
 10
68.89600372314453
 20
7.281000137329102
 30
1.047000050544739
 70
   192
  0
VERTEX
  5
507
330
4FF
100
AcDbEntity
  8
0
100
AcDbVertex
100
AcDbPolyFaceMeshVertex
 10
65.6500015258789
 20
10.625
 30
9.206000328063965
 70
   192
  0
VERTEX
  5
508
330
4FF
100
AcDbEntity
  8
0
100
AcDbVertex
100
AcDbPolyFaceMeshVertex
 10
68.89600372314453
 20
5.559000015258789
 30
4.816999912261963
 70
   192
  0
VERTEX
  5
509
330
4FF
100
AcDbEntity
  8
0
100
AcDbVertex
100
AcDbPolyFaceMeshVertex
 10
65.6500015258789
 20
3.960999965667725
 30
13.48900032043457
 70
   192
  0
VERTEX
  5
50A
330
4FF
100
AcDbEntity
  8
0
100
AcDbVertex
100
AcDbPolyFaceMeshVertex
 10
68.89600372314453
 20
2.072000026702881
 30
7.058000087738037
 70
   192
  0
VERTEX
  5
50B
330
4FF
100
AcDbEntity
  8
0
100
AcDbVertex
100
AcDbPolyFaceMeshVertex
 10
65.6500015258789
 20
-3.960999965667725
 30
13.48900032043457
 70
   192
  0
VERTEX
  5
50C
330
4FF
100
AcDbEntity
  8
0
100
AcDbVertex
100
AcDbPolyFaceMeshVertex
 10
68.89600372314453
 20
-2.072000026702881
 30
7.058000087738037
 70
   192
  0
VERTEX
  5
50D
330
4FF
100
AcDbEntity
  8
0
100
AcDbVertex
100
AcDbPolyFaceMeshVertex
 10
65.6500015258789
 20
-10.625
 30
9.206000328063965
 70
   192
  0
VERTEX
  5
50E
330
4FF
100
AcDbEntity
  8
0
100
AcDbVertex
100
AcDbPolyFaceMeshVertex
 10
68.89600372314453
 20
-5.559000015258789
 30
4.816999912261963
 70
   192
  0
VERTEX
  5
50F
330
4FF
100
AcDbEntity
  8
0
100
AcDbVertex
100
AcDbPolyFaceMeshVertex
 10
65.6500015258789
 20
-13.91499996185303
 30
2.000999927520752
 70
   192
  0
VERTEX
  5
510
330
4FF
100
AcDbEntity
  8
0
100
AcDbVertex
100
AcDbPolyFaceMeshVertex
 10
68.89600372314453
 20
-7.281000137329102
 30
1.047000050544739
 70
   192
  0
VERTEX
  5
511
330
4FF
100
AcDbEntity
  8
0
100
AcDbVertex
100
AcDbPolyFaceMeshVertex
 10
65.6500015258789
 20
-14.05900001525879
 30
0.0
 70
   192
  0
VERTEX
  5
512
330
4FF
100
AcDbEntity
  8
0
100
AcDbVertex
100
AcDbPolyFaceMeshVertex
 10
65.6500015258789
 20
-12.78800010681152
 30
-5.840000152587891
 70
   192
  0
VERTEX
  5
513
330
4FF
100
AcDbEntity
  8
0
100
AcDbVertex
100
AcDbPolyFaceMeshVertex
 10
68.89600372314453
 20
-6.690999984741211
 30
-3.055999994277954
 70
   192
  0
VERTEX
  5
514
330
4FF
100
AcDbEntity
  8
0
100
AcDbVertex
100
AcDbPolyFaceMeshVertex
 10
65.6500015258789
 20
-7.60099983215332
 30
-11.82699966430664
 70
   192
  0
VERTEX
  5
515
330
4FF
100
AcDbEntity
  8
0
100
AcDbVertex
100
AcDbPolyFaceMeshVertex
 10
68.89600372314453
 20
-3.976999998092651
 30
-6.188000202178955
 70
   192
  0
VERTEX
  5
516
330
4FF
100
AcDbEntity
  8
0
100
AcDbVertex
100
AcDbPolyFaceMeshVertex
 10
65.6500015258789
 20
0.0
 30
-14.05900001525879
 70
   192
  0
VERTEX
  5
517
330
4FF
100
AcDbEntity
  8
0
100
AcDbVertex
100
AcDbPolyFaceMeshVertex
 10
70.05699920654297
 20
0.0
 30
0.0
 70
   192
  0
VERTEX
  5
518
330
4FF
100
AcDbEntity
  8
0
 62
     9
420
 12632256
100
AcDbFaceRecord
 10
0.0
 20
0.0
 30
0.0
 70
   128
 71
     3
 72
     2
 73
     1
  0
VERTEX
  5
519
330
4FF
100
AcDbEntity
  8
0
 62
     9
420
 12632256
100
AcDbFaceRecord
 10
0.0
 20
0.0
 30
0.0
 70
   128
 71
     5
 72
     4
 73
     1
  0
VERTEX
  5
51A
330
4FF
100
AcDbEntity
  8
0
 62
     9
420
 12632256
100
AcDbFaceRecord
 10
0.0
 20
0.0
 30
0.0
 70
   128
 71
     7
 72
     6
 73
     4
  0
VERTEX
  5
51B
330
4FF
100
AcDbEntity
  8
0
 62
     9
420
 12632256
100
AcDbFaceRecord
 10
0.0
 20
0.0
 30
0.0
 70
   128
 71
     7
 72
     9
 73
     8
  0
VERTEX
  5
51C
330
4FF
100
AcDbEntity
  8
0
 62
     9
420
 12632256
100
AcDbFaceRecord
 10
0.0
 20
0.0
 30
0.0
 70
   128
 71
    11
 72
    10
 73
     8
  0
VERTEX
  5
51D
330
4FF
100
AcDbEntity
  8
0
 62
     9
420
 12632256
100
AcDbFaceRecord
 10
0.0
 20
0.0
 30
0.0
 70
   128
 71
    13
 72
    12
 73
    10
  0
VERTEX
  5
51E
330
4FF
100
AcDbEntity
  8
0
 62
     9
420
 12632256
100
AcDbFaceRecord
 10
0.0
 20
0.0
 30
0.0
 70
   128
 71
    15
 72
    14
 73
    12
  0
VERTEX
  5
51F
330
4FF
100
AcDbEntity
  8
0
 62
     9
420
 12632256
100
AcDbFaceRecord
 10
0.0
 20
0.0
 30
0.0
 70
   128
 71
    15
 72
    17
 73
    16
  0
VERTEX
  5
520
330
4FF
100
AcDbEntity
  8
0
 62
     9
420
 12632256
100
AcDbFaceRecord
 10
0.0
 20
0.0
 30
0.0
 70
   128
 71
    20
 72
    19
 73
    18
  0
VERTEX
  5
521
330
4FF
100
AcDbEntity
  8
0
 62
     9
420
 12632256
100
AcDbFaceRecord
 10
0.0
 20
0.0
 30
0.0
 70
   128
 71
    18
 72
    16
 73
    17
  0
VERTEX
  5
522
330
4FF
100
AcDbEntity
  8
0
 62
     9
420
 12632256
100
AcDbFaceRecord
 10
0.0
 20
0.0
 30
0.0
 70
   128
 71
    22
 72
    21
 73
    19
  0
VERTEX
  5
523
330
4FF
100
AcDbEntity
  8
0
 62
     9
420
 12632256
100
AcDbFaceRecord
 10
0.0
 20
0.0
 30
0.0
 70
   128
 71
     3
 72
    23
 73
    21
  0
VERTEX
  5
524
330
4FF
100
AcDbEntity
  8
0
 62
     9
420
 12632256
100
AcDbFaceRecord
 10
0.0
 20
0.0
 30
0.0
 70
   128
 71
     3
 72
    22
 73
    24
  0
VERTEX
  5
525
330
4FF
100
AcDbEntity
  8
0
 62
     9
420
 12632256
100
AcDbFaceRecord
 10
0.0
 20
0.0
 30
0.0
 70
   128
 71
    22
 72
    20
 73
    24
  0
VERTEX
  5
526
330
4FF
100
AcDbEntity
  8
0
 62
     9
420
 12632256
100
AcDbFaceRecord
 10
0.0
 20
0.0
 30
0.0
 70
   128
 71
    20
 72
    17
 73
    24
  0
VERTEX
  5
527
330
4FF
100
AcDbEntity
  8
0
 62
     9
420
 12632256
100
AcDbFaceRecord
 10
0.0
 20
0.0
 30
0.0
 70
   128
 71
    17
 72
    15
 73
    24
  0
VERTEX
  5
528
330
4FF
100
AcDbEntity
  8
0
 62
     9
420
 12632256
100
AcDbFaceRecord
 10
0.0
 20
0.0
 30
0.0
 70
   128
 71
    15
 72
    13
 73
    24
  0
VERTEX
  5
529
330
4FF
100
AcDbEntity
  8
0
 62
     9
420
 12632256
100
AcDbFaceRecord
 10
0.0
 20
0.0
 30
0.0
 70
   128
 71
    13
 72
    11
 73
    24
  0
VERTEX
  5
52A
330
4FF
100
AcDbEntity
  8
0
 62
     9
420
 12632256
100
AcDbFaceRecord
 10
0.0
 20
0.0
 30
0.0
 70
   128
 71
    11
 72
     9
 73
    24
  0
VERTEX
  5
52B
330
4FF
100
AcDbEntity
  8
0
 62
     9
420
 12632256
100
AcDbFaceRecord
 10
0.0
 20
0.0
 30
0.0
 70
   128
 71
     9
 72
     7
 73
    24
  0
VERTEX
  5
52C
330
4FF
100
AcDbEntity
  8
0
 62
     9
420
 12632256
100
AcDbFaceRecord
 10
0.0
 20
0.0
 30
0.0
 70
   128
 71
     7
 72
     5
 73
    24
  0
VERTEX
  5
52D
330
4FF
100
AcDbEntity
  8
0
 62
     9
420
 12632256
100
AcDbFaceRecord
 10
0.0
 20
0.0
 30
0.0
 70
   128
 71
     5
 72
     2
 73
    24
  0
VERTEX
  5
52E
330
4FF
100
AcDbEntity
  8
0
 62
     9
420
 12632256
100
AcDbFaceRecord
 10
0.0
 20
0.0
 30
0.0
 70
   128
 71
     2
 72
     3
 73
    24
  0
VERTEX
  5
52F
330
4FF
100
AcDbEntity
  8
0
 62
     9
420
 12632256
100
AcDbFaceRecord
 10
0.0
 20
0.0
 30
0.0
 70
   128
 71
    21
 72
    22
 73
     3
  0
VERTEX
  5
530
330
4FF
100
AcDbEntity
  8
0
 62
     9
420
 12632256
100
AcDbFaceRecord
 10
0.0
 20
0.0
 30
0.0
 70
   128
 71
    19
 72
    20
 73
    22
  0
VERTEX
  5
531
330
4FF
100
AcDbEntity
  8
0
 62
     9
420
 12632256
100
AcDbFaceRecord
 10
0.0
 20
0.0
 30
0.0
 70
   128
 71
    18
 72
    17
 73
    20
  0
VERTEX
  5
532
330
4FF
100
AcDbEntity
  8
0
 62
     9
420
 12632256
100
AcDbFaceRecord
 10
0.0
 20
0.0
 30
0.0
 70
   128
 71
    16
 72
    14
 73
    15
  0
VERTEX
  5
533
330
4FF
100
AcDbEntity
  8
0
 62
     9
420
 12632256
100
AcDbFaceRecord
 10
0.0
 20
0.0
 30
0.0
 70
   128
 71
    12
 72
    13
 73
    15
  0
VERTEX
  5
534
330
4FF
100
AcDbEntity
  8
0
 62
     9
420
 12632256
100
AcDbFaceRecord
 10
0.0
 20
0.0
 30
0.0
 70
   128
 71
    10
 72
    11
 73
    13
  0
VERTEX
  5
535
330
4FF
100
AcDbEntity
  8
0
 62
     9
420
 12632256
100
AcDbFaceRecord
 10
0.0
 20
0.0
 30
0.0
 70
   128
 71
     8
 72
     9
 73
    11
  0
VERTEX
  5
536
330
4FF
100
AcDbEntity
  8
0
 62
     9
420
 12632256
100
AcDbFaceRecord
 10
0.0
 20
0.0
 30
0.0
 70
   128
 71
     8
 72
     6
 73
     7
  0
VERTEX
  5
537
330
4FF
100
AcDbEntity
  8
0
 62
     9
420
 12632256
100
AcDbFaceRecord
 10
0.0
 20
0.0
 30
0.0
 70
   128
 71
     4
 72
     5
 73
     7
  0
VERTEX
  5
538
330
4FF
100
AcDbEntity
  8
0
 62
     9
420
 12632256
100
AcDbFaceRecord
 10
0.0
 20
0.0
 30
0.0
 70
   128
 71
     1
 72
     2
 73
     5
  0
VERTEX
  5
539
330
4FF
100
AcDbEntity
  8
0
 62
     9
420
 12632256
100
AcDbFaceRecord
 10
0.0
 20
0.0
 30
0.0
 70
   128
 71
     1
 72
    23
 73
     3
  0
SEQEND
  5
53A
330
4FF
100
AcDbEntity
  8
0
 62
     9
420
 12632256
  0
ENDBLK
  5
53D
330
4FE
100
AcDbEntity
  8
0
100
AcDbBlockEnd
  0
BLOCK
  5
593
330
53E
100
AcDbEntity
  8
0
100
AcDbBlockBegin
  2
e3_node(17)
 70
     0
 10
0.0
 20
0.0
 30
0.0
  3
e3_node(17)
  1

  0
POLYLINE
  5
53F
330
53E
100
AcDbEntity
  8
0
 62
     9
420
 12632256
100
AcDbPolyFaceMesh
 66
     1
 10
0.0
 20
0.0
 30
0.0
 70
    64
 71
    35
 72
    46
  0
VERTEX
  5
540
330
53F
100
AcDbEntity
  8
0
100
AcDbVertex
100
AcDbPolyFaceMeshVertex
 10
56.68099975585938
 20
0.0
 30
-11.26399993896484
 70
   192
  0
VERTEX
  5
541
330
53F
100
AcDbEntity
  8
0
100
AcDbVertex
100
AcDbPolyFaceMeshVertex
 10
47.40000152587891
 20
0.0
 30
-9.803000450134277
 70
   192
  0
VERTEX
  5
542
330
53F
100
AcDbEntity
  8
0
100
AcDbVertex
100
AcDbPolyFaceMeshVertex
 10
47.40000152587891
 20
5.300000190734863
 30
-8.246000289916992
 70
   192
  0
VERTEX
  5
543
330
53F
100
AcDbEntity
  8
0
100
AcDbVertex
100
AcDbPolyFaceMeshVertex
 10
56.68099975585938
 20
10.24600028991699
 30
-4.678999900817871
 70
   192
  0
VERTEX
  5
544
330
53F
100
AcDbEntity
  8
0
100
AcDbVertex
100
AcDbPolyFaceMeshVertex
 10
56.68099975585938
 20
6.090000152587891
 30
-9.47599983215332
 70
   192
  0
VERTEX
  5
545
330
53F
100
AcDbEntity
  8
0
100
AcDbVertex
100
AcDbPolyFaceMeshVertex
 10
47.40000152587891
 20
8.916999816894531
 30
-4.072000026702881
 70
   192
  0
VERTEX
  5
546
330
53F
100
AcDbEntity
  8
0
100
AcDbVertex
100
AcDbPolyFaceMeshVertex
 10
47.40000152587891
 20
9.70300006866455
 30
1.394999980926514
 70
   192
  0
VERTEX
  5
547
330
53F
100
AcDbEntity
  8
0
100
AcDbVertex
100
AcDbPolyFaceMeshVertex
 10
56.68099975585938
 20
8.512999534606934
 30
7.375999927520752
 70
   192
  0
VERTEX
  5
548
330
53F
100
AcDbEntity
  8
0
100
AcDbVertex
100
AcDbPolyFaceMeshVertex
 10
56.68099975585938
 20
11.14900016784668
 30
1.603000044822693
 70
   192
  0
VERTEX
  5
549
330
53F
100
AcDbEntity
  8
0
100
AcDbVertex
100
AcDbPolyFaceMeshVertex
 10
56.68099975585938
 20
3.17300009727478
 30
10.80799961090088
 70
   192
  0
VERTEX
  5
54A
330
53F
100
AcDbEntity
  8
0
100
AcDbVertex
100
AcDbPolyFaceMeshVertex
 10
47.40000152587891
 20
7.407999992370605
 30
6.419000148773193
 70
   192
  0
VERTEX
  5
54B
330
53F
100
AcDbEntity
  8
0
100
AcDbVertex
100
AcDbPolyFaceMeshVertex
 10
47.40000152587891
 20
2.76200008392334
 30
9.404999732971191
 70
   192
  0
VERTEX
  5
54C
330
53F
100
AcDbEntity
  8
0
100
AcDbVertex
100
AcDbPolyFaceMeshVertex
 10
47.40000152587891
 20
-2.76200008392334
 30
9.404999732971191
 70
   192
  0
VERTEX
  5
54D
330
53F
100
AcDbEntity
  8
0
100
AcDbVertex
100
AcDbPolyFaceMeshVertex
 10
56.68099975585938
 20
-8.512999534606934
 30
7.375999927520752
 70
   192
  0
VERTEX
  5
54E
330
53F
100
AcDbEntity
  8
0
100
AcDbVertex
100
AcDbPolyFaceMeshVertex
 10
56.68099975585938
 20
-3.17300009727478
 30
10.80799961090088
 70
   192
  0
VERTEX
  5
54F
330
53F
100
AcDbEntity
  8
0
100
AcDbVertex
100
AcDbPolyFaceMeshVertex
 10
47.40000152587891
 20
-7.407999992370605
 30
6.419000148773193
 70
   192
  0
VERTEX
  5
550
330
53F
100
AcDbEntity
  8
0
100
AcDbVertex
100
AcDbPolyFaceMeshVertex
 10
47.40000152587891
 20
-9.70300006866455
 30
1.394999980926514
 70
   192
  0
VERTEX
  5
551
330
53F
100
AcDbEntity
  8
0
100
AcDbVertex
100
AcDbPolyFaceMeshVertex
 10
56.68099975585938
 20
-10.24600028991699
 30
-4.678999900817871
 70
   192
  0
VERTEX
  5
552
330
53F
100
AcDbEntity
  8
0
100
AcDbVertex
100
AcDbPolyFaceMeshVertex
 10
56.68099975585938
 20
-11.14900016784668
 30
1.603000044822693
 70
   192
  0
VERTEX
  5
553
330
53F
100
AcDbEntity
  8
0
100
AcDbVertex
100
AcDbPolyFaceMeshVertex
 10
47.40000152587891
 20
-9.803000450134277
 30
0.0
 70
   192
  0
VERTEX
  5
554
330
53F
100
AcDbEntity
  8
0
100
AcDbVertex
100
AcDbPolyFaceMeshVertex
 10
47.40000152587891
 20
-8.916999816894531
 30
-4.072000026702881
 70
   192
  0
VERTEX
  5
555
330
53F
100
AcDbEntity
  8
0
100
AcDbVertex
100
AcDbPolyFaceMeshVertex
 10
47.40000152587891
 20
-5.300000190734863
 30
-8.246000289916992
 70
   192
  0
VERTEX
  5
556
330
53F
100
AcDbEntity
  8
0
100
AcDbVertex
100
AcDbPolyFaceMeshVertex
 10
56.68099975585938
 20
-6.090000152587891
 30
-9.47599983215332
 70
   192
  0
VERTEX
  5
557
330
53F
100
AcDbEntity
  8
0
100
AcDbVertex
100
AcDbPolyFaceMeshVertex
 10
65.6500015258789
 20
0.0
 30
-14.05900001525879
 70
   192
  0
VERTEX
  5
558
330
53F
100
AcDbEntity
  8
0
100
AcDbVertex
100
AcDbPolyFaceMeshVertex
 10
65.6500015258789
 20
12.78800010681152
 30
-5.840000152587891
 70
   192
  0
VERTEX
  5
559
330
53F
100
AcDbEntity
  8
0
100
AcDbVertex
100
AcDbPolyFaceMeshVertex
 10
65.6500015258789
 20
7.60099983215332
 30
-11.82699966430664
 70
   192
  0
VERTEX
  5
55A
330
53F
100
AcDbEntity
  8
0
100
AcDbVertex
100
AcDbPolyFaceMeshVertex
 10
65.6500015258789
 20
10.625
 30
9.206000328063965
 70
   192
  0
VERTEX
  5
55B
330
53F
100
AcDbEntity
  8
0
100
AcDbVertex
100
AcDbPolyFaceMeshVertex
 10
65.6500015258789
 20
13.91499996185303
 30
2.000999927520752
 70
   192
  0
VERTEX
  5
55C
330
53F
100
AcDbEntity
  8
0
100
AcDbVertex
100
AcDbPolyFaceMeshVertex
 10
65.6500015258789
 20
-3.960999965667725
 30
13.48900032043457
 70
   192
  0
VERTEX
  5
55D
330
53F
100
AcDbEntity
  8
0
100
AcDbVertex
100
AcDbPolyFaceMeshVertex
 10
65.6500015258789
 20
3.960999965667725
 30
13.48900032043457
 70
   192
  0
VERTEX
  5
55E
330
53F
100
AcDbEntity
  8
0
100
AcDbVertex
100
AcDbPolyFaceMeshVertex
 10
65.6500015258789
 20
-10.625
 30
9.206000328063965
 70
   192
  0
VERTEX
  5
55F
330
53F
100
AcDbEntity
  8
0
100
AcDbVertex
100
AcDbPolyFaceMeshVertex
 10
65.6500015258789
 20
-12.78800010681152
 30
-5.840000152587891
 70
   192
  0
VERTEX
  5
560
330
53F
100
AcDbEntity
  8
0
100
AcDbVertex
100
AcDbPolyFaceMeshVertex
 10
65.6500015258789
 20
-14.05900001525879
 30
0.0
 70
   192
  0
VERTEX
  5
561
330
53F
100
AcDbEntity
  8
0
100
AcDbVertex
100
AcDbPolyFaceMeshVertex
 10
65.6500015258789
 20
-7.60099983215332
 30
-11.82699966430664
 70
   192
  0
VERTEX
  5
562
330
53F
100
AcDbEntity
  8
0
100
AcDbVertex
100
AcDbPolyFaceMeshVertex
 10
65.6500015258789
 20
-13.91499996185303
 30
2.000999927520752
 70
   192
  0
VERTEX
  5
563
330
53F
100
AcDbEntity
  8
0
 62
     9
420
 12632256
100
AcDbFaceRecord
 10
0.0
 20
0.0
 30
0.0
 70
   128
 71
     3
 72
     2
 73
     1
  0
VERTEX
  5
564
330
53F
100
AcDbEntity
  8
0
 62
     9
420
 12632256
100
AcDbFaceRecord
 10
0.0
 20
0.0
 30
0.0
 70
   128
 71
     3
 72
     5
 73
     4
  0
VERTEX
  5
565
330
53F
100
AcDbEntity
  8
0
 62
     9
420
 12632256
100
AcDbFaceRecord
 10
0.0
 20
0.0
 30
0.0
 70
   128
 71
     7
 72
     6
 73
     4
  0
VERTEX
  5
566
330
53F
100
AcDbEntity
  8
0
 62
     9
420
 12632256
100
AcDbFaceRecord
 10
0.0
 20
0.0
 30
0.0
 70
   128
 71
     7
 72
     9
 73
     8
  0
VERTEX
  5
567
330
53F
100
AcDbEntity
  8
0
 62
     9
420
 12632256
100
AcDbFaceRecord
 10
0.0
 20
0.0
 30
0.0
 70
   128
 71
    11
 72
     8
 73
    10
  0
VERTEX
  5
568
330
53F
100
AcDbEntity
  8
0
 62
     9
420
 12632256
100
AcDbFaceRecord
 10
0.0
 20
0.0
 30
0.0
 70
   128
 71
    13
 72
    12
 73
    10
  0
VERTEX
  5
569
330
53F
100
AcDbEntity
  8
0
 62
     9
420
 12632256
100
AcDbFaceRecord
 10
0.0
 20
0.0
 30
0.0
 70
   128
 71
    13
 72
    15
 73
    14
  0
VERTEX
  5
56A
330
53F
100
AcDbEntity
  8
0
 62
     9
420
 12632256
100
AcDbFaceRecord
 10
0.0
 20
0.0
 30
0.0
 70
   128
 71
    17
 72
    16
 73
    14
  0
VERTEX
  5
56B
330
53F
100
AcDbEntity
  8
0
 62
     9
420
 12632256
100
AcDbFaceRecord
 10
0.0
 20
0.0
 30
0.0
 70
   128
 71
    20
 72
    19
 73
    18
  0
VERTEX
  5
56C
330
53F
100
AcDbEntity
  8
0
 62
     9
420
 12632256
100
AcDbFaceRecord
 10
0.0
 20
0.0
 30
0.0
 70
   128
 71
    20
 72
    17
 73
    19
  0
VERTEX
  5
56D
330
53F
100
AcDbEntity
  8
0
 62
     9
420
 12632256
100
AcDbFaceRecord
 10
0.0
 20
0.0
 30
0.0
 70
   128
 71
    22
 72
    21
 73
    18
  0
VERTEX
  5
56E
330
53F
100
AcDbEntity
  8
0
 62
     9
420
 12632256
100
AcDbFaceRecord
 10
0.0
 20
0.0
 30
0.0
 70
   128
 71
    22
 72
    23
 73
     1
  0
VERTEX
  5
56F
330
53F
100
AcDbEntity
  8
0
 62
     9
420
 12632256
100
AcDbFaceRecord
 10
0.0
 20
0.0
 30
0.0
 70
   128
 71
     5
 72
     1
 73
    24
  0
VERTEX
  5
570
330
53F
100
AcDbEntity
  8
0
 62
     9
420
 12632256
100
AcDbFaceRecord
 10
0.0
 20
0.0
 30
0.0
 70
   128
 71
     5
 72
    26
 73
    25
  0
VERTEX
  5
571
330
53F
100
AcDbEntity
  8
0
 62
     9
420
 12632256
100
AcDbFaceRecord
 10
0.0
 20
0.0
 30
0.0
 70
   128
 71
     9
 72
     4
 73
    25
  0
VERTEX
  5
572
330
53F
100
AcDbEntity
  8
0
 62
     9
420
 12632256
100
AcDbFaceRecord
 10
0.0
 20
0.0
 30
0.0
 70
   128
 71
     9
 72
    28
 73
    27
  0
VERTEX
  5
573
330
53F
100
AcDbEntity
  8
0
 62
     9
420
 12632256
100
AcDbFaceRecord
 10
0.0
 20
0.0
 30
0.0
 70
   128
 71
    10
 72
     8
 73
    27
  0
VERTEX
  5
574
330
53F
100
AcDbEntity
  8
0
 62
     9
420
 12632256
100
AcDbFaceRecord
 10
0.0
 20
0.0
 30
0.0
 70
   128
 71
    10
 72
    30
 73
    29
  0
VERTEX
  5
575
330
53F
100
AcDbEntity
  8
0
 62
     9
420
 12632256
100
AcDbFaceRecord
 10
0.0
 20
0.0
 30
0.0
 70
   128
 71
    15
 72
    29
 73
    31
  0
VERTEX
  5
576
330
53F
100
AcDbEntity
  8
0
 62
     9
420
 12632256
100
AcDbFaceRecord
 10
0.0
 20
0.0
 30
0.0
 70
   128
 71
    19
 72
    14
 73
    31
  0
VERTEX
  5
577
330
53F
100
AcDbEntity
  8
0
 62
     9
420
 12632256
100
AcDbFaceRecord
 10
0.0
 20
0.0
 30
0.0
 70
   128
 71
    33
 72
    32
 73
    18
  0
VERTEX
  5
578
330
53F
100
AcDbEntity
  8
0
 62
     9
420
 12632256
100
AcDbFaceRecord
 10
0.0
 20
0.0
 30
0.0
 70
   128
 71
    18
 72
    19
 73
    33
  0
VERTEX
  5
579
330
53F
100
AcDbEntity
  8
0
 62
     9
420
 12632256
100
AcDbFaceRecord
 10
0.0
 20
0.0
 30
0.0
 70
   128
 71
    18
 72
    32
 73
    34
  0
VERTEX
  5
57A
330
53F
100
AcDbEntity
  8
0
 62
     9
420
 12632256
100
AcDbFaceRecord
 10
0.0
 20
0.0
 30
0.0
 70
   128
 71
     1
 72
    23
 73
    34
  0
VERTEX
  5
57B
330
53F
100
AcDbEntity
  8
0
 62
     9
420
 12632256
100
AcDbFaceRecord
 10
0.0
 20
0.0
 30
0.0
 70
   128
 71
    34
 72
    24
 73
     1
  0
VERTEX
  5
57C
330
53F
100
AcDbEntity
  8
0
 62
     9
420
 12632256
100
AcDbFaceRecord
 10
0.0
 20
0.0
 30
0.0
 70
   128
 71
    34
 72
    23
 73
    18
  0
VERTEX
  5
57D
330
53F
100
AcDbEntity
  8
0
 62
     9
420
 12632256
100
AcDbFaceRecord
 10
0.0
 20
0.0
 30
0.0
 70
   128
 71
    19
 72
    35
 73
    33
  0
VERTEX
  5
57E
330
53F
100
AcDbEntity
  8
0
 62
     9
420
 12632256
100
AcDbFaceRecord
 10
0.0
 20
0.0
 30
0.0
 70
   128
 71
    31
 72
    35
 73
    19
  0
VERTEX
  5
57F
330
53F
100
AcDbEntity
  8
0
 62
     9
420
 12632256
100
AcDbFaceRecord
 10
0.0
 20
0.0
 30
0.0
 70
   128
 71
    31
 72
    14
 73
    15
  0
VERTEX
  5
580
330
53F
100
AcDbEntity
  8
0
 62
     9
420
 12632256
100
AcDbFaceRecord
 10
0.0
 20
0.0
 30
0.0
 70
   128
 71
    29
 72
    15
 73
    10
  0
VERTEX
  5
581
330
53F
100
AcDbEntity
  8
0
 62
     9
420
 12632256
100
AcDbFaceRecord
 10
0.0
 20
0.0
 30
0.0
 70
   128
 71
    27
 72
    30
 73
    10
  0
VERTEX
  5
582
330
53F
100
AcDbEntity
  8
0
 62
     9
420
 12632256
100
AcDbFaceRecord
 10
0.0
 20
0.0
 30
0.0
 70
   128
 71
    27
 72
     8
 73
     9
  0
VERTEX
  5
583
330
53F
100
AcDbEntity
  8
0
 62
     9
420
 12632256
100
AcDbFaceRecord
 10
0.0
 20
0.0
 30
0.0
 70
   128
 71
    25
 72
    28
 73
     9
  0
VERTEX
  5
584
330
53F
100
AcDbEntity
  8
0
 62
     9
420
 12632256
100
AcDbFaceRecord
 10
0.0
 20
0.0
 30
0.0
 70
   128
 71
    25
 72
     4
 73
     5
  0
VERTEX
  5
585
330
53F
100
AcDbEntity
  8
0
 62
     9
420
 12632256
100
AcDbFaceRecord
 10
0.0
 20
0.0
 30
0.0
 70
   128
 71
    24
 72
    26
 73
     5
  0
VERTEX
  5
586
330
53F
100
AcDbEntity
  8
0
 62
     9
420
 12632256
100
AcDbFaceRecord
 10
0.0
 20
0.0
 30
0.0
 70
   128
 71
     1
 72
     2
 73
    22
  0
VERTEX
  5
587
330
53F
100
AcDbEntity
  8
0
 62
     9
420
 12632256
100
AcDbFaceRecord
 10
0.0
 20
0.0
 30
0.0
 70
   128
 71
    18
 72
    23
 73
    22
  0
VERTEX
  5
588
330
53F
100
AcDbEntity
  8
0
 62
     9
420
 12632256
100
AcDbFaceRecord
 10
0.0
 20
0.0
 30
0.0
 70
   128
 71
    18
 72
    21
 73
    20
  0
VERTEX
  5
589
330
53F
100
AcDbEntity
  8
0
 62
     9
420
 12632256
100
AcDbFaceRecord
 10
0.0
 20
0.0
 30
0.0
 70
   128
 71
    14
 72
    19
 73
    17
  0
VERTEX
  5
58A
330
53F
100
AcDbEntity
  8
0
 62
     9
420
 12632256
100
AcDbFaceRecord
 10
0.0
 20
0.0
 30
0.0
 70
   128
 71
    14
 72
    16
 73
    13
  0
VERTEX
  5
58B
330
53F
100
AcDbEntity
  8
0
 62
     9
420
 12632256
100
AcDbFaceRecord
 10
0.0
 20
0.0
 30
0.0
 70
   128
 71
    10
 72
    15
 73
    13
  0
VERTEX
  5
58C
330
53F
100
AcDbEntity
  8
0
 62
     9
420
 12632256
100
AcDbFaceRecord
 10
0.0
 20
0.0
 30
0.0
 70
   128
 71
    10
 72
    12
 73
    11
  0
VERTEX
  5
58D
330
53F
100
AcDbEntity
  8
0
 62
     9
420
 12632256
100
AcDbFaceRecord
 10
0.0
 20
0.0
 30
0.0
 70
   128
 71
     8
 72
    11
 73
     7
  0
VERTEX
  5
58E
330
53F
100
AcDbEntity
  8
0
 62
     9
420
 12632256
100
AcDbFaceRecord
 10
0.0
 20
0.0
 30
0.0
 70
   128
 71
     4
 72
     9
 73
     7
  0
VERTEX
  5
58F
330
53F
100
AcDbEntity
  8
0
 62
     9
420
 12632256
100
AcDbFaceRecord
 10
0.0
 20
0.0
 30
0.0
 70
   128
 71
     4
 72
     6
 73
     3
  0
VERTEX
  5
590
330
53F
100
AcDbEntity
  8
0
 62
     9
420
 12632256
100
AcDbFaceRecord
 10
0.0
 20
0.0
 30
0.0
 70
   128
 71
     1
 72
     5
 73
     3
  0
SEQEND
  5
591
330
53F
100
AcDbEntity
  8
0
 62
     9
420
 12632256
  0
ENDBLK
  5
594
330
53E
100
AcDbEntity
  8
0
100
AcDbBlockEnd
  0
BLOCK
  5
611
330
595
100
AcDbEntity
  8
0
100
AcDbBlockBegin
  2
e3_node(18)
 70
     0
 10
0.0
 20
0.0
 30
0.0
  3
e3_node(18)
  1

  0
POLYLINE
  5
596
330
595
100
AcDbEntity
  8
0
 62
     9
420
 12632256
100
AcDbPolyFaceMesh
 66
     1
 10
0.0
 20
0.0
 30
0.0
 70
    64
 71
    48
 72
    72
  0
VERTEX
  5
597
330
596
100
AcDbEntity
  8
0
100
AcDbVertex
100
AcDbPolyFaceMeshVertex
 10
9.0
 20
18.61100006103516
 30
0.0
 70
   192
  0
VERTEX
  5
598
330
596
100
AcDbEntity
  8
0
100
AcDbVertex
100
AcDbPolyFaceMeshVertex
 10
9.0
 20
16.11800003051758
 30
9.305999755859375
 70
   192
  0
VERTEX
  5
599
330
596
100
AcDbEntity
  8
0
100
AcDbVertex
100
AcDbPolyFaceMeshVertex
 10
20.95100021362305
 20
10.92399978637695
 30
6.307000160217285
 70
   192
  0
VERTEX
  5
59A
330
596
100
AcDbEntity
  8
0
100
AcDbVertex
100
AcDbPolyFaceMeshVertex
 10
9.0
 20
9.305999755859375
 30
16.11800003051758
 70
   192
  0
VERTEX
  5
59B
330
596
100
AcDbEntity
  8
0
100
AcDbVertex
100
AcDbPolyFaceMeshVertex
 10
20.95100021362305
 20
6.307000160217285
 30
10.92399978637695
 70
   192
  0
VERTEX
  5
59C
330
596
100
AcDbEntity
  8
0
100
AcDbVertex
100
AcDbPolyFaceMeshVertex
 10
9.0
 20
0.0
 30
18.61100006103516
 70
   192
  0
VERTEX
  5
59D
330
596
100
AcDbEntity
  8
0
100
AcDbVertex
100
AcDbPolyFaceMeshVertex
 10
20.95100021362305
 20
0.0
 30
12.61400032043457
 70
   192
  0
VERTEX
  5
59E
330
596
100
AcDbEntity
  8
0
100
AcDbVertex
100
AcDbPolyFaceMeshVertex
 10
9.0
 20
-9.305999755859375
 30
16.11800003051758
 70
   192
  0
VERTEX
  5
59F
330
596
100
AcDbEntity
  8
0
100
AcDbVertex
100
AcDbPolyFaceMeshVertex
 10
20.95100021362305
 20
-6.307000160217285
 30
10.92399978637695
 70
   192
  0
VERTEX
  5
5A0
330
596
100
AcDbEntity
  8
0
100
AcDbVertex
100
AcDbPolyFaceMeshVertex
 10
9.0
 20
-16.11800003051758
 30
9.305999755859375
 70
   192
  0
VERTEX
  5
5A1
330
596
100
AcDbEntity
  8
0
100
AcDbVertex
100
AcDbPolyFaceMeshVertex
 10
20.95100021362305
 20
-10.92399978637695
 30
6.307000160217285
 70
   192
  0
VERTEX
  5
5A2
330
596
100
AcDbEntity
  8
0
100
AcDbVertex
100
AcDbPolyFaceMeshVertex
 10
9.0
 20
-18.61100006103516
 30
0.0
 70
   192
  0
VERTEX
  5
5A3
330
596
100
AcDbEntity
  8
0
100
AcDbVertex
100
AcDbPolyFaceMeshVertex
 10
20.95100021362305
 20
-12.61400032043457
 30
0.0
 70
   192
  0
VERTEX
  5
5A4
330
596
100
AcDbEntity
  8
0
100
AcDbVertex
100
AcDbPolyFaceMeshVertex
 10
9.0
 20
-16.11800003051758
 30
-9.305999755859375
 70
   192
  0
VERTEX
  5
5A5
330
596
100
AcDbEntity
  8
0
100
AcDbVertex
100
AcDbPolyFaceMeshVertex
 10
20.95100021362305
 20
-10.92399978637695
 30
-6.307000160217285
 70
   192
  0
VERTEX
  5
5A6
330
596
100
AcDbEntity
  8
0
100
AcDbVertex
100
AcDbPolyFaceMeshVertex
 10
9.0
 20
-9.305999755859375
 30
-16.11800003051758
 70
   192
  0
VERTEX
  5
5A7
330
596
100
AcDbEntity
  8
0
100
AcDbVertex
100
AcDbPolyFaceMeshVertex
 10
20.95100021362305
 20
-6.307000160217285
 30
-10.92399978637695
 70
   192
  0
VERTEX
  5
5A8
330
596
100
AcDbEntity
  8
0
100
AcDbVertex
100
AcDbPolyFaceMeshVertex
 10
9.0
 20
0.0
 30
-18.61100006103516
 70
   192
  0
VERTEX
  5
5A9
330
596
100
AcDbEntity
  8
0
100
AcDbVertex
100
AcDbPolyFaceMeshVertex
 10
20.95100021362305
 20
0.0
 30
-12.61400032043457
 70
   192
  0
VERTEX
  5
5AA
330
596
100
AcDbEntity
  8
0
100
AcDbVertex
100
AcDbPolyFaceMeshVertex
 10
9.0
 20
9.305999755859375
 30
-16.11800003051758
 70
   192
  0
VERTEX
  5
5AB
330
596
100
AcDbEntity
  8
0
100
AcDbVertex
100
AcDbPolyFaceMeshVertex
 10
20.95100021362305
 20
6.307000160217285
 30
-10.92399978637695
 70
   192
  0
VERTEX
  5
5AC
330
596
100
AcDbEntity
  8
0
100
AcDbVertex
100
AcDbPolyFaceMeshVertex
 10
9.0
 20
16.11800003051758
 30
-9.305999755859375
 70
   192
  0
VERTEX
  5
5AD
330
596
100
AcDbEntity
  8
0
100
AcDbVertex
100
AcDbPolyFaceMeshVertex
 10
20.95100021362305
 20
10.92399978637695
 30
-6.307000160217285
 70
   192
  0
VERTEX
  5
5AE
330
596
100
AcDbEntity
  8
0
100
AcDbVertex
100
AcDbPolyFaceMeshVertex
 10
20.95100021362305
 20
12.61400032043457
 30
0.0
 70
   192
  0
VERTEX
  5
5AF
330
596
100
AcDbEntity
  8
0
100
AcDbVertex
100
AcDbPolyFaceMeshVertex
 10
34.0629997253418
 20
8.659000396728516
 30
4.999000072479248
 70
   192
  0
VERTEX
  5
5B0
330
596
100
AcDbEntity
  8
0
100
AcDbVertex
100
AcDbPolyFaceMeshVertex
 10
34.0629997253418
 20
4.999000072479248
 30
8.659000396728516
 70
   192
  0
VERTEX
  5
5B1
330
596
100
AcDbEntity
  8
0
100
AcDbVertex
100
AcDbPolyFaceMeshVertex
 10
34.0629997253418
 20
0.0
 30
9.998000144958496
 70
   192
  0
VERTEX
  5
5B2
330
596
100
AcDbEntity
  8
0
100
AcDbVertex
100
AcDbPolyFaceMeshVertex
 10
34.0629997253418
 20
-4.999000072479248
 30
8.659000396728516
 70
   192
  0
VERTEX
  5
5B3
330
596
100
AcDbEntity
  8
0
100
AcDbVertex
100
AcDbPolyFaceMeshVertex
 10
34.0629997253418
 20
-8.659000396728516
 30
4.999000072479248
 70
   192
  0
VERTEX
  5
5B4
330
596
100
AcDbEntity
  8
0
100
AcDbVertex
100
AcDbPolyFaceMeshVertex
 10
34.0629997253418
 20
-9.998000144958496
 30
0.0
 70
   192
  0
VERTEX
  5
5B5
330
596
100
AcDbEntity
  8
0
100
AcDbVertex
100
AcDbPolyFaceMeshVertex
 10
34.0629997253418
 20
-8.659000396728516
 30
-4.999000072479248
 70
   192
  0
VERTEX
  5
5B6
330
596
100
AcDbEntity
  8
0
100
AcDbVertex
100
AcDbPolyFaceMeshVertex
 10
34.0629997253418
 20
-4.999000072479248
 30
-8.659000396728516
 70
   192
  0
VERTEX
  5
5B7
330
596
100
AcDbEntity
  8
0
100
AcDbVertex
100
AcDbPolyFaceMeshVertex
 10
34.0629997253418
 20
0.0
 30
-9.998000144958496
 70
   192
  0
VERTEX
  5
5B8
330
596
100
AcDbEntity
  8
0
100
AcDbVertex
100
AcDbPolyFaceMeshVertex
 10
34.0629997253418
 20
4.999000072479248
 30
-8.659000396728516
 70
   192
  0
VERTEX
  5
5B9
330
596
100
AcDbEntity
  8
0
100
AcDbVertex
100
AcDbPolyFaceMeshVertex
 10
34.0629997253418
 20
8.659000396728516
 30
-4.999000072479248
 70
   192
  0
VERTEX
  5
5BA
330
596
100
AcDbEntity
  8
0
100
AcDbVertex
100
AcDbPolyFaceMeshVertex
 10
34.0629997253418
 20
9.998000144958496
 30
0.0
 70
   192
  0
VERTEX
  5
5BB
330
596
100
AcDbEntity
  8
0
100
AcDbVertex
100
AcDbPolyFaceMeshVertex
 10
47.40000152587891
 20
10.95100021362305
 30
0.0
 70
   192
  0
VERTEX
  5
5BC
330
596
100
AcDbEntity
  8
0
100
AcDbVertex
100
AcDbPolyFaceMeshVertex
 10
47.40000152587891
 20
5.47599983215332
 30
9.484000205993652
 70
   192
  0
VERTEX
  5
5BD
330
596
100
AcDbEntity
  8
0
100
AcDbVertex
100
AcDbPolyFaceMeshVertex
 10
47.40000152587891
 20
9.484000205993652
 30
5.47599983215332
 70
   192
  0
VERTEX
  5
5BE
330
596
100
AcDbEntity
  8
0
100
AcDbVertex
100
AcDbPolyFaceMeshVertex
 10
47.40000152587891
 20
0.0
 30
10.95100021362305
 70
   192
  0
VERTEX
  5
5BF
330
596
100
AcDbEntity
  8
0
100
AcDbVertex
100
AcDbPolyFaceMeshVertex
 10
47.40000152587891
 20
-9.484000205993652
 30
5.47599983215332
 70
   192
  0
VERTEX
  5
5C0
330
596
100
AcDbEntity
  8
0
100
AcDbVertex
100
AcDbPolyFaceMeshVertex
 10
47.40000152587891
 20
-5.47599983215332
 30
9.484000205993652
 70
   192
  0
VERTEX
  5
5C1
330
596
100
AcDbEntity
  8
0
100
AcDbVertex
100
AcDbPolyFaceMeshVertex
 10
47.40000152587891
 20
-10.95100021362305
 30
0.0
 70
   192
  0
VERTEX
  5
5C2
330
596
100
AcDbEntity
  8
0
100
AcDbVertex
100
AcDbPolyFaceMeshVertex
 10
47.40000152587891
 20
-9.484000205993652
 30
-5.47599983215332
 70
   192
  0
VERTEX
  5
5C3
330
596
100
AcDbEntity
  8
0
100
AcDbVertex
100
AcDbPolyFaceMeshVertex
 10
47.40000152587891
 20
-5.47599983215332
 30
-9.484000205993652
 70
   192
  0
VERTEX
  5
5C4
330
596
100
AcDbEntity
  8
0
100
AcDbVertex
100
AcDbPolyFaceMeshVertex
 10
47.40000152587891
 20
5.47599983215332
 30
-9.484000205993652
 70
   192
  0
VERTEX
  5
5C5
330
596
100
AcDbEntity
  8
0
100
AcDbVertex
100
AcDbPolyFaceMeshVertex
 10
47.40000152587891
 20
0.0
 30
-10.95100021362305
 70
   192
  0
VERTEX
  5
5C6
330
596
100
AcDbEntity
  8
0
100
AcDbVertex
100
AcDbPolyFaceMeshVertex
 10
47.40000152587891
 20
9.484000205993652
 30
-5.47599983215332
 70
   192
  0
VERTEX
  5
5C7
330
596
100
AcDbEntity
  8
0
 62
     9
420
 12632256
100
AcDbFaceRecord
 10
0.0
 20
0.0
 30
0.0
 70
   128
 71
     3
 72
     2
 73
     1
  0
VERTEX
  5
5C8
330
596
100
AcDbEntity
  8
0
 62
     9
420
 12632256
100
AcDbFaceRecord
 10
0.0
 20
0.0
 30
0.0
 70
   128
 71
     5
 72
     4
 73
     2
  0
VERTEX
  5
5C9
330
596
100
AcDbEntity
  8
0
 62
     9
420
 12632256
100
AcDbFaceRecord
 10
0.0
 20
0.0
 30
0.0
 70
   128
 71
     7
 72
     6
 73
     4
  0
VERTEX
  5
5CA
330
596
100
AcDbEntity
  8
0
 62
     9
420
 12632256
100
AcDbFaceRecord
 10
0.0
 20
0.0
 30
0.0
 70
   128
 71
     9
 72
     8
 73
     6
  0
VERTEX
  5
5CB
330
596
100
AcDbEntity
  8
0
 62
     9
420
 12632256
100
AcDbFaceRecord
 10
0.0
 20
0.0
 30
0.0
 70
   128
 71
    11
 72
    10
 73
     8
  0
VERTEX
  5
5CC
330
596
100
AcDbEntity
  8
0
 62
     9
420
 12632256
100
AcDbFaceRecord
 10
0.0
 20
0.0
 30
0.0
 70
   128
 71
    13
 72
    12
 73
    10
  0
VERTEX
  5
5CD
330
596
100
AcDbEntity
  8
0
 62
     9
420
 12632256
100
AcDbFaceRecord
 10
0.0
 20
0.0
 30
0.0
 70
   128
 71
    15
 72
    14
 73
    12
  0
VERTEX
  5
5CE
330
596
100
AcDbEntity
  8
0
 62
     9
420
 12632256
100
AcDbFaceRecord
 10
0.0
 20
0.0
 30
0.0
 70
   128
 71
    17
 72
    16
 73
    14
  0
VERTEX
  5
5CF
330
596
100
AcDbEntity
  8
0
 62
     9
420
 12632256
100
AcDbFaceRecord
 10
0.0
 20
0.0
 30
0.0
 70
   128
 71
    17
 72
    19
 73
    18
  0
VERTEX
  5
5D0
330
596
100
AcDbEntity
  8
0
 62
     9
420
 12632256
100
AcDbFaceRecord
 10
0.0
 20
0.0
 30
0.0
 70
   128
 71
    21
 72
    20
 73
    18
  0
VERTEX
  5
5D1
330
596
100
AcDbEntity
  8
0
 62
     9
420
 12632256
100
AcDbFaceRecord
 10
0.0
 20
0.0
 30
0.0
 70
   128
 71
    21
 72
    23
 73
    22
  0
VERTEX
  5
5D2
330
596
100
AcDbEntity
  8
0
 62
     9
420
 12632256
100
AcDbFaceRecord
 10
0.0
 20
0.0
 30
0.0
 70
   128
 71
    24
 72
     1
 73
    22
  0
VERTEX
  5
5D3
330
596
100
AcDbEntity
  8
0
 62
     9
420
 12632256
100
AcDbFaceRecord
 10
0.0
 20
0.0
 30
0.0
 70
   128
 71
    25
 72
     3
 73
    24
  0
VERTEX
  5
5D4
330
596
100
AcDbEntity
  8
0
 62
     9
420
 12632256
100
AcDbFaceRecord
 10
0.0
 20
0.0
 30
0.0
 70
   128
 71
    26
 72
     5
 73
     3
  0
VERTEX
  5
5D5
330
596
100
AcDbEntity
  8
0
 62
     9
420
 12632256
100
AcDbFaceRecord
 10
0.0
 20
0.0
 30
0.0
 70
   128
 71
    27
 72
     7
 73
     5
  0
VERTEX
  5
5D6
330
596
100
AcDbEntity
  8
0
 62
     9
420
 12632256
100
AcDbFaceRecord
 10
0.0
 20
0.0
 30
0.0
 70
   128
 71
    28
 72
     9
 73
     7
  0
VERTEX
  5
5D7
330
596
100
AcDbEntity
  8
0
 62
     9
420
 12632256
100
AcDbFaceRecord
 10
0.0
 20
0.0
 30
0.0
 70
   128
 71
    29
 72
    11
 73
     9
  0
VERTEX
  5
5D8
330
596
100
AcDbEntity
  8
0
 62
     9
420
 12632256
100
AcDbFaceRecord
 10
0.0
 20
0.0
 30
0.0
 70
   128
 71
    30
 72
    13
 73
    11
  0
VERTEX
  5
5D9
330
596
100
AcDbEntity
  8
0
 62
     9
420
 12632256
100
AcDbFaceRecord
 10
0.0
 20
0.0
 30
0.0
 70
   128
 71
    31
 72
    15
 73
    13
  0
VERTEX
  5
5DA
330
596
100
AcDbEntity
  8
0
 62
     9
420
 12632256
100
AcDbFaceRecord
 10
0.0
 20
0.0
 30
0.0
 70
   128
 71
    32
 72
    17
 73
    15
  0
VERTEX
  5
5DB
330
596
100
AcDbEntity
  8
0
 62
     9
420
 12632256
100
AcDbFaceRecord
 10
0.0
 20
0.0
 30
0.0
 70
   128
 71
    33
 72
    19
 73
    17
  0
VERTEX
  5
5DC
330
596
100
AcDbEntity
  8
0
 62
     9
420
 12632256
100
AcDbFaceRecord
 10
0.0
 20
0.0
 30
0.0
 70
   128
 71
    34
 72
    21
 73
    19
  0
VERTEX
  5
5DD
330
596
100
AcDbEntity
  8
0
 62
     9
420
 12632256
100
AcDbFaceRecord
 10
0.0
 20
0.0
 30
0.0
 70
   128
 71
    35
 72
    23
 73
    21
  0
VERTEX
  5
5DE
330
596
100
AcDbEntity
  8
0
 62
     9
420
 12632256
100
AcDbFaceRecord
 10
0.0
 20
0.0
 30
0.0
 70
   128
 71
    36
 72
    24
 73
    23
  0
VERTEX
  5
5DF
330
596
100
AcDbEntity
  8
0
 62
     9
420
 12632256
100
AcDbFaceRecord
 10
0.0
 20
0.0
 30
0.0
 70
   128
 71
    25
 72
    36
 73
    37
  0
VERTEX
  5
5E0
330
596
100
AcDbEntity
  8
0
 62
     9
420
 12632256
100
AcDbFaceRecord
 10
0.0
 20
0.0
 30
0.0
 70
   128
 71
    25
 72
    39
 73
    38
  0
VERTEX
  5
5E1
330
596
100
AcDbEntity
  8
0
 62
     9
420
 12632256
100
AcDbFaceRecord
 10
0.0
 20
0.0
 30
0.0
 70
   128
 71
    26
 72
    38
 73
    40
  0
VERTEX
  5
5E2
330
596
100
AcDbEntity
  8
0
 62
     9
420
 12632256
100
AcDbFaceRecord
 10
0.0
 20
0.0
 30
0.0
 70
   128
 71
    28
 72
    27
 73
    40
  0
VERTEX
  5
5E3
330
596
100
AcDbEntity
  8
0
 62
     9
420
 12632256
100
AcDbFaceRecord
 10
0.0
 20
0.0
 30
0.0
 70
   128
 71
    28
 72
    42
 73
    41
  0
VERTEX
  5
5E4
330
596
100
AcDbEntity
  8
0
 62
     9
420
 12632256
100
AcDbFaceRecord
 10
0.0
 20
0.0
 30
0.0
 70
   128
 71
    29
 72
    41
 73
    43
  0
VERTEX
  5
5E5
330
596
100
AcDbEntity
  8
0
 62
     9
420
 12632256
100
AcDbFaceRecord
 10
0.0
 20
0.0
 30
0.0
 70
   128
 71
    30
 72
    43
 73
    44
  0
VERTEX
  5
5E6
330
596
100
AcDbEntity
  8
0
 62
     9
420
 12632256
100
AcDbFaceRecord
 10
0.0
 20
0.0
 30
0.0
 70
   128
 71
    32
 72
    31
 73
    44
  0
VERTEX
  5
5E7
330
596
100
AcDbEntity
  8
0
 62
     9
420
 12632256
100
AcDbFaceRecord
 10
0.0
 20
0.0
 30
0.0
 70
   128
 71
    33
 72
    32
 73
    45
  0
VERTEX
  5
5E8
330
596
100
AcDbEntity
  8
0
 62
     9
420
 12632256
100
AcDbFaceRecord
 10
0.0
 20
0.0
 30
0.0
 70
   128
 71
    33
 72
    47
 73
    46
  0
VERTEX
  5
5E9
330
596
100
AcDbEntity
  8
0
 62
     9
420
 12632256
100
AcDbFaceRecord
 10
0.0
 20
0.0
 30
0.0
 70
   128
 71
    34
 72
    46
 73
    48
  0
VERTEX
  5
5EA
330
596
100
AcDbEntity
  8
0
 62
     9
420
 12632256
100
AcDbFaceRecord
 10
0.0
 20
0.0
 30
0.0
 70
   128
 71
    36
 72
    35
 73
    48
  0
VERTEX
  5
5EB
330
596
100
AcDbEntity
  8
0
 62
     9
420
 12632256
100
AcDbFaceRecord
 10
0.0
 20
0.0
 30
0.0
 70
   128
 71
    48
 72
    37
 73
    36
  0
VERTEX
  5
5EC
330
596
100
AcDbEntity
  8
0
 62
     9
420
 12632256
100
AcDbFaceRecord
 10
0.0
 20
0.0
 30
0.0
 70
   128
 71
    48
 72
    35
 73
    34
  0
VERTEX
  5
5ED
330
596
100
AcDbEntity
  8
0
 62
     9
420
 12632256
100
AcDbFaceRecord
 10
0.0
 20
0.0
 30
0.0
 70
   128
 71
    46
 72
    34
 73
    33
  0
VERTEX
  5
5EE
330
596
100
AcDbEntity
  8
0
 62
     9
420
 12632256
100
AcDbFaceRecord
 10
0.0
 20
0.0
 30
0.0
 70
   128
 71
    45
 72
    47
 73
    33
  0
VERTEX
  5
5EF
330
596
100
AcDbEntity
  8
0
 62
     9
420
 12632256
100
AcDbFaceRecord
 10
0.0
 20
0.0
 30
0.0
 70
   128
 71
    44
 72
    45
 73
    32
  0
VERTEX
  5
5F0
330
596
100
AcDbEntity
  8
0
 62
     9
420
 12632256
100
AcDbFaceRecord
 10
0.0
 20
0.0
 30
0.0
 70
   128
 71
    44
 72
    31
 73
    30
  0
VERTEX
  5
5F1
330
596
100
AcDbEntity
  8
0
 62
     9
420
 12632256
100
AcDbFaceRecord
 10
0.0
 20
0.0
 30
0.0
 70
   128
 71
    43
 72
    30
 73
    29
  0
VERTEX
  5
5F2
330
596
100
AcDbEntity
  8
0
 62
     9
420
 12632256
100
AcDbFaceRecord
 10
0.0
 20
0.0
 30
0.0
 70
   128
 71
    41
 72
    29
 73
    28
  0
VERTEX
  5
5F3
330
596
100
AcDbEntity
  8
0
 62
     9
420
 12632256
100
AcDbFaceRecord
 10
0.0
 20
0.0
 30
0.0
 70
   128
 71
    40
 72
    42
 73
    28
  0
VERTEX
  5
5F4
330
596
100
AcDbEntity
  8
0
 62
     9
420
 12632256
100
AcDbFaceRecord
 10
0.0
 20
0.0
 30
0.0
 70
   128
 71
    40
 72
    27
 73
    26
  0
VERTEX
  5
5F5
330
596
100
AcDbEntity
  8
0
 62
     9
420
 12632256
100
AcDbFaceRecord
 10
0.0
 20
0.0
 30
0.0
 70
   128
 71
    38
 72
    26
 73
    25
  0
VERTEX
  5
5F6
330
596
100
AcDbEntity
  8
0
 62
     9
420
 12632256
100
AcDbFaceRecord
 10
0.0
 20
0.0
 30
0.0
 70
   128
 71
    37
 72
    39
 73
    25
  0
VERTEX
  5
5F7
330
596
100
AcDbEntity
  8
0
 62
     9
420
 12632256
100
AcDbFaceRecord
 10
0.0
 20
0.0
 30
0.0
 70
   128
 71
    23
 72
    35
 73
    36
  0
VERTEX
  5
5F8
330
596
100
AcDbEntity
  8
0
 62
     9
420
 12632256
100
AcDbFaceRecord
 10
0.0
 20
0.0
 30
0.0
 70
   128
 71
    21
 72
    34
 73
    35
  0
VERTEX
  5
5F9
330
596
100
AcDbEntity
  8
0
 62
     9
420
 12632256
100
AcDbFaceRecord
 10
0.0
 20
0.0
 30
0.0
 70
   128
 71
    19
 72
    33
 73
    34
  0
VERTEX
  5
5FA
330
596
100
AcDbEntity
  8
0
 62
     9
420
 12632256
100
AcDbFaceRecord
 10
0.0
 20
0.0
 30
0.0
 70
   128
 71
    17
 72
    32
 73
    33
  0
VERTEX
  5
5FB
330
596
100
AcDbEntity
  8
0
 62
     9
420
 12632256
100
AcDbFaceRecord
 10
0.0
 20
0.0
 30
0.0
 70
   128
 71
    15
 72
    31
 73
    32
  0
VERTEX
  5
5FC
330
596
100
AcDbEntity
  8
0
 62
     9
420
 12632256
100
AcDbFaceRecord
 10
0.0
 20
0.0
 30
0.0
 70
   128
 71
    13
 72
    30
 73
    31
  0
VERTEX
  5
5FD
330
596
100
AcDbEntity
  8
0
 62
     9
420
 12632256
100
AcDbFaceRecord
 10
0.0
 20
0.0
 30
0.0
 70
   128
 71
    11
 72
    29
 73
    30
  0
VERTEX
  5
5FE
330
596
100
AcDbEntity
  8
0
 62
     9
420
 12632256
100
AcDbFaceRecord
 10
0.0
 20
0.0
 30
0.0
 70
   128
 71
     9
 72
    28
 73
    29
  0
VERTEX
  5
5FF
330
596
100
AcDbEntity
  8
0
 62
     9
420
 12632256
100
AcDbFaceRecord
 10
0.0
 20
0.0
 30
0.0
 70
   128
 71
     7
 72
    27
 73
    28
  0
VERTEX
  5
600
330
596
100
AcDbEntity
  8
0
 62
     9
420
 12632256
100
AcDbFaceRecord
 10
0.0
 20
0.0
 30
0.0
 70
   128
 71
     5
 72
    26
 73
    27
  0
VERTEX
  5
601
330
596
100
AcDbEntity
  8
0
 62
     9
420
 12632256
100
AcDbFaceRecord
 10
0.0
 20
0.0
 30
0.0
 70
   128
 71
     3
 72
    25
 73
    26
  0
VERTEX
  5
602
330
596
100
AcDbEntity
  8
0
 62
     9
420
 12632256
100
AcDbFaceRecord
 10
0.0
 20
0.0
 30
0.0
 70
   128
 71
    24
 72
    36
 73
    25
  0
VERTEX
  5
603
330
596
100
AcDbEntity
  8
0
 62
     9
420
 12632256
100
AcDbFaceRecord
 10
0.0
 20
0.0
 30
0.0
 70
   128
 71
    22
 72
    23
 73
    24
  0
VERTEX
  5
604
330
596
100
AcDbEntity
  8
0
 62
     9
420
 12632256
100
AcDbFaceRecord
 10
0.0
 20
0.0
 30
0.0
 70
   128
 71
    22
 72
    20
 73
    21
  0
VERTEX
  5
605
330
596
100
AcDbEntity
  8
0
 62
     9
420
 12632256
100
AcDbFaceRecord
 10
0.0
 20
0.0
 30
0.0
 70
   128
 71
    18
 72
    19
 73
    21
  0
VERTEX
  5
606
330
596
100
AcDbEntity
  8
0
 62
     9
420
 12632256
100
AcDbFaceRecord
 10
0.0
 20
0.0
 30
0.0
 70
   128
 71
    18
 72
    16
 73
    17
  0
VERTEX
  5
607
330
596
100
AcDbEntity
  8
0
 62
     9
420
 12632256
100
AcDbFaceRecord
 10
0.0
 20
0.0
 30
0.0
 70
   128
 71
    14
 72
    15
 73
    17
  0
VERTEX
  5
608
330
596
100
AcDbEntity
  8
0
 62
     9
420
 12632256
100
AcDbFaceRecord
 10
0.0
 20
0.0
 30
0.0
 70
   128
 71
    12
 72
    13
 73
    15
  0
VERTEX
  5
609
330
596
100
AcDbEntity
  8
0
 62
     9
420
 12632256
100
AcDbFaceRecord
 10
0.0
 20
0.0
 30
0.0
 70
   128
 71
    10
 72
    11
 73
    13
  0
VERTEX
  5
60A
330
596
100
AcDbEntity
  8
0
 62
     9
420
 12632256
100
AcDbFaceRecord
 10
0.0
 20
0.0
 30
0.0
 70
   128
 71
     8
 72
     9
 73
    11
  0
VERTEX
  5
60B
330
596
100
AcDbEntity
  8
0
 62
     9
420
 12632256
100
AcDbFaceRecord
 10
0.0
 20
0.0
 30
0.0
 70
   128
 71
     6
 72
     7
 73
     9
  0
VERTEX
  5
60C
330
596
100
AcDbEntity
  8
0
 62
     9
420
 12632256
100
AcDbFaceRecord
 10
0.0
 20
0.0
 30
0.0
 70
   128
 71
     4
 72
     5
 73
     7
  0
VERTEX
  5
60D
330
596
100
AcDbEntity
  8
0
 62
     9
420
 12632256
100
AcDbFaceRecord
 10
0.0
 20
0.0
 30
0.0
 70
   128
 71
     2
 72
     3
 73
     5
  0
VERTEX
  5
60E
330
596
100
AcDbEntity
  8
0
 62
     9
420
 12632256
100
AcDbFaceRecord
 10
0.0
 20
0.0
 30
0.0
 70
   128
 71
     1
 72
    24
 73
     3
  0
SEQEND
  5
60F
330
596
100
AcDbEntity
  8
0
 62
     9
420
 12632256
  0
ENDBLK
  5
612
330
595
100
AcDbEntity
  8
0
100
AcDbBlockEnd
  0
BLOCK
  5
62D
330
613
100
AcDbEntity
  8
0
100
AcDbBlockBegin
  2
e3_node(19)
 70
     0
 10
0.0
 20
0.0
 30
0.0
  3
e3_node(19)
  1

  0
POLYLINE
  5
614
330
613
100
AcDbEntity
  8
0
 62
     9
420
 12632256
100
AcDbPolyFaceMesh
 66
     1
 10
0.0
 20
0.0
 30
0.0
 70
    64
 71
    12
 72
    10
  0
VERTEX
  5
615
330
614
100
AcDbEntity
  8
0
100
AcDbVertex
100
AcDbPolyFaceMeshVertex
 10
47.40000152587891
 20
-10.95100021362305
 30
0.0
 70
   192
  0
VERTEX
  5
616
330
614
100
AcDbEntity
  8
0
100
AcDbVertex
100
AcDbPolyFaceMeshVertex
 10
47.40000152587891
 20
0.0
 30
10.95100021362305
 70
   192
  0
VERTEX
  5
617
330
614
100
AcDbEntity
  8
0
100
AcDbVertex
100
AcDbPolyFaceMeshVertex
 10
47.40000152587891
 20
-5.47599983215332
 30
9.484000205993652
 70
   192
  0
VERTEX
  5
618
330
614
100
AcDbEntity
  8
0
100
AcDbVertex
100
AcDbPolyFaceMeshVertex
 10
47.40000152587891
 20
-5.47599983215332
 30
-9.484000205993652
 70
   192
  0
VERTEX
  5
619
330
614
100
AcDbEntity
  8
0
100
AcDbVertex
100
AcDbPolyFaceMeshVertex
 10
47.40000152587891
 20
5.47599983215332
 30
-9.484000205993652
 70
   192
  0
VERTEX
  5
61A
330
614
100
AcDbEntity
  8
0
100
AcDbVertex
100
AcDbPolyFaceMeshVertex
 10
47.40000152587891
 20
9.484000205993652
 30
-5.47599983215332
 70
   192
  0
VERTEX
  5
61B
330
614
100
AcDbEntity
  8
0
100
AcDbVertex
100
AcDbPolyFaceMeshVertex
 10
47.40000152587891
 20
5.47599983215332
 30
9.484000205993652
 70
   192
  0
VERTEX
  5
61C
330
614
100
AcDbEntity
  8
0
100
AcDbVertex
100
AcDbPolyFaceMeshVertex
 10
47.40000152587891
 20
10.95100021362305
 30
0.0
 70
   192
  0
VERTEX
  5
61D
330
614
100
AcDbEntity
  8
0
100
AcDbVertex
100
AcDbPolyFaceMeshVertex
 10
47.40000152587891
 20
9.484000205993652
 30
5.47599983215332
 70
   192
  0
VERTEX
  5
61E
330
614
100
AcDbEntity
  8
0
100
AcDbVertex
100
AcDbPolyFaceMeshVertex
 10
47.40000152587891
 20
0.0
 30
-10.95100021362305
 70
   192
  0
VERTEX
  5
61F
330
614
100
AcDbEntity
  8
0
100
AcDbVertex
100
AcDbPolyFaceMeshVertex
 10
47.40000152587891
 20
-9.484000205993652
 30
-5.47599983215332
 70
   192
  0
VERTEX
  5
620
330
614
100
AcDbEntity
  8
0
100
AcDbVertex
100
AcDbPolyFaceMeshVertex
 10
47.40000152587891
 20
-9.484000205993652
 30
5.47599983215332
 70
   192
  0
VERTEX
  5
621
330
614
100
AcDbEntity
  8
0
 62
     9
420
 12632256
100
AcDbFaceRecord
 10
0.0
 20
0.0
 30
0.0
 70
   128
 71
     3
 72
     2
 73
     1
  0
VERTEX
  5
622
330
614
100
AcDbEntity
  8
0
 62
     9
420
 12632256
100
AcDbFaceRecord
 10
0.0
 20
0.0
 30
0.0
 70
   128
 71
     6
 72
     5
 73
     4
  0
VERTEX
  5
623
330
614
100
AcDbEntity
  8
0
 62
     9
420
 12632256
100
AcDbFaceRecord
 10
0.0
 20
0.0
 30
0.0
 70
   128
 71
     2
 72
     7
 73
     1
  0
VERTEX
  5
624
330
614
100
AcDbEntity
  8
0
 62
     9
420
 12632256
100
AcDbFaceRecord
 10
0.0
 20
0.0
 30
0.0
 70
   128
 71
     9
 72
     8
 73
     1
  0
VERTEX
  5
625
330
614
100
AcDbEntity
  8
0
 62
     9
420
 12632256
100
AcDbFaceRecord
 10
0.0
 20
0.0
 30
0.0
 70
   128
 71
     5
 72
    10
 73
     4
  0
VERTEX
  5
626
330
614
100
AcDbEntity
  8
0
 62
     9
420
 12632256
100
AcDbFaceRecord
 10
0.0
 20
0.0
 30
0.0
 70
   128
 71
    11
 72
     1
 73
     8
  0
VERTEX
  5
627
330
614
100
AcDbEntity
  8
0
 62
     9
420
 12632256
100
AcDbFaceRecord
 10
0.0
 20
0.0
 30
0.0
 70
   128
 71
     1
 72
     7
 73
     9
  0
VERTEX
  5
628
330
614
100
AcDbEntity
  8
0
 62
     9
420
 12632256
100
AcDbFaceRecord
 10
0.0
 20
0.0
 30
0.0
 70
   128
 71
     8
 72
     4
 73
    11
  0
VERTEX
  5
629
330
614
100
AcDbEntity
  8
0
 62
     9
420
 12632256
100
AcDbFaceRecord
 10
0.0
 20
0.0
 30
0.0
 70
   128
 71
     4
 72
     8
 73
     6
  0
VERTEX
  5
62A
330
614
100
AcDbEntity
  8
0
 62
     9
420
 12632256
100
AcDbFaceRecord
 10
0.0
 20
0.0
 30
0.0
 70
   128
 71
     1
 72
    12
 73
     3
  0
SEQEND
  5
62B
330
614
100
AcDbEntity
  8
0
 62
     9
420
 12632256
  0
ENDBLK
  5
62E
330
613
100
AcDbEntity
  8
0
100
AcDbBlockEnd
  0
ENDSEC
  0
SECTION
  2
ENTITIES
  0
INSERT
  5
2F8
330
1F
100
AcDbEntity
  8
Layer 1
100
AcDbBlockReference
  2
e3_node
 10
0.0
 20
0.0
 30
0.0
  0
INSERT
  5
31B
330
1F
100
AcDbEntity
  8
Layer 1
100
AcDbBlockReference
  2
e3_node(1)
 10
0.0
 20
0.0
 30
0.0
  0
INSERT
  5
3D3
330
1F
100
AcDbEntity
  8
Layer 1
100
AcDbBlockReference
  2
e3_node(2)
 10
0.0
 20
0.0
 30
0.0
  0
INSERT
  5
3E9
330
1F
100
AcDbEntity
  8
Layer 1
100
AcDbBlockReference
  2
e3_node(3)
 10
0.0
 20
0.0
 30
0.0
  0
INSERT
  5
405
330
1F
100
AcDbEntity
  8
Layer 1
100
AcDbBlockReference
  2
e3_node(4)
 10
0.0
 20
0.0
 30
0.0
  0
INSERT
  5
41B
330
1F
100
AcDbEntity
  8
Layer 1
100
AcDbBlockReference
  2
e3_node(5)
 10
0.0
 20
0.0
 30
0.0
  0
INSERT
  5
431
330
1F
100
AcDbEntity
  8
Layer 1
100
AcDbBlockReference
  2
e3_node(6)
 10
0.0
 20
0.0
 30
0.0
  0
INSERT
  5
449
330
1F
100
AcDbEntity
  8
Layer 1
100
AcDbBlockReference
  2
e3_node(7)
 10
0.0
 20
0.0
 30
0.0
  0
INSERT
  5
45F
330
1F
100
AcDbEntity
  8
Layer 1
100
AcDbBlockReference
  2
e3_node(8)
 10
0.0
 20
0.0
 30
0.0
  0
INSERT
  5
475
330
1F
100
AcDbEntity
  8
Layer 1
100
AcDbBlockReference
  2
e3_node(9)
 10
0.0
 20
0.0
 30
0.0
  0
INSERT
  5
48B
330
1F
100
AcDbEntity
  8
Layer 1
100
AcDbBlockReference
  2
e3_node(10)
 10
0.0
 20
0.0
 30
0.0
  0
INSERT
  5
4A1
330
1F
100
AcDbEntity
  8
Layer 1
100
AcDbBlockReference
  2
e3_node(11)
 10
0.0
 20
0.0
 30
0.0
  0
INSERT
  5
4B7
330
1F
100
AcDbEntity
  8
Layer 1
100
AcDbBlockReference
  2
e3_node(12)
 10
0.0
 20
0.0
 30
0.0
  0
INSERT
  5
4CF
330
1F
100
AcDbEntity
  8
Layer 1
100
AcDbBlockReference
  2
e3_node(13)
 10
0.0
 20
0.0
 30
0.0
  0
INSERT
  5
4E5
330
1F
100
AcDbEntity
  8
Layer 1
100
AcDbBlockReference
  2
e3_node(14)
 10
0.0
 20
0.0
 30
0.0
  0
INSERT
  5
4FB
330
1F
100
AcDbEntity
  8
Layer 1
100
AcDbBlockReference
  2
e3_node(15)
 10
0.0
 20
0.0
 30
0.0
  0
INSERT
  5
53B
330
1F
100
AcDbEntity
  8
Layer 1
100
AcDbBlockReference
  2
e3_node(16)
 10
0.0
 20
0.0
 30
0.0
  0
INSERT
  5
592
330
1F
100
AcDbEntity
  8
Layer 1
100
AcDbBlockReference
  2
e3_node(17)
 10
0.0
 20
0.0
 30
0.0
  0
INSERT
  5
610
330
1F
100
AcDbEntity
  8
Layer 1
100
AcDbBlockReference
  2
e3_node(18)
 10
0.0
 20
0.0
 30
0.0
  0
INSERT
  5
62C
330
1F
100
AcDbEntity
  8
Layer 1
100
AcDbBlockReference
  2
e3_node(19)
 10
0.0
 20
0.0
 30
0.0
  0
ENDSEC
  0
SECTION
  2
OBJECTS
  0
DICTIONARY
  5
C
330
0
100
AcDbDictionary
281
     1
  3
ACAD_GROUP
350
D
  3
ACAD_LAYOUT
350
1A
  3
ACAD_MLEADERSTYLE
350
650
  3
ACAD_MLINESTYLE
350
17
  3
ACAD_PLOTSETTINGS
350
19
  3
ACAD_PLOTSTYLENAME
350
E
  3
ACAD_TABLESTYLE
350
64F
  3
ACAD_VISUALSTYLE
350
2A
  0
DICTIONARY
  5
D
102
{ACAD_REACTORS
330
C
102
}
330
C
100
AcDbDictionary
281
     1
  0
DICTIONARY
  5
1A
102
{ACAD_REACTORS
330
C
102
}
330
C
100
AcDbDictionary
281
     1
  3
Layout1
350
1E
  3
Model
350
22
  0
DICTIONARY
  5
650
102
{ACAD_REACTORS
330
C
102
}
330
C
100
AcDbDictionary
281
     1
  0
DICTIONARY
  5
17
102
{ACAD_REACTORS
330
C
102
}
330
C
100
AcDbDictionary
281
     1
  3
Standard
350
18
  0
DICTIONARY
  5
19
102
{ACAD_REACTORS
330
C
102
}
330
C
100
AcDbDictionary
281
     1
  0
ACDBDICTIONARYWDFLT
  5
E
102
{ACAD_REACTORS
330
C
102
}
330
C
100
AcDbDictionary
281
     1
  3
Normal
350
F
100
AcDbDictionaryWithDefault
340
F
  0
DICTIONARY
  5
64F
102
{ACAD_REACTORS
330
C
102
}
330
C
100
AcDbDictionary
281
     1
  0
DICTIONARY
  5
2A
102
{ACAD_REACTORS
330
C
102
}
330
C
100
AcDbDictionary
281
     1
  3
2dWireframe
350
2F
  3
3D Hidden
350
31
  3
3dWireframe
350
30
  3
Basic
350
32
  3
Brighten
350
36
  3
ColorChange
350
3A
  3
Conceptual
350
34
  3
Dim
350
35
  3
Facepattern
350
39
  3
Flat
350
2B
  3
FlatWithEdges
350
2C
  3
Gouraud
350
2D
  3
GouraudWithEdges
350
2E
  3
Linepattern
350
38
  3
Realistic
350
33
  3
Thicken
350
37
  0
LAYOUT
  5
1E
102
{ACAD_REACTORS
330
1A
102
}
330
1A
100
AcDbPlotSettings
  1

  2
none_device
  4

  6

 40
0.0
 41
0.0
 42
0.0
 43
0.0
 44
0.0
 45
0.0
 46
0.0
 47
0.0
 48
0.0
 49
0.0
140
0.0
141
0.0
142
1.0
143
1.0
 70
   688
 72
     0
 73
     0
 74
     5
  7

 75
    16
 76
     0
 77
     2
 78
   300
147
1.0
148
0.0
149
0.0
100
AcDbLayout
  1
Layout1
 70
     1
 71
     1
 10
0.0
 20
0.0
 11
12.0
 21
9.0
 12
0.0
 22
0.0
 32
0.0
 14
1.000000000000000E+20
 24
1.000000000000000E+20
 34
1.000000000000000E+20
 15
-1.000000000000000E+20
 25
-1.000000000000000E+20
 35
-1.000000000000000E+20
146
0.0
 13
0.0
 23
0.0
 33
0.0
 16
1.0
 26
0.0
 36
0.0
 17
0.0
 27
1.0
 37
0.0
 76
     0
330
1B
  0
LAYOUT
  5
22
102
{ACAD_REACTORS
330
1A
102
}
330
1A
100
AcDbPlotSettings
  1

  2
none_device
  4

  6

 40
0.0
 41
0.0
 42
0.0
 43
0.0
 44
0.0
 45
0.0
 46
0.0
 47
0.0
 48
0.0
 49
0.0
140
0.0
141
0.0
142
1.0
143
1.0
 70
  1712
 72
     0
 73
     0
 74
     0
  7

 75
     0
 76
     0
 77
     2
 78
   300
147
1.0
148
0.0
149
0.0
100
AcDbLayout
  1
Model
 70
     1
 71
     0
 10
0.0
 20
0.0
 11
12.0
 21
9.0
 12
0.0
 22
0.0
 32
0.0
 14
1.000000000000000E+20
 24
1.000000000000000E+20
 34
1.000000000000000E+20
 15
-1.000000000000000E+20
 25
-1.000000000000000E+20
 35
-1.000000000000000E+20
146
0.0
 13
0.0
 23
0.0
 33
0.0
 16
1.0
 26
0.0
 36
0.0
 17
0.0
 27
1.0
 37
0.0
 76
     0
330
1F
331
29
  0
MLINESTYLE
  5
18
102
{ACAD_REACTORS
330
17
102
}
330
17
100
AcDbMlineStyle
  2
Standard
 70
     0
  3

 62
   256
 51
90.0
 52
90.0
 71
     2
 49
0.5
 62
   256
  6
BYLAYER
 49
-0.5
 62
   256
  6
BYLAYER
  0
ACDBPLACEHOLDER
  5
F
102
{ACAD_REACTORS
330
E
102
}
330
E
  0
VISUALSTYLE
  5
2F
102
{ACAD_REACTORS
330
2A
102
}
102
{ACAD_XDICTIONARY
360
637
102
}
330
2A
100
AcDbVisualStyle
  2
2dWireframe
 70
     4
 71
     0
 72
     2
 73
     0
 90
        0
 40
-0.6
 41
-30.0
 62
     5
 63
     7
421
 16777215
 74
     1
 91
        4
 64
     7
 65
   257
 75
     1
175
     1
 42
1.0
 92
        0
 66
   257
 43
1.0
 76
     1
 77
     6
 78
     2
 67
     7
 79
     5
170
     0
171
     0
290
     0
174
     0
 93
        1
 44
0.0
173
     0
291
     0
 45
0.0
1001
ACAD
1000
AcDbSavedByObjectVersion
1070
     0
  0
VISUALSTYLE
  5
31
102
{ACAD_REACTORS
330
2A
102
}
102
{ACAD_XDICTIONARY
360
63B
102
}
330
2A
100
AcDbVisualStyle
  2
3D Hidden
 70
     6
 71
     1
 72
     2
 73
     2
 90
        0
 40
-0.6
 41
-30.0
 62
     5
 63
     7
421
 16777215
 74
     2
 91
        2
 64
     7
 65
   257
 75
     2
175
     1
 42
40.0
 92
        0
 66
   257
 43
1.0
 76
     1
 77
     6
 78
     2
 67
     7
 79
     3
170
     0
171
     0
290
     0
174
     0
 93
        1
 44
0.0
173
     0
291
     0
 45
0.0
1001
ACAD
1000
AcDbSavedByObjectVersion
1070
     0
  0
VISUALSTYLE
  5
30
102
{ACAD_REACTORS
330
2A
102
}
102
{ACAD_XDICTIONARY
360
639
102
}
330
2A
100
AcDbVisualStyle
  2
3dWireframe
 70
     5
 71
     0
 72
     2
 73
     0
 90
        0
 40
-0.6
 41
-30.0
 62
     5
 63
     7
421
 16777215
 74
     1
 91
        4
 64
     7
 65
   257
 75
     1
175
     1
 42
1.0
 92
        0
 66
   257
 43
1.0
 76
     1
 77
     6
 78
     2
 67
     7
 79
     5
170
     0
171
     0
290
     0
174
     0
 93
        1
 44
0.0
173
     0
291
     0
 45
0.0
1001
ACAD
1000
AcDbSavedByObjectVersion
1070
     0
  0
VISUALSTYLE
  5
32
102
{ACAD_REACTORS
330
2A
102
}
102
{ACAD_XDICTIONARY
360
63D
102
}
330
2A
100
AcDbVisualStyle
  2
Basic
 70
     7
 71
     1
 72
     0
 73
     1
 90
        0
 40
-0.6
 41
-30.0
 62
     5
 63
     7
421
 16777215
 74
     0
 91
        4
 64
     7
 65
   257
 75
     1
175
     1
 42
1.0
 92
        8
 66
     7
 43
1.0
 76
     1
 77
     6
 78
     2
 67
     7
 79
     5
170
     0
171
     0
290
     0
174
     0
 93
        1
 44
0.0
173
     0
291
     1
 45
0.0
1001
ACAD
1000
AcDbSavedByObjectVersion
1070
     0
  0
VISUALSTYLE
  5
36
102
{ACAD_REACTORS
330
2A
102
}
102
{ACAD_XDICTIONARY
360
645
102
}
330
2A
100
AcDbVisualStyle
  2
Brighten
 70
    12
 71
     2
 72
     2
 73
     0
 90
        0
 40
-0.6
 41
-30.0
 62
     5
 63
     7
421
 16777215
 74
     1
 91
        4
 64
     7
 65
   257
 75
     1
175
     1
 42
1.0
 92
        8
 66
     7
 43
1.0
 76
     1
 77
     6
 78
     2
 67
     7
 79
     5
170
     0
171
     0
290
     0
174
     0
 93
        1
 44
50.0
173
     0
291
     1
 45
0.0
1001
ACAD
1000
AcDbSavedByObjectVersion
1070
     0
  0
VISUALSTYLE
  5
3A
102
{ACAD_REACTORS
330
2A
102
}
102
{ACAD_XDICTIONARY
360
64D
102
}
330
2A
100
AcDbVisualStyle
  2
ColorChange
 70
    16
 71
     2
 72
     2
 73
     3
 90
        0
 40
-0.6
 41
-30.0
 62
     5
 63
     8
421
  8421504
 74
     1
 91
        4
 64
     7
 65
   257
 75
     1
175
     1
 42
1.0
 92
        8
 66
     8
424
  8421504
 43
1.0
 76
     1
 77
     6
 78
     2
 67
     7
 79
     5
170
     0
171
     0
290
     0
174
     0
 93
        1
 44
0.0
173
     0
291
     1
 45
0.0
1001
ACAD
1000
AcDbSavedByObjectVersion
1070
     0
  0
VISUALSTYLE
  5
34
102
{ACAD_REACTORS
330
2A
102
}
102
{ACAD_XDICTIONARY
360
641
102
}
330
2A
100
AcDbVisualStyle
  2
Conceptual
 70
     9
 71
     3
 72
     2
 73
     0
 90
        0
 40
-0.6
 41
-30.0
 62
     5
 63
     7
421
 16777215
 74
     2
 91
        2
 64
     7
 65
   257
 75
     1
175
     1
 42
40.0
 92
        8
 66
     7
 43
1.0
 76
     1
 77
     6
 78
     2
 67
     7
 79
     3
170
     0
171
     0
290
     0
174
     0
 93
        1
 44
0.0
173
     0
291
     0
 45
0.0
1001
ACAD
1000
AcDbSavedByObjectVersion
1070
     0
  0
VISUALSTYLE
  5
35
102
{ACAD_REACTORS
330
2A
102
}
102
{ACAD_XDICTIONARY
360
643
102
}
330
2A
100
AcDbVisualStyle
  2
Dim
 70
    11
 71
     2
 72
     2
 73
     0
 90
        0
 40
-0.6
 41
-30.0
 62
     5
 63
     7
421
 16777215
 74
     1
 91
        4
 64
     7
 65
   257
 75
     1
175
     1
 42
1.0
 92
        8
 66
     7
 43
1.0
 76
     1
 77
     6
 78
     2
 67
     7
 79
     5
170
     0
171
     0
290
     0
174
     0
 93
        1
 44
-50.0
173
     0
291
     1
 45
0.0
1001
ACAD
1000
AcDbSavedByObjectVersion
1070
     0
  0
VISUALSTYLE
  5
39
102
{ACAD_REACTORS
330
2A
102
}
102
{ACAD_XDICTIONARY
360
64B
102
}
330
2A
100
AcDbVisualStyle
  2
Facepattern
 70
    15
 71
     2
 72
     2
 73
     0
 90
        0
 40
-0.6
 41
-30.0
 62
     5
 63
     7
421
 16777215
 74
     1
 91
        4
 64
     7
 65
   257
 75
     1
175
     1
 42
1.0
 92
        8
 66
     7
 43
1.0
 76
     1
 77
     6
 78
     2
 67
     7
 79
     5
170
     0
171
     0
290
     0
174
     0
 93
        1
 44
0.0
173
     0
291
     1
 45
0.0
1001
ACAD
1000
AcDbSavedByObjectVersion
1070
     0
  0
VISUALSTYLE
  5
2B
102
{ACAD_REACTORS
330
2A
102
}
102
{ACAD_XDICTIONARY
360
62F
102
}
330
2A
100
AcDbVisualStyle
  2
Flat
 70
     0
 71
     2
 72
     1
 73
     1
 90
        2
 40
-0.6
 41
30.0
 62
     5
 63
     7
421
 16777215
 74
     0
 91
        4
 64
     7
 65
   257
 75
     1
175
     1
 42
1.0
 92
        8
 66
     7
 43
1.0
 76
     1
 77
     6
 78
     2
 67
     7
 79
     5
170
     0
171
     0
290
     0
174
     0
 93
       13
 44
0.0
173
     0
291
     1
 45
0.0
1001
ACAD
1000
AcDbSavedByObjectVersion
1070
     0
  0
VISUALSTYLE
  5
2C
102
{ACAD_REACTORS
330
2A
102
}
102
{ACAD_XDICTIONARY
360
631
102
}
330
2A
100
AcDbVisualStyle
  2
FlatWithEdges
 70
     1
 71
     2
 72
     1
 73
     1
 90
        2
 40
-0.6
 41
30.0
 62
     5
 63
     7
421
 16777215
 74
     1
 91
        4
 64
     7
 65
   257
 75
     1
175
     1
 42
1.0
 92
        0
 66
   257
 43
1.0
 76
     1
 77
     6
 78
     2
 67
     7
 79
     5
170
     0
171
     0
290
     0
174
     0
 93
       13
 44
0.0
173
     0
291
     1
 45
0.0
1001
ACAD
1000
AcDbSavedByObjectVersion
1070
     0
  0
VISUALSTYLE
  5
2D
102
{ACAD_REACTORS
330
2A
102
}
102
{ACAD_XDICTIONARY
360
633
102
}
330
2A
100
AcDbVisualStyle
  2
Gouraud
 70
     2
 71
     2
 72
     2
 73
     1
 90
        2
 40
-0.6
 41
30.0
 62
     5
 63
     7
421
 16777215
 74
     0
 91
        4
 64
     7
 65
   257
 75
     1
175
     1
 42
1.0
 92
        0
 66
     7
 43
1.0
 76
     1
 77
     6
 78
     2
 67
     7
 79
     5
170
     0
171
     0
290
     0
174
     0
 93
       13
 44
0.0
173
     0
291
     1
 45
0.0
1001
ACAD
1000
AcDbSavedByObjectVersion
1070
     0
  0
VISUALSTYLE
  5
2E
102
{ACAD_REACTORS
330
2A
102
}
102
{ACAD_XDICTIONARY
360
635
102
}
330
2A
100
AcDbVisualStyle
  2
GouraudWithEdges
 70
     3
 71
     2
 72
     2
 73
     1
 90
        2
 40
-0.6
 41
30.0
 62
     5
 63
     7
421
 16777215
 74
     1
 91
        4
 64
     7
 65
   257
 75
     1
175
     1
 42
1.0
 92
        0
 66
   257
 43
1.0
 76
     1
 77
     6
 78
     2
 67
     7
 79
     5
170
     0
171
     0
290
     0
174
     0
 93
       13
 44
0.0
173
     0
291
     1
 45
0.0
1001
ACAD
1000
AcDbSavedByObjectVersion
1070
     0
  0
VISUALSTYLE
  5
38
102
{ACAD_REACTORS
330
2A
102
}
102
{ACAD_XDICTIONARY
360
649
102
}
330
2A
100
AcDbVisualStyle
  2
Linepattern
 70
    14
 71
     2
 72
     2
 73
     0
 90
        0
 40
-0.6
 41
-30.0
 62
     5
 63
     7
421
 16777215
 74
     1
 91
        4
 64
     7
 65
   257
 75
     7
175
     7
 42
1.0
 92
        8
 66
     7
 43
1.0
 76
     1
 77
     6
 78
     2
 67
     7
 79
     5
170
     0
171
     0
290
     0
174
     0
 93
        1
 44
0.0
173
     0
291
     1
 45
0.0
1001
ACAD
1000
AcDbSavedByObjectVersion
1070
     0
  0
VISUALSTYLE
  5
33
102
{ACAD_REACTORS
330
2A
102
}
102
{ACAD_XDICTIONARY
360
63F
102
}
330
2A
100
AcDbVisualStyle
  2
Realistic
 70
     8
 71
     2
 72
     2
 73
     0
 90
        0
 40
-0.6
 41
-30.0
 62
     5
 63
     7
421
 16777215
 74
     1
 91
        0
 64
     7
 65
   257
 75
     1
175
     1
 42
1.0
 92
        8
 66
     8
424
  7895160
 43
1.0
 76
     1
 77
     6
 78
     2
 67
     7
 79
     5
170
     0
171
     0
290
     0
174
     0
 93
       13
 44
0.0
173
     0
291
     0
 45
0.0
1001
ACAD
1000
AcDbSavedByObjectVersion
1070
     0
  0
VISUALSTYLE
  5
37
102
{ACAD_REACTORS
330
2A
102
}
102
{ACAD_XDICTIONARY
360
647
102
}
330
2A
100
AcDbVisualStyle
  2
Thicken
 70
    13
 71
     2
 72
     2
 73
     0
 90
        0
 40
-0.6
 41
-30.0
 62
     5
 63
     7
421
 16777215
 74
     1
 91
        4
 64
     7
 65
   257
 75
     1
175
     1
 42
1.0
 92
       12
 66
     7
 43
1.0
 76
     1
 77
     6
 78
     2
 67
     7
 79
     5
170
     0
171
     0
290
     0
174
     0
 93
        1
 44
0.0
173
     0
291
     1
 45
0.0
1001
ACAD
1000
AcDbSavedByObjectVersion
1070
     0
  0
DICTIONARY
  5
637
330
2F
100
AcDbDictionary
280
     1
281
     1
  3
ACAD_XREC_ROUNDTRIP
360
638
  0
DICTIONARY
  5
63B
330
31
100
AcDbDictionary
280
     1
281
     1
  3
ACAD_XREC_ROUNDTRIP
360
63C
  0
DICTIONARY
  5
639
330
30
100
AcDbDictionary
280
     1
281
     1
  3
ACAD_XREC_ROUNDTRIP
360
63A
  0
DICTIONARY
  5
63D
330
32
100
AcDbDictionary
280
     1
281
     1
  3
ACAD_XREC_ROUNDTRIP
360
63E
  0
DICTIONARY
  5
645
330
36
100
AcDbDictionary
280
     1
281
     1
  3
ACAD_XREC_ROUNDTRIP
360
646
  0
DICTIONARY
  5
64D
330
3A
100
AcDbDictionary
280
     1
281
     1
  3
ACAD_XREC_ROUNDTRIP
360
64E
  0
DICTIONARY
  5
641
330
34
100
AcDbDictionary
280
     1
281
     1
  3
ACAD_XREC_ROUNDTRIP
360
642
  0
DICTIONARY
  5
643
330
35
100
AcDbDictionary
280
     1
281
     1
  3
ACAD_XREC_ROUNDTRIP
360
644
  0
DICTIONARY
  5
64B
330
39
100
AcDbDictionary
280
     1
281
     1
  3
ACAD_XREC_ROUNDTRIP
360
64C
  0
DICTIONARY
  5
62F
330
2B
100
AcDbDictionary
280
     1
281
     1
  3
ACAD_XREC_ROUNDTRIP
360
630
  0
DICTIONARY
  5
631
330
2C
100
AcDbDictionary
280
     1
281
     1
  3
ACAD_XREC_ROUNDTRIP
360
632
  0
DICTIONARY
  5
633
330
2D
100
AcDbDictionary
280
     1
281
     1
  3
ACAD_XREC_ROUNDTRIP
360
634
  0
DICTIONARY
  5
635
330
2E
100
AcDbDictionary
280
     1
281
     1
  3
ACAD_XREC_ROUNDTRIP
360
636
  0
DICTIONARY
  5
649
330
38
100
AcDbDictionary
280
     1
281
     1
  3
ACAD_XREC_ROUNDTRIP
360
64A
  0
DICTIONARY
  5
63F
330
33
100
AcDbDictionary
280
     1
281
     1
  3
ACAD_XREC_ROUNDTRIP
360
640
  0
DICTIONARY
  5
647
330
37
100
AcDbDictionary
280
     1
281
     1
  3
ACAD_XREC_ROUNDTRIP
360
648
  0
XRECORD
  5
638
102
{ACAD_REACTORS
330
637
102
}
330
637
100
AcDbXrecord
280
     1
102
RTVSPropertyOp0
 70
     1
102
RTVSPropertyOp1
 70
     1
102
RTVSPropertyOp2
 70
     1
102
RTVSPropertyOp3
 70
     1
102
RTVSPropertyOp4
 70
     1
102
RTVSPropertyOp5
 70
     1
102
RTVSPropertyOp6
 70
     1
102
RTVSPropertyOp7
 70
     1
102
RTVSPropertyOp8
 70
     1
102
RTVSPropertyOp9
 70
     1
102
RTVSPropertyOp10
 70
     1
102
RTVSPropertyOp11
 70
     1
102
RTVSPropertyOp12
 70
     1
102
RTVSPropertyOp13
 70
     1
102
RTVSPropertyOp14
 70
     1
102
RTVSPropertyOp15
 70
     1
102
RTVSPropertyOp16
 70
     1
102
RTVSPropertyOp17
 70
     1
102
RTVSPropertyOp18
 70
     1
102
RTVSPropertyOp19
 70
     1
102
RTVSPropertyOp20
 70
     1
102
RTVSPropertyOp21
 70
     1
102
RTVSPropertyOp22
 70
     1
102
RTVSPropertyOp23
 70
     1
102
RTVSPropertyOp24
 70
     1
102
RTVSPropertyOp25
 70
     1
102
RTVSPropertyOp26
 70
     1
102
RTVSPropertyOp27
 70
     1
  0
XRECORD
  5
63C
102
{ACAD_REACTORS
330
63B
102
}
330
63B
100
AcDbXrecord
280
     1
102
RTVSPropertyOp0
 70
     1
102
RTVSPropertyOp1
 70
     1
102
RTVSPropertyOp2
 70
     1
102
RTVSPropertyOp3
 70
     1
102
RTVSPropertyOp4
 70
     1
102
RTVSPropertyOp5
 70
     1
102
RTVSPropertyOp6
 70
     1
102
RTVSPropertyOp7
 70
     1
102
RTVSPropertyOp8
 70
     1
102
RTVSPropertyOp9
 70
     1
102
RTVSPropertyOp10
 70
     1
102
RTVSPropertyOp11
 70
     1
102
RTVSPropertyOp12
 70
     1
102
RTVSPropertyOp13
 70
     1
102
RTVSPropertyOp14
 70
     1
102
RTVSPropertyOp15
 70
     1
102
RTVSPropertyOp16
 70
     1
102
RTVSPropertyOp17
 70
     1
102
RTVSPropertyOp18
 70
     1
102
RTVSPropertyOp19
 70
     1
102
RTVSPropertyOp20
 70
     1
102
RTVSPropertyOp21
 70
     1
102
RTVSPropertyOp22
 70
     1
102
RTVSPropertyOp23
 70
     1
102
RTVSPropertyOp24
 70
     1
102
RTVSPropertyOp25
 70
     1
102
RTVSPropertyOp26
 70
     1
102
RTVSPropertyOp27
 70
     1
  0
XRECORD
  5
63A
102
{ACAD_REACTORS
330
639
102
}
330
639
100
AcDbXrecord
280
     1
102
RTVSPropertyOp0
 70
     1
102
RTVSPropertyOp1
 70
     1
102
RTVSPropertyOp2
 70
     1
102
RTVSPropertyOp3
 70
     1
102
RTVSPropertyOp4
 70
     1
102
RTVSPropertyOp5
 70
     1
102
RTVSPropertyOp6
 70
     1
102
RTVSPropertyOp7
 70
     1
102
RTVSPropertyOp8
 70
     1
102
RTVSPropertyOp9
 70
     1
102
RTVSPropertyOp10
 70
     1
102
RTVSPropertyOp11
 70
     1
102
RTVSPropertyOp12
 70
     1
102
RTVSPropertyOp13
 70
     1
102
RTVSPropertyOp14
 70
     1
102
RTVSPropertyOp15
 70
     1
102
RTVSPropertyOp16
 70
     1
102
RTVSPropertyOp17
 70
     1
102
RTVSPropertyOp18
 70
     1
102
RTVSPropertyOp19
 70
     1
102
RTVSPropertyOp20
 70
     1
102
RTVSPropertyOp21
 70
     1
102
RTVSPropertyOp22
 70
     1
102
RTVSPropertyOp23
 70
     1
102
RTVSPropertyOp24
 70
     1
102
RTVSPropertyOp25
 70
     1
102
RTVSPropertyOp26
 70
     1
102
RTVSPropertyOp27
 70
     1
  0
XRECORD
  5
63E
102
{ACAD_REACTORS
330
63D
102
}
330
63D
100
AcDbXrecord
280
     1
102
RTVSPropertyOp0
 70
     1
102
RTVSPropertyOp1
 70
     1
102
RTVSPropertyOp2
 70
     1
102
RTVSPropertyOp3
 70
     1
102
RTVSPropertyOp4
 70
     1
102
RTVSPropertyOp5
 70
     1
102
RTVSPropertyOp6
 70
     1
102
RTVSPropertyOp7
 70
     1
102
RTVSPropertyOp8
 70
     1
102
RTVSPropertyOp9
 70
     1
102
RTVSPropertyOp10
 70
     1
102
RTVSPropertyOp11
 70
     1
102
RTVSPropertyOp12
 70
     1
102
RTVSPropertyOp13
 70
     1
102
RTVSPropertyOp14
 70
     1
102
RTVSPropertyOp15
 70
     1
102
RTVSPropertyOp16
 70
     1
102
RTVSPropertyOp17
 70
     1
102
RTVSPropertyOp18
 70
     1
102
RTVSPropertyOp19
 70
     1
102
RTVSPropertyOp20
 70
     1
102
RTVSPropertyOp21
 70
     1
102
RTVSPropertyOp22
 70
     1
102
RTVSPropertyOp23
 70
     1
102
RTVSPropertyOp24
 70
     1
102
RTVSPropertyOp25
 70
     1
102
RTVSPropertyOp26
 70
     1
102
RTVSPropertyOp27
 70
     1
  0
XRECORD
  5
646
102
{ACAD_REACTORS
330
645
102
}
330
645
100
AcDbXrecord
280
     1
102
RTVSPropertyOp0
 70
     1
102
RTVSPropertyOp1
 70
     1
102
RTVSPropertyOp2
 70
     1
102
RTVSPropertyOp3
 70
     1
102
RTVSPropertyOp4
 70
     1
102
RTVSPropertyOp5
 70
     1
102
RTVSPropertyOp6
 70
     1
102
RTVSPropertyOp7
 70
     1
102
RTVSPropertyOp8
 70
     1
102
RTVSPropertyOp9
 70
     1
102
RTVSPropertyOp10
 70
     1
102
RTVSPropertyOp11
 70
     1
102
RTVSPropertyOp12
 70
     1
102
RTVSPropertyOp13
 70
     1
102
RTVSPropertyOp14
 70
     1
102
RTVSPropertyOp15
 70
     1
102
RTVSPropertyOp16
 70
     1
102
RTVSPropertyOp17
 70
     1
102
RTVSPropertyOp18
 70
     1
102
RTVSPropertyOp19
 70
     1
102
RTVSPropertyOp20
 70
     1
102
RTVSPropertyOp21
 70
     1
102
RTVSPropertyOp22
 70
     1
102
RTVSPropertyOp23
 70
     1
102
RTVSPropertyOp24
 70
     1
102
RTVSPropertyOp25
 70
     1
102
RTVSPropertyOp26
 70
     1
102
RTVSPropertyOp27
 70
     1
  0
XRECORD
  5
64E
102
{ACAD_REACTORS
330
64D
102
}
330
64D
100
AcDbXrecord
280
     1
102
RTVSPropertyOp0
 70
     1
102
RTVSPropertyOp1
 70
     1
102
RTVSPropertyOp2
 70
     1
102
RTVSPropertyOp3
 70
     1
102
RTVSPropertyOp4
 70
     1
102
RTVSPropertyOp5
 70
     1
102
RTVSPropertyOp6
 70
     1
102
RTVSPropertyOp7
 70
     1
102
RTVSPropertyOp8
 70
     1
102
RTVSPropertyOp9
 70
     1
102
RTVSPropertyOp10
 70
     1
102
RTVSPropertyOp11
 70
     1
102
RTVSPropertyOp12
 70
     1
102
RTVSPropertyOp13
 70
     1
102
RTVSPropertyOp14
 70
     1
102
RTVSPropertyOp15
 70
     1
102
RTVSPropertyOp16
 70
     1
102
RTVSPropertyOp17
 70
     1
102
RTVSPropertyOp18
 70
     1
102
RTVSPropertyOp19
 70
     1
102
RTVSPropertyOp20
 70
     1
102
RTVSPropertyOp21
 70
     1
102
RTVSPropertyOp22
 70
     1
102
RTVSPropertyOp23
 70
     1
102
RTVSPropertyOp24
 70
     1
102
RTVSPropertyOp25
 70
     1
102
RTVSPropertyOp26
 70
     1
102
RTVSPropertyOp27
 70
     1
  0
XRECORD
  5
642
102
{ACAD_REACTORS
330
641
102
}
330
641
100
AcDbXrecord
280
     1
102
RTVSPropertyOp0
 70
     1
102
RTVSPropertyOp1
 70
     1
102
RTVSPropertyOp2
 70
     1
102
RTVSPropertyOp3
 70
     1
102
RTVSPropertyOp4
 70
     1
102
RTVSPropertyOp5
 70
     1
102
RTVSPropertyOp6
 70
     1
102
RTVSPropertyOp7
 70
     1
102
RTVSPropertyOp8
 70
     1
102
RTVSPropertyOp9
 70
     1
102
RTVSPropertyOp10
 70
     1
102
RTVSPropertyOp11
 70
     1
102
RTVSPropertyOp12
 70
     1
102
RTVSPropertyOp13
 70
     1
102
RTVSPropertyOp14
 70
     1
102
RTVSPropertyOp15
 70
     1
102
RTVSPropertyOp16
 70
     1
102
RTVSPropertyOp17
 70
     1
102
RTVSPropertyOp18
 70
     1
102
RTVSPropertyOp19
 70
     1
102
RTVSPropertyOp20
 70
     1
102
RTVSPropertyOp21
 70
     1
102
RTVSPropertyOp22
 70
     1
102
RTVSPropertyOp23
 70
     1
102
RTVSPropertyOp24
 70
     1
102
RTVSPropertyOp25
 70
     1
102
RTVSPropertyOp26
 70
     1
102
RTVSPropertyOp27
 70
     1
  0
XRECORD
  5
644
102
{ACAD_REACTORS
330
643
102
}
330
643
100
AcDbXrecord
280
     1
102
RTVSPropertyOp0
 70
     1
102
RTVSPropertyOp1
 70
     1
102
RTVSPropertyOp2
 70
     1
102
RTVSPropertyOp3
 70
     1
102
RTVSPropertyOp4
 70
     1
102
RTVSPropertyOp5
 70
     1
102
RTVSPropertyOp6
 70
     1
102
RTVSPropertyOp7
 70
     1
102
RTVSPropertyOp8
 70
     1
102
RTVSPropertyOp9
 70
     1
102
RTVSPropertyOp10
 70
     1
102
RTVSPropertyOp11
 70
     1
102
RTVSPropertyOp12
 70
     1
102
RTVSPropertyOp13
 70
     1
102
RTVSPropertyOp14
 70
     1
102
RTVSPropertyOp15
 70
     1
102
RTVSPropertyOp16
 70
     1
102
RTVSPropertyOp17
 70
     1
102
RTVSPropertyOp18
 70
     1
102
RTVSPropertyOp19
 70
     1
102
RTVSPropertyOp20
 70
     1
102
RTVSPropertyOp21
 70
     1
102
RTVSPropertyOp22
 70
     1
102
RTVSPropertyOp23
 70
     1
102
RTVSPropertyOp24
 70
     1
102
RTVSPropertyOp25
 70
     1
102
RTVSPropertyOp26
 70
     1
102
RTVSPropertyOp27
 70
     1
  0
XRECORD
  5
64C
102
{ACAD_REACTORS
330
64B
102
}
330
64B
100
AcDbXrecord
280
     1
102
RTVSPropertyOp0
 70
     1
102
RTVSPropertyOp1
 70
     1
102
RTVSPropertyOp2
 70
     1
102
RTVSPropertyOp3
 70
     1
102
RTVSPropertyOp4
 70
     1
102
RTVSPropertyOp5
 70
     1
102
RTVSPropertyOp6
 70
     1
102
RTVSPropertyOp7
 70
     1
102
RTVSPropertyOp8
 70
     1
102
RTVSPropertyOp9
 70
     1
102
RTVSPropertyOp10
 70
     1
102
RTVSPropertyOp11
 70
     1
102
RTVSPropertyOp12
 70
     1
102
RTVSPropertyOp13
 70
     1
102
RTVSPropertyOp14
 70
     1
102
RTVSPropertyOp15
 70
     1
102
RTVSPropertyOp16
 70
     1
102
RTVSPropertyOp17
 70
     1
102
RTVSPropertyOp18
 70
     1
102
RTVSPropertyOp19
 70
     1
102
RTVSPropertyOp20
 70
     1
102
RTVSPropertyOp21
 70
     1
102
RTVSPropertyOp22
 70
     1
102
RTVSPropertyOp23
 70
     1
102
RTVSPropertyOp24
 70
     1
102
RTVSPropertyOp25
 70
     1
102
RTVSPropertyOp26
 70
     1
102
RTVSPropertyOp27
 70
     1
  0
XRECORD
  5
630
102
{ACAD_REACTORS
330
62F
102
}
330
62F
100
AcDbXrecord
280
     1
102
RTVSPropertyOp0
 70
     1
102
RTVSPropertyOp1
 70
     1
102
RTVSPropertyOp2
 70
     1
102
RTVSPropertyOp3
 70
     1
102
RTVSPropertyOp4
 70
     1
102
RTVSPropertyOp5
 70
     1
102
RTVSPropertyOp6
 70
     1
102
RTVSPropertyOp7
 70
     1
102
RTVSPropertyOp8
 70
     1
102
RTVSPropertyOp9
 70
     1
102
RTVSPropertyOp10
 70
     1
102
RTVSPropertyOp11
 70
     1
102
RTVSPropertyOp12
 70
     1
102
RTVSPropertyOp13
 70
     1
102
RTVSPropertyOp14
 70
     1
102
RTVSPropertyOp15
 70
     1
102
RTVSPropertyOp16
 70
     1
102
RTVSPropertyOp17
 70
     1
102
RTVSPropertyOp18
 70
     1
102
RTVSPropertyOp19
 70
     1
102
RTVSPropertyOp20
 70
     1
102
RTVSPropertyOp21
 70
     1
102
RTVSPropertyOp22
 70
     1
102
RTVSPropertyOp23
 70
     1
102
RTVSPropertyOp24
 70
     1
102
RTVSPropertyOp25
 70
     1
102
RTVSPropertyOp26
 70
     1
102
RTVSPropertyOp27
 70
     1
  0
XRECORD
  5
632
102
{ACAD_REACTORS
330
631
102
}
330
631
100
AcDbXrecord
280
     1
102
RTVSPropertyOp0
 70
     1
102
RTVSPropertyOp1
 70
     1
102
RTVSPropertyOp2
 70
     1
102
RTVSPropertyOp3
 70
     1
102
RTVSPropertyOp4
 70
     1
102
RTVSPropertyOp5
 70
     1
102
RTVSPropertyOp6
 70
     1
102
RTVSPropertyOp7
 70
     1
102
RTVSPropertyOp8
 70
     1
102
RTVSPropertyOp9
 70
     1
102
RTVSPropertyOp10
 70
     1
102
RTVSPropertyOp11
 70
     1
102
RTVSPropertyOp12
 70
     1
102
RTVSPropertyOp13
 70
     1
102
RTVSPropertyOp14
 70
     1
102
RTVSPropertyOp15
 70
     1
102
RTVSPropertyOp16
 70
     1
102
RTVSPropertyOp17
 70
     1
102
RTVSPropertyOp18
 70
     1
102
RTVSPropertyOp19
 70
     1
102
RTVSPropertyOp20
 70
     1
102
RTVSPropertyOp21
 70
     1
102
RTVSPropertyOp22
 70
     1
102
RTVSPropertyOp23
 70
     1
102
RTVSPropertyOp24
 70
     1
102
RTVSPropertyOp25
 70
     1
102
RTVSPropertyOp26
 70
     1
102
RTVSPropertyOp27
 70
     1
  0
XRECORD
  5
634
102
{ACAD_REACTORS
330
633
102
}
330
633
100
AcDbXrecord
280
     1
102
RTVSPropertyOp0
 70
     1
102
RTVSPropertyOp1
 70
     1
102
RTVSPropertyOp2
 70
     1
102
RTVSPropertyOp3
 70
     1
102
RTVSPropertyOp4
 70
     1
102
RTVSPropertyOp5
 70
     1
102
RTVSPropertyOp6
 70
     1
102
RTVSPropertyOp7
 70
     1
102
RTVSPropertyOp8
 70
     1
102
RTVSPropertyOp9
 70
     1
102
RTVSPropertyOp10
 70
     1
102
RTVSPropertyOp11
 70
     1
102
RTVSPropertyOp12
 70
     1
102
RTVSPropertyOp13
 70
     1
102
RTVSPropertyOp14
 70
     1
102
RTVSPropertyOp15
 70
     1
102
RTVSPropertyOp16
 70
     1
102
RTVSPropertyOp17
 70
     1
102
RTVSPropertyOp18
 70
     1
102
RTVSPropertyOp19
 70
     1
102
RTVSPropertyOp20
 70
     1
102
RTVSPropertyOp21
 70
     1
102
RTVSPropertyOp22
 70
     1
102
RTVSPropertyOp23
 70
     1
102
RTVSPropertyOp24
 70
     1
102
RTVSPropertyOp25
 70
     1
102
RTVSPropertyOp26
 70
     1
102
RTVSPropertyOp27
 70
     1
  0
XRECORD
  5
636
102
{ACAD_REACTORS
330
635
102
}
330
635
100
AcDbXrecord
280
     1
102
RTVSPropertyOp0
 70
     1
102
RTVSPropertyOp1
 70
     1
102
RTVSPropertyOp2
 70
     1
102
RTVSPropertyOp3
 70
     1
102
RTVSPropertyOp4
 70
     1
102
RTVSPropertyOp5
 70
     1
102
RTVSPropertyOp6
 70
     1
102
RTVSPropertyOp7
 70
     1
102
RTVSPropertyOp8
 70
     1
102
RTVSPropertyOp9
 70
     1
102
RTVSPropertyOp10
 70
     1
102
RTVSPropertyOp11
 70
     1
102
RTVSPropertyOp12
 70
     1
102
RTVSPropertyOp13
 70
     1
102
RTVSPropertyOp14
 70
     1
102
RTVSPropertyOp15
 70
     1
102
RTVSPropertyOp16
 70
     1
102
RTVSPropertyOp17
 70
     1
102
RTVSPropertyOp18
 70
     1
102
RTVSPropertyOp19
 70
     1
102
RTVSPropertyOp20
 70
     1
102
RTVSPropertyOp21
 70
     1
102
RTVSPropertyOp22
 70
     1
102
RTVSPropertyOp23
 70
     1
102
RTVSPropertyOp24
 70
     1
102
RTVSPropertyOp25
 70
     1
102
RTVSPropertyOp26
 70
     1
102
RTVSPropertyOp27
 70
     1
  0
XRECORD
  5
64A
102
{ACAD_REACTORS
330
649
102
}
330
649
100
AcDbXrecord
280
     1
102
RTVSPropertyOp0
 70
     1
102
RTVSPropertyOp1
 70
     1
102
RTVSPropertyOp2
 70
     1
102
RTVSPropertyOp3
 70
     1
102
RTVSPropertyOp4
 70
     1
102
RTVSPropertyOp5
 70
     1
102
RTVSPropertyOp6
 70
     1
102
RTVSPropertyOp7
 70
     1
102
RTVSPropertyOp8
 70
     1
102
RTVSPropertyOp9
 70
     1
102
RTVSPropertyOp10
 70
     1
102
RTVSPropertyOp11
 70
     1
102
RTVSPropertyOp12
 70
     1
102
RTVSPropertyOp13
 70
     1
102
RTVSPropertyOp14
 70
     1
102
RTVSPropertyOp15
 70
     1
102
RTVSPropertyOp16
 70
     1
102
RTVSPropertyOp17
 70
     1
102
RTVSPropertyOp18
 70
     1
102
RTVSPropertyOp19
 70
     1
102
RTVSPropertyOp20
 70
     1
102
RTVSPropertyOp21
 70
     1
102
RTVSPropertyOp22
 70
     1
102
RTVSPropertyOp23
 70
     1
102
RTVSPropertyOp24
 70
     1
102
RTVSPropertyOp25
 70
     1
102
RTVSPropertyOp26
 70
     1
102
RTVSPropertyOp27
 70
     1
  0
XRECORD
  5
640
102
{ACAD_REACTORS
330
63F
102
}
330
63F
100
AcDbXrecord
280
     1
102
RTVSPropertyOp0
 70
     1
102
RTVSPropertyOp1
 70
     1
102
RTVSPropertyOp2
 70
     1
102
RTVSPropertyOp3
 70
     1
102
RTVSPropertyOp4
 70
     1
102
RTVSPropertyOp5
 70
     1
102
RTVSPropertyOp6
 70
     1
102
RTVSPropertyOp7
 70
     1
102
RTVSPropertyOp8
 70
     1
102
RTVSPropertyOp9
 70
     1
102
RTVSPropertyOp10
 70
     1
102
RTVSPropertyOp11
 70
     1
102
RTVSPropertyOp12
 70
     1
102
RTVSPropertyOp13
 70
     1
102
RTVSPropertyOp14
 70
     1
102
RTVSPropertyOp15
 70
     1
102
RTVSPropertyOp16
 70
     1
102
RTVSPropertyOp17
 70
     1
102
RTVSPropertyOp18
 70
     1
102
RTVSPropertyOp19
 70
     1
102
RTVSPropertyOp20
 70
     1
102
RTVSPropertyOp21
 70
     1
102
RTVSPropertyOp22
 70
     1
102
RTVSPropertyOp23
 70
     1
102
RTVSPropertyOp24
 70
     1
102
RTVSPropertyOp25
 70
     1
102
RTVSPropertyOp26
 70
     1
102
RTVSPropertyOp27
 70
     1
  0
XRECORD
  5
648
102
{ACAD_REACTORS
330
647
102
}
330
647
100
AcDbXrecord
280
     1
102
RTVSPropertyOp0
 70
     1
102
RTVSPropertyOp1
 70
     1
102
RTVSPropertyOp2
 70
     1
102
RTVSPropertyOp3
 70
     1
102
RTVSPropertyOp4
 70
     1
102
RTVSPropertyOp5
 70
     1
102
RTVSPropertyOp6
 70
     1
102
RTVSPropertyOp7
 70
     1
102
RTVSPropertyOp8
 70
     1
102
RTVSPropertyOp9
 70
     1
102
RTVSPropertyOp10
 70
     1
102
RTVSPropertyOp11
 70
     1
102
RTVSPropertyOp12
 70
     1
102
RTVSPropertyOp13
 70
     1
102
RTVSPropertyOp14
 70
     1
102
RTVSPropertyOp15
 70
     1
102
RTVSPropertyOp16
 70
     1
102
RTVSPropertyOp17
 70
     1
102
RTVSPropertyOp18
 70
     1
102
RTVSPropertyOp19
 70
     1
102
RTVSPropertyOp20
 70
     1
102
RTVSPropertyOp21
 70
     1
102
RTVSPropertyOp22
 70
     1
102
RTVSPropertyOp23
 70
     1
102
RTVSPropertyOp24
 70
     1
102
RTVSPropertyOp25
 70
     1
102
RTVSPropertyOp26
 70
     1
102
RTVSPropertyOp27
 70
     1
  0
ENDSEC
  0
EOF
