  0
SECTION
  2
HEADER
  9
$ACADVER
  1
AC1015
  9
$ACADMAINTVER
 70
     6
  9
$DWGCODEPAGE
  3
ANSI_1252
  9
$INSBASE
 10
0.0
 20
0.0
 30
0.0
  9
$EXTMIN
 10
0.0
 20
0.0
 30
0.0
  9
$EXTMAX
 10
3000.0
 20
4500.0
 30
0.0
  9
$LIMMIN
 10
0.0
 20
0.0
  9
$LIMMAX
 10
3000.0
 20
4500.0
  9
$ORTHOMODE
 70
     0
  9
$REGENMODE
 70
     1
  9
$FILLMODE
 70
     1
  9
$QTEXTMODE
 70
     0
  9
$MIRRTEXT
 70
     1
  9
$LTSCALE
 40
1.0
  9
$ATTMODE
 70
     1
  9
$TEXTSIZE
 40
2.5
  9
$TRACEWID
 40
1.0
  9
$TEXTSTYLE
  7
Standard
  9
$CLAYER
  8
0
  9
$CELTYPE
  6
ByLayer
  9
$CECOLOR
 62
   256
  9
$CELTSCALE
 40
1.0
  9
$DISPSILH
 70
     0
  9
$DIMSCALE
 40
1.0
  9
$DIMASZ
 40
2.5
  9
$DIMEXO
 40
0.625
  9
$DIMDLI
 40
3.75
  9
$DIMRND
 40
0.0
  9
$DIMDLE
 40
0.0
  9
$DIMEXE
 40
1.25
  9
$DIMTP
 40
0.0
  9
$DIMTM
 40
0.0
  9
$DIMTXT
 40
2.5
  9
$DIMCEN
 40
2.5
  9
$DIMTSZ
 40
0.0
  9
$DIMTOL
 70
     0
  9
$DIMLIM
 70
     0
  9
$DIMTIH
 70
     0
  9
$DIMTOH
 70
     0
  9
$DIMSE1
 70
     0
  9
$DIMSE2
 70
     0
  9
$DIMTAD
 70
     1
  9
$DIMZIN
 70
     8
  9
$DIMBLK
  1

  9
$DIMASO
 70
     1
  9
$DIMSHO
 70
     1
  9
$DIMPOST
  1

  9
$DIMAPOST
  1

  9
$DIMALT
 70
     0
  9
$DIMALTD
 70
     3
  9
$DIMALTF
 40
0.0393700787
  9
$DIMLFAC
 40
1.0
  9
$DIMTOFL
 70
     1
  9
$DIMTVP
 40
0.0
  9
$DIMTIX
 70
     0
  9
$DIMSOXD
 70
     0
  9
$DIMSAH
 70
     0
  9
$DIMBLK1
  1

  9
$DIMBLK2
  1

  9
$DIMSTYLE
  2
ISO-25
  9
$DIMCLRD
 70
     0
  9
$DIMCLRE
 70
     0
  9
$DIMCLRT
 70
     0
  9
$DIMTFAC
 40
1.0
  9
$DIMGAP
 40
0.625
  9
$DIMJUST
 70
     0
  9
$DIMSD1
 70
     0
  9
$DIMSD2
 70
     0
  9
$DIMTOLJ
 70
     0
  9
$DIMTZIN
 70
     8
  9
$DIMALTZ
 70
     0
  9
$DIMALTTZ
 70
     0
  9
$DIMUPT
 70
     0
  9
$DIMDEC
 70
     2
  9
$DIMTDEC
 70
     2
  9
$DIMALTU
 70
     2
  9
$DIMALTTD
 70
     3
  9
$DIMTXSTY
  7
Standard
  9
$DIMAUNIT
 70
     0
  9
$DIMADEC
 70
     0
  9
$DIMALTRND
 40
0.0
  9
$DIMAZIN
 70
     0
  9
$DIMDSEP
 70
    44
  9
$DIMATFIT
 70
     3
  9
$DIMFRAC
 70
     0
  9
$DIMLDRBLK
  1

  9
$DIMLUNIT
 70
     2
  9
$DIMLWD
 70
    -2
  9
$DIMLWE
 70
    -2
  9
$DIMTMOVE
 70
     0
  9
$LUNITS
 70
     2
  9
$LUPREC
 70
     4
  9
$SKETCHINC
 40
1.0
  9
$FILLETRAD
 40
10.0
  9
$AUNITS
 70
     0
  9
$AUPREC
 70
     0
  9
$MENU
  1
.
  9
$ELEVATION
 40
0.0
  9
$PELEVATION
 40
0.0
  9
$THICKNESS
 40
0.0
  9
$LIMCHECK
 70
     0
  9
$CHAMFERA
 40
10.0
  9
$CHAMFERB
 40
10.0
  9
$CHAMFERC
 40
20.0
  9
$CHAMFERD
 40
0.0
  9
$SKPOLY
 70
     0
  9
$TDCREATE
 40
2456594.589709965
  9
$TDUCREATE
 40
2456594.548043299
  9
$TDUPDATE
 40
2456594.589709977
  9
$TDUUPDATE
 40
2456594.54804331
  9
$TDINDWG
 40
0.0000000116
  9
$TDUSRTIMER
 40
0.0000000116
  9
$USRTIMER
 70
     1
  9
$ANGBASE
 50
0.0
  9
$ANGDIR
 70
     0
  9
$PDMODE
 70
     0
  9
$PDSIZE
 40
0.0
  9
$PLINEWID
 40
0.0
  9
$SPLFRAME
 70
     0
  9
$SPLINETYPE
 70
     6
  9
$SPLINESEGS
 70
     8
  9
$HANDSEED
  5
28D
  9
$SURFTAB1
 70
     6
  9
$SURFTAB2
 70
     6
  9
$SURFTYPE
 70
     6
  9
$SURFU
 70
     6
  9
$SURFV
 70
     6
  9
$UCSBASE
  2

  9
$UCSNAME
  2

  9
$UCSORG
 10
0.0
 20
0.0
 30
0.0
  9
$UCSXDIR
 10
1.0
 20
0.0
 30
0.0
  9
$UCSYDIR
 10
0.0
 20
1.0
 30
0.0
  9
$UCSORTHOREF
  2

  9
$UCSORTHOVIEW
 70
     0
  9
$UCSORGTOP
 10
0.0
 20
0.0
 30
0.0
  9
$UCSORGBOTTOM
 10
0.0
 20
0.0
 30
0.0
  9
$UCSORGLEFT
 10
0.0
 20
0.0
 30
0.0
  9
$UCSORGRIGHT
 10
0.0
 20
0.0
 30
0.0
  9
$UCSORGFRONT
 10
0.0
 20
0.0
 30
0.0
  9
$UCSORGBACK
 10
0.0
 20
0.0
 30
0.0
  9
$PUCSBASE
  2

  9
$PUCSNAME
  2

  9
$PUCSORG
 10
0.0
 20
0.0
 30
0.0
  9
$PUCSXDIR
 10
1.0
 20
0.0
 30
0.0
  9
$PUCSYDIR
 10
0.0
 20
1.0
 30
0.0
  9
$PUCSORTHOREF
  2

  9
$PUCSORTHOVIEW
 70
     0
  9
$PUCSORGTOP
 10
0.0
 20
0.0
 30
0.0
  9
$PUCSORGBOTTOM
 10
0.0
 20
0.0
 30
0.0
  9
$PUCSORGLEFT
 10
0.0
 20
0.0
 30
0.0
  9
$PUCSORGRIGHT
 10
0.0
 20
0.0
 30
0.0
  9
$PUCSORGFRONT
 10
0.0
 20
0.0
 30
0.0
  9
$PUCSORGBACK
 10
0.0
 20
0.0
 30
0.0
  9
$USERI1
 70
     0
  9
$USERI2
 70
     0
  9
$USERI3
 70
     0
  9
$USERI4
 70
     0
  9
$USERI5
 70
     0
  9
$USERR1
 40
0.0
  9
$USERR2
 40
0.0
  9
$USERR3
 40
0.0
  9
$USERR4
 40
0.0
  9
$USERR5
 40
0.0
  9
$WORLDVIEW
 70
     1
  9
$SHADEDGE
 70
     3
  9
$SHADEDIF
 70
    70
  9
$TILEMODE
 70
     1
  9
$MAXACTVP
 70
    64
  9
$PINSBASE
 10
0.0
 20
0.0
 30
0.0
  9
$PLIMCHECK
 70
     0
  9
$PEXTMIN
 10
0.0
 20
0.0
 30
0.0
  9
$PEXTMAX
 10
3000.0
 20
4500.0
 30
0.0
  9
$PLIMMIN
 10
0.0
 20
0.0
  9
$PLIMMAX
 10
3000.0
 20
4500.0
  9
$UNITMODE
 70
     0
  9
$VISRETAIN
 70
     1
  9
$PLINEGEN
 70
     0
  9
$PSLTSCALE
 70
     1
  9
$TREEDEPTH
 70
  3020
  9
$CMLSTYLE
  2
Standard
  9
$CMLJUST
 70
     0
  9
$CMLSCALE
 40
20.0
  9
$PROXYGRAPHICS
 70
     1
  9
$MEASUREMENT
 70
     1
  9
$CELWEIGHT
370
    -1
  9
$ENDCAPS
280
     0
  9
$JOINSTYLE
280
     0
  9
$LWDISPLAY
290
     0
  9
$INSUNITS
 70
     4
  9
$HYPERLINKBASE
  1

  9
$STYLESHEET
  1

  9
$XEDIT
290
     1
  9
$CEPSNTYPE
380
     0
  9
$PSTYLEMODE
290
     1
  9
$FINGERPRINTGUID
  2
{A2DDFB6D-B5C6-4B05-B20D-C19D5AC3B9A5}
  9
$VERSIONGUID
  2
{FAEB1C32-E019-11D5-929B-00C0DF256EC4}
  9
$EXTNAMES
290
     1
  9
$PSVPSCALE
 40
0.0
  9
$OLESTARTUP
290
     0
  0
ENDSEC
  0
SECTION
  2
CLASSES
  0
CLASS
  1
ACDBDICTIONARYWDFLT
  2
AcDbDictionaryWithDefault
  3
ObjectDBX Classes
 90
        0
280
     0
281
     0
  0
CLASS
  1
VISUALSTYLE
  2
AcDbVisualStyle
  3
ObjectDBX Classes
 90
     4095
280
     0
281
     0
  0
CLASS
  1
SCALE
  2
AcDbScale
  3
ObjectDBX Classes
 90
     1153
280
     0
281
     0
  0
CLASS
  1
DICTIONARYVAR
  2
AcDbDictionaryVar
  3
ObjectDBX Classes
 90
        0
280
     0
281
     0
  0
CLASS
  1
ACDBPLACEHOLDER
  2
AcDbPlaceHolder
  3
ObjectDBX Classes
 90
        0
280
     0
281
     0
  0
CLASS
  1
LAYOUT
  2
AcDbLayout
  3
ObjectDBX Classes
 90
        0
280
     0
281
     0
  0
ENDSEC
  0
SECTION
  2
TABLES
  0
TABLE
  2
VPORT
  5
8
330
0
100
AcDbSymbolTable
 70
     1
  0
VPORT
  5
29
330
8
100
AcDbSymbolTableRecord
100
AcDbViewportTableRecord
  2
*Active
 70
     0
 10
0.0
 20
0.0
 11
1.0
 21
1.0
 12
344.1869158879
 22
148.5
 13
0.0
 23
0.0
 14
10.0
 24
10.0
 15
10.0
 25
10.0
 16
0.0
 26
0.0
 36
1.0
 17
0.0
 27
0.0
 37
0.0
 40
297.0
 41
1.9729729729
 42
50.0
 43
0.0
 44
0.0
 50
0.0
 51
0.0
 71
     0
 72
   100
 73
     1
 74
     3
 75
     0
 76
     0
 77
     0
 78
     0
281
     0
 65
     1
110
0.0
120
0.0
130
0.0
111
1.0
121
0.0
131
0.0
112
0.0
122
1.0
132
0.0
 79
     0
146
0.0
  0
ENDTAB
  0
TABLE
  2
LTYPE
  5
5
330
0
100
AcDbSymbolTable
 70
     2
  0
LTYPE
  5
14
330
5
100
AcDbSymbolTableRecord
100
AcDbLinetypeTableRecord
  2
ByBlock
 70
     0
  3

 72
    65
 73
     0
 40
0.0
  0
LTYPE
  5
15
330
5
100
AcDbSymbolTableRecord
100
AcDbLinetypeTableRecord
  2
ByLayer
 70
     0
  3

 72
    65
 73
     0
 40
0.0
  0
LTYPE
  5
16
330
5
100
AcDbSymbolTableRecord
100
AcDbLinetypeTableRecord
  2
Continuous
 70
     0
  3
Solid line
 72
    65
 73
     0
 40
0.0
  0
LTYPE
  5
60
330
5
100
AcDbSymbolTableRecord
100
AcDbLinetypeTableRecord
  2
CENTER2
 70
     0
  3
Center (.5x) ___ _ ___ _ ___ _ ___ _ ___ _ ___
 72
    65
 73
     4
 40
28.575
 49
19.05
 74
     4
 75
     0
340
0
 46
0.0
 50
0.0
 44
0.0
 45
0.0
 49
-3.175
 74
     4
 75
     0
340
0
 46
0.0
 50
0.0
 44
0.0
 45
0.0
 49
3.175
 74
     4
 75
     0
340
0
 46
0.0
 50
0.0
 44
0.0
 45
0.0
 49
-3.175
 74
     4
 75
     0
340
0
 46
0.0
 50
0.0
 44
0.0
 45
0.0
  0
ENDTAB
  0
TABLE
  2
LAYER
  5
2
330
0
100
AcDbSymbolTable
 70
     5
  0
LAYER
  5
10
330
2
100
AcDbSymbolTableRecord
100
AcDbLayerTableRecord
  2
0
 70
     0
 62
     7
  6
Continuous
370
    -3
390
F
  0
LAYER
  5
5D
330
2
100
AcDbSymbolTableRecord
100
AcDbLayerTableRecord
  2
Default
 70
     0
 62
     7
  6
Continuous
370
    -3
390
F
  0
LAYER
  5
86
330
2
100
AcDbSymbolTableRecord
100
AcDbLayerTableRecord
  2
DV1_Default
 70
     0
 62
     7
  6
Continuous
370
    -3
390
F
  0
LAYER
  5
147
330
2
100
AcDbSymbolTableRecord
100
AcDbLayerTableRecord
  2
DV2_Default
 70
     0
 62
     7
  6
Continuous
370
    -3
390
F
  0
LAYER
  5
1E7
330
2
100
AcDbSymbolTableRecord
100
AcDbLayerTableRecord
  2
DV3_Default
 70
     0
 62
     7
  6
Continuous
370
    -3
390
F
  0
ENDTAB
  0
TABLE
  2
STYLE
  5
3
330
0
100
AcDbSymbolTable
 70
     2
  0
STYLE
  5
11
330
3
100
AcDbSymbolTableRecord
100
AcDbTextStyleTableRecord
  2
Standard
 70
     0
 40
0.0
 41
1.0
 50
0.0
 71
     0
 42
2.5
  3
txt
  4

  0
STYLE
  5
27C
330
3
100
AcDbSymbolTableRecord
100
AcDbTextStyleTableRecord
  2
SEACAD_seiso_ttf
 70
     0
 40
0.0
 41
1.0
 50
0.0
 71
     0
 42
0.2
  3
seiso.ttf
  4

  0
ENDTAB
  0
TABLE
  2
VIEW
  5
6
330
0
100
AcDbSymbolTable
 70
     0
  0
ENDTAB
  0
TABLE
  2
UCS
  5
7
330
0
100
AcDbSymbolTable
 70
     0
  0
ENDTAB
  0
TABLE
  2
APPID
  5
9
330
0
100
AcDbSymbolTable
 70
     1
  0
APPID
  5
12
330
9
100
AcDbSymbolTableRecord
100
AcDbRegAppTableRecord
  2
ACAD
 70
     0
  0
ENDTAB
  0
TABLE
  2
DIMSTYLE
  5
A
330
0
100
AcDbSymbolTable
 70
     1
100
AcDbDimStyleTable
  0
DIMSTYLE
105
27
330
A
100
AcDbSymbolTableRecord
100
AcDbDimStyleTableRecord
  2
ISO-25
 70
     0
 41
2.5
 42
0.625
 43
3.75
 44
1.25
 73
     0
 74
     0
 77
     1
 78
     8
140
2.5
141
2.5
143
0.0393700787
147
0.625
171
     3
172
     1
271
     2
272
     2
274
     3
278
    44
283
     0
284
     8
340
11
  0
ENDTAB
  0
TABLE
  2
BLOCK_RECORD
  5
1
330
0
100
AcDbSymbolTable
 70
    10
  0
BLOCK_RECORD
  5
1F
330
1
100
AcDbSymbolTableRecord
100
AcDbBlockTableRecord
  2
*Model_Space
340
22
  0
BLOCK_RECORD
  5
1B
330
1
100
AcDbSymbolTableRecord
100
AcDbBlockTableRecord
  2
*Paper_Space
340
1E
  0
BLOCK_RECORD
  5
5E
330
1
100
AcDbSymbolTableRecord
100
AcDbBlockTableRecord
  2
SEANNOT_GROUP
340
0
102
{BLKREFS
331
5F
102
}
  0
BLOCK_RECORD
  5
65
330
1
100
AcDbSymbolTableRecord
100
AcDbBlockTableRecord
  2
SEANNOT_GROUP1
340
0
102
{BLKREFS
331
66
102
}
  0
BLOCK_RECORD
  5
6B
330
1
100
AcDbSymbolTableRecord
100
AcDbBlockTableRecord
  2
SEANNOT_GROUP2
340
0
102
{BLKREFS
331
6C
102
}
  0
BLOCK_RECORD
  5
71
330
1
100
AcDbSymbolTableRecord
100
AcDbBlockTableRecord
  2
SEANNOT_GROUP3
340
0
102
{BLKREFS
331
72
102
}
  0
BLOCK_RECORD
  5
77
330
1
100
AcDbSymbolTableRecord
100
AcDbBlockTableRecord
  2
SEANNOT_GROUP4
340
0
102
{BLKREFS
331
78
102
}
  0
BLOCK_RECORD
  5
7E
330
1
100
AcDbSymbolTableRecord
100
AcDbBlockTableRecord
  2
SEANNOT_GROUP5
340
0
102
{BLKREFS
331
7F
102
}
  0
BLOCK_RECORD
  5
84
330
1
100
AcDbSymbolTableRecord
100
AcDbBlockTableRecord
  2
SE
340
0
102
{BLKREFS
331
85
102
}
  0
BLOCK_RECORD
  5
145
330
1
100
AcDbSymbolTableRecord
100
AcDbBlockTableRecord
  2
SE1
340
0
102
{BLKREFS
331
146
102
}
  0
BLOCK_RECORD
  5
1E5
330
1
100
AcDbSymbolTableRecord
100
AcDbBlockTableRecord
  2
SE2
340
0
102
{BLKREFS
331
1E6
102
}
  0
ENDTAB
  0
ENDSEC
  0
SECTION
  2
BLOCKS
  0
BLOCK
  5
20
330
1F
100
AcDbEntity
  8
0
100
AcDbBlockBegin
  2
*Model_Space
 70
     0
 10
0.0
 20
0.0
 30
0.0
  3
*Model_Space
  1

  0
ENDBLK
  5
21
330
1F
100
AcDbEntity
  8
0
100
AcDbBlockEnd
  0
BLOCK
  5
1C
330
1B
100
AcDbEntity
 67
     1
  8
0
100
AcDbBlockBegin
  2
*Paper_Space
 70
     0
 10
0.0
 20
0.0
 30
0.0
  3
*Paper_Space
  1

  0
ENDBLK
  5
1D
330
1B
100
AcDbEntity
 67
     1
  8
0
100
AcDbBlockEnd
  0
BLOCK
  5
63
330
5E
100
AcDbEntity
  8
0
100
AcDbBlockBegin
  2
SEANNOT_GROUP
 70
     0
 10
0.0
 20
0.0
 30
0.0
  3
SEANNOT_GROUP
  1

  0
LINE
  5
61
330
5E
100
AcDbEntity
  8
Default
  6
CENTER2
 62
     7
100
AcDbLine
 10
66.1345114807
 20
582.6353374211
 30
0.0
 11
26.1345123748
 21
582.6353374211
 31
0.0
  0
LINE
  5
62
330
5E
100
AcDbEntity
  8
Default
  6
CENTER2
 62
     7
100
AcDbLine
 10
46.1345119277
 20
602.635336974
 30
0.0
 11
46.1345119277
 21
562.6353378681
 31
0.0
  0
ENDBLK
  5
64
330
5E
100
AcDbEntity
  8
0
100
AcDbBlockEnd
  0
BLOCK
  5
69
330
65
100
AcDbEntity
  8
0
100
AcDbBlockBegin
  2
SEANNOT_GROUP1
 70
     0
 10
0.0
 20
0.0
 30
0.0
  3
SEANNOT_GROUP1
  1

  0
LINE
  5
67
330
65
100
AcDbEntity
  8
Default
  6
CENTER2
 62
     7
100
AcDbLine
 10
66.1345114807
 20
653.3210619282
 30
0.0
 11
26.1345123748
 21
653.3210619282
 31
0.0
  0
LINE
  5
68
330
65
100
AcDbEntity
  8
Default
  6
CENTER2
 62
     7
100
AcDbLine
 10
46.1345119277
 20
673.3210614812
 30
0.0
 11
46.1345119277
 21
633.3210623752
 31
0.0
  0
ENDBLK
  5
6A
330
65
100
AcDbEntity
  8
0
100
AcDbBlockEnd
  0
BLOCK
  5
6F
330
6B
100
AcDbEntity
  8
0
100
AcDbBlockBegin
  2
SEANNOT_GROUP2
 70
     0
 10
0.0
 20
0.0
 30
0.0
  3
SEANNOT_GROUP2
  1

  0
LINE
  5
6D
330
6B
100
AcDbEntity
  8
Default
  6
CENTER2
 62
     7
100
AcDbLine
 10
210.3166559283
 20
582.6353374211
 30
0.0
 11
170.3166568224
 21
582.6353374211
 31
0.0
  0
LINE
  5
6E
330
6B
100
AcDbEntity
  8
Default
  6
CENTER2
 62
     7
100
AcDbLine
 10
190.3166563753
 20
602.635336974
 30
0.0
 11
190.3166563753
 21
562.6353378681
 31
0.0
  0
ENDBLK
  5
70
330
6B
100
AcDbEntity
  8
0
100
AcDbBlockEnd
  0
BLOCK
  5
75
330
71
100
AcDbEntity
  8
0
100
AcDbBlockBegin
  2
SEANNOT_GROUP3
 70
     0
 10
0.0
 20
0.0
 30
0.0
  3
SEANNOT_GROUP3
  1

  0
LINE
  5
73
330
71
100
AcDbEntity
  8
Default
  6
CENTER2
 62
     7
100
AcDbLine
 10
340.8757471456
 20
653.324341437
 30
0.0
 11
300.8757480396
 21
653.324341437
 31
0.0
  0
LINE
  5
74
330
71
100
AcDbEntity
  8
Default
  6
CENTER2
 62
     7
100
AcDbLine
 10
320.8757475926
 20
673.3243409899
 30
0.0
 11
320.8757475926
 21
633.324341884
 31
0.0
  0
ENDBLK
  5
76
330
71
100
AcDbEntity
  8
0
100
AcDbBlockEnd
  0
BLOCK
  5
7B
330
77
100
AcDbEntity
  8
0
100
AcDbBlockBegin
  2
SEANNOT_GROUP4
 70
     0
 10
0.0
 20
0.0
 30
0.0
  3
SEANNOT_GROUP4
  1

  0
LINE
  5
79
330
77
100
AcDbEntity
  8
Default
  6
CENTER2
 62
     7
100
AcDbLine
 10
66.1345128912
 20
450.0088440111
 30
0.0
 11
26.1345137853
 21
450.0088440111
 31
0.0
  0
LINE
  5
7A
330
77
100
AcDbEntity
  8
Default
  6
CENTER2
 62
     7
100
AcDbLine
 10
46.1345133382
 20
470.0088435641
 30
0.0
 11
46.1345133382
 21
430.0088444581
 31
0.0
  0
ENDBLK
  5
7C
330
77
100
AcDbEntity
  8
0
100
AcDbBlockEnd
  0
BLOCK
  5
82
330
7E
100
AcDbEntity
  8
0
100
AcDbBlockBegin
  2
SEANNOT_GROUP5
 70
     0
 10
0.0
 20
0.0
 30
0.0
  3
SEANNOT_GROUP5
  1

  0
LINE
  5
80
330
7E
100
AcDbEntity
  8
Default
  6
CENTER2
 62
     7
100
AcDbLine
 10
66.1343484143
 20
319.4983439818
 30
0.0
 11
26.1343493084
 21
319.4983439818
 31
0.0
  0
LINE
  5
81
330
7E
100
AcDbEntity
  8
Default
  6
CENTER2
 62
     7
100
AcDbLine
 10
46.1343488614
 20
339.4983435348
 30
0.0
 11
46.1343488614
 21
299.4983444288
 31
0.0
  0
ENDBLK
  5
83
330
7E
100
AcDbEntity
  8
0
100
AcDbBlockEnd
  0
BLOCK
  5
143
330
84
100
AcDbEntity
  8
0
100
AcDbBlockBegin
  2
SE
 70
     0
 10
0.0
 20
0.0
 30
0.0
  3
SE
  1

  0
LINE
  5
87
330
84
100
AcDbEntity
  8
DV1_Default
  6
Continuous
 62
     7
100
AcDbLine
 10
220.5575733057
 20
582.6353374211
 30
0.0
 11
160.075739445
 21
582.6353374211
 31
0.0
  0
LINE
  5
88
330
84
100
AcDbEntity
  8
DV1_Default
  6
Continuous
 62
     7
100
AcDbLine
 10
212.54219855
 20
592.6353372478
 30
0.0
 11
168.0911142006
 21
592.6353372478
 31
0.0
  0
LINE
  5
89
330
84
100
AcDbEntity
  8
DV1_Default
  6
Continuous
 62
     7
100
AcDbLine
 10
217.7256688243
 20
586.017559051
 30
0.0
 11
162.9076439264
 21
586.017559051
 31
0.0
  0
ARC
  5
8A
330
84
100
AcDbEntity
  8
DV1_Default
  6
Continuous
 62
     7
100
AcDbCircle
 10
212.54219855
 20
592.1353372478
 30
0.0
 40
0.500000000000997
100
AcDbArc
 50
17.0858655338
 51
90.0
  0
ARC
  5
8B
330
84
100
AcDbEntity
  8
DV1_Default
  6
Continuous
 62
     7
100
AcDbCircle
 10
168.0911142006
 20
592.1353372478
 30
0.0
 40
0.5
100
AcDbArc
 50
90.0
 51
162.9141344662
  0
SPLINE
  5
8C
330
84
100
AcDbEntity
  8
DV1_Default
  6
Continuous
 62
     7
100
AcDbSpline
210
0.0
220
0.0
230
1.0
 70
     8
 71
     3
 72
    11
 73
     7
 74
     0
 42
0.0000000013152374
 43
0.0000000001
 40
0.0
 40
0.0
 40
0.0
 40
0.0
 40
0.2821693651551779
 40
0.5556919215952667
 40
0.7738621210868428
 40
1.0
 40
1.0
 40
1.0
 40
1.0
 10
167.6131814389279
 20
592.2822395122331
 30
0.0
 10
167.3464263203097
 20
591.5451961424802
 30
0.0
 10
166.884722535777
 20
590.318459281812
 30
0.0
 10
165.7652276518849
 20
588.6656401959899
 30
0.0
 10
164.5279411162777
 20
587.3021222621866
 30
0.0
 10
163.7455257870878
 20
586.612501343688
 30
0.0
 10
163.2701094238788
 20
586.2019008633001
 30
0.0
  0
SPLINE
  5
8D
330
84
100
AcDbEntity
  8
DV1_Default
  6
Continuous
 62
     7
100
AcDbSpline
210
0.0
220
0.0
230
1.0
 70
     8
 71
     3
 72
    11
 73
     7
 74
     0
 42
0.0000000013155936
 43
0.0000000001
 40
0.0
 40
0.0
 40
0.0
 40
0.0
 40
0.2861648874731246
 40
0.5612801205922502
 40
0.7768996970443355
 40
1.0
 40
1.0
 40
1.0
 40
1.0
 10
217.3632033267592
 20
586.2019008633001
 30
0.0
 10
216.763132829724
 20
586.7234493164755
 30
0.0
 10
215.780181351686
 20
587.6024624775752
 30
0.0
 10
214.5078668472605
 20
589.1435072832162
 30
0.0
 10
213.5759404597388
 20
590.7262604103624
 30
0.0
 10
213.2245663012684
 20
591.6970888786743
 30
0.0
 10
213.0201313117101
 20
592.2822395122331
 30
0.0
  0
ARC
  5
8E
330
84
100
AcDbEntity
  8
DV1_Default
  6
Continuous
 62
     7
100
AcDbCircle
 10
218.4866113484
 20
587.9622995118
 30
0.0
 40
2.088312473003661
100
AcDbArc
 50
237.4557941576
 51
248.6304731478
  0
ARC
  5
8F
330
84
100
AcDbEntity
  8
DV1_Default
  6
Continuous
 62
     7
100
AcDbCircle
 10
162.1467014022
 20
587.9622995118
 30
0.0
 40
2.088312473003039
100
AcDbArc
 50
291.3695268522
 51
302.5442058424
  0
SPLINE
  5
90
330
84
100
AcDbEntity
  8
DV1_Default
  6
Continuous
 62
     7
100
AcDbSpline
210
0.0
220
0.0
230
1.0
 70
     8
 71
     3
 72
    11
 73
     7
 74
     0
 42
0.0000000021498668
 43
0.0000000001
 40
0.0
 40
0.0
 40
0.0
 40
0.0
 40
0.296741503655541
 40
0.5615110235581401
 40
0.7693512641804086
 40
1.0
 40
1.0
 40
1.0
 40
1.0
 10
162.9076439263788
 20
586.0175590510506
 30
0.0
 10
162.4280266105856
 20
585.8765183097883
 30
0.0
 10
161.6605002084515
 20
585.6263001957728
 30
0.0
 10
160.6921879455215
 20
584.8884585031473
 30
0.0
 10
160.059367306601
 20
583.9792376910253
 30
0.0
 10
159.882666750469
 20
583.3739949218286
 30
0.0
 10
159.7824760457023
 20
582.9985559203772
 30
0.0
  0
SPLINE
  5
91
330
84
100
AcDbEntity
  8
DV1_Default
  6
Continuous
 62
     7
100
AcDbSpline
210
0.0
220
0.0
230
1.0
 70
     8
 71
     3
 72
    11
 73
     7
 74
     0
 42
0.0000000021486073
 43
0.0000000001
 40
0.0
 40
0.0
 40
0.0
 40
0.0
 40
0.2881516078281777
 40
0.5493788762048093
 40
0.7628120286010359
 40
1.0
 40
1.0
 40
1.0
 40
1.0
 10
220.8508367049357
 20
582.9985559203772
 30
0.0
 10
220.7187401431956
 20
583.4655692433535
 30
0.0
 10
220.4807915126935
 20
584.2260141757617
 30
0.0
 10
219.6747646644172
 20
585.1324346843021
 30
0.0
 10
218.725802012049
 20
585.7175696290813
 30
0.0
 10
218.1098573609632
 20
585.9080264016352
 30
0.0
 10
217.7256688242592
 20
586.0175590510506
 30
0.0
  0
ARC
  5
92
330
84
100
AcDbEntity
  8
DV1_Default
  6
Continuous
 62
     7
100
AcDbCircle
 10
220.5575733057
 20
582.9353374211
 30
0.0
 40
0.2999999999999999
100
AcDbArc
 50
270.0
 51
12.1650377108
  0
ARC
  5
93
330
84
100
AcDbEntity
  8
DV1_Default
  6
Continuous
 62
     7
100
AcDbCircle
 10
160.075739445
 20
582.9353374211
 30
0.0
 40
0.3000000000016066
100
AcDbArc
 50
167.8349622892
 51
270.0
  0
ARC
  5
94
330
84
100
AcDbEntity
  8
DV1_Default
  6
Continuous
 62
     7
100
AcDbCircle
 10
-13.495978869
 20
608.1463610651
 30
0.0
 40
181.9348455275567
100
AcDbArc
 50
356.4572566987
 51
357.4343946444
  0
ARC
  5
95
330
84
100
AcDbEntity
  8
DV1_Default
  6
Continuous
 62
     7
100
AcDbCircle
 10
168.5562047816
 20
599.9890723017
 30
0.0
 40
0.3000000022423427
100
AcDbArc
 50
123.8644638274
 51
177.4619174512
  0
ARC
  5
96
330
84
100
AcDbEntity
  8
DV1_Default
  6
Continuous
 62
     7
100
AcDbCircle
 10
168.5562047816
 20
599.9890723017
 30
0.0
 40
0.3000000022423427
100
AcDbArc
 50
111.6249540366
 51
123.8644638274
  0
LINE
  5
97
330
84
100
AcDbEntity
  8
DV1_Default
  6
Continuous
 62
     7
100
AcDbLine
 10
212.8168581401
 20
592.6563491434
 30
0.0
 11
212.8183335883
 21
592.6401118305
 31
0.0
  0
LINE
  5
98
330
84
100
AcDbEntity
  8
DV1_Default
  6
Continuous
 62
     7
100
AcDbLine
 10
167.8153644938
 20
592.6401118305
 30
0.0
 11
167.8164998246
 21
592.656339657
 31
0.0
  0
ARC
  5
99
330
84
100
AcDbEntity
  8
DV1_Default
  6
Continuous
 62
     7
100
AcDbCircle
 10
839.4876526282
 20
796.7215604836
 30
0.0
 40
554.9239196191279
100
AcDbArc
 50
193.9057727632
 51
194.6342071443
  0
SPLINE
  5
9A
330
84
100
AcDbEntity
  8
DV1_Default
  6
Continuous
 62
     7
100
AcDbSpline
210
0.0
220
0.0
230
1.0
 70
     8
 71
     3
 72
    16
 73
    12
 74
     0
 42
0.0000000001201798
 43
0.0000000001
 40
0.0
 40
0.0
 40
0.0
 40
0.0
 40
0.05847353004941
 40
0.1883877244045
 40
0.3183019187596
 40
0.4482161131147001
 40
0.5781303074698
 40
0.7080445018249001
 40
0.83795869618
 40
0.967872890535
 40
1.0
 40
1.0
 40
1.0
 40
1.0
 10
300.827291872519
 20
663.3590008350309
 30
0.0
 10
300.610472438919
 20
664.1916276060209
 30
0.0
 10
299.835463413919
 20
667.0049853995608
 30
0.0
 10
297.854744289219
 20
672.3285669569908
 30
0.0
 10
293.245026468019
 20
678.4340659323709
 30
0.0
 10
285.8287661851489
 20
682.5829078767109
 30
0.0
 10
275.654313335089
 20
683.5284671396709
 30
0.0
 10
263.439085774799
 20
680.5845844706809
 30
0.0
 10
250.396628522299
 20
673.7245251244208
 30
0.0
 10
241.076382472009
 20
666.0990145558909
 30
0.0
 10
236.400369578619
 20
661.2861495647609
 30
0.0
 10
235.495078035219
 20
660.3125152148208
 30
0.0
  0
SPLINE
  5
9B
330
84
100
AcDbEntity
  8
DV1_Default
  6
Continuous
 62
     7
100
AcDbSpline
210
0.0
220
0.0
230
1.0
 70
    12
 71
     3
 72
    14
 73
    10
 74
     0
 42
0.0000000001393172
 43
0.0000000001
 40
0.0
 40
0.0
 40
0.0
 40
0.0
 40
0.1177384695331
 40
0.2741589051273
 40
0.4305793407215
 40
0.5869997763157
 40
0.7434202119098
 40
0.899840647504
 40
1.0
 40
1.0
 40
1.0
 40
1.0
 10
235.495078035219
 20
660.3125152148208
 30
0.0
 41
1.0
 10
232.739591392249
 20
657.349009738721
 30
0.0
 41
1.0
 10
226.793564660209
 20
650.0295968980308
 30
0.0
 41
1.0
 10
219.718562191179
 20
637.8212253344509
 30
0.0
 41
1.0
 10
215.082860955289
 20
625.0004963509108
 30
0.0
 41
1.0
 10
213.072235070359
 20
613.7900640448609
 30
0.0
 41
1.0
 10
212.667600700139
 20
604.8277242787309
 30
0.0
 41
1.0
 10
212.701434931289
 20
598.882728006901
 30
0.0
 41
1.0
 10
212.668260305429
 20
595.8073346593709
 30
0.0
 41
1.0
 10
212.703014946469
 20
594.6308384866909
 30
0.0
 41
1.0
  0
ARC
  5
9C
330
84
100
AcDbEntity
  8
DV1_Default
  6
Continuous
 62
     7
100
AcDbCircle
 10
191.4915321809
 20
33823.9455238394
 30
0.0
 40
33229.32145538332
100
AcDbArc
 50
270.0358836989
 51
270.0365739795
  0
ARC
  5
9D
330
84
100
AcDbEntity
  8
DV1_Default
  6
Continuous
 62
     7
100
AcDbCircle
 10
-486.7547596939
 20
636.6429474619
 30
0.0
 40
656.0506021563067
100
AcDbArc
 50
356.3285230381
 51
356.5273005068
  0
ARC
  5
9E
330
84
100
AcDbEntity
  8
DV1_Default
  6
Continuous
 62
     7
100
AcDbCircle
 10
190.3146907949
 20
10023.9958345569
 30
0.0
 40
9431.366329257664
100
AcDbArc
 50
269.8633228138
 51
270.1367013428
  0
ARC
  5
9F
330
84
100
AcDbEntity
  8
DV1_Default
  6
Continuous
 62
     7
100
AcDbCircle
 10
191.5020681728
 20
34124.3771440456
 30
0.0
 40
33529.75300826543
100
AcDbArc
 50
269.9597530621
 51
270.0355428325
  0
ARC
  5
A0
330
84
100
AcDbEntity
  8
DV1_Default
  6
Continuous
 62
     7
100
AcDbCircle
 10
190.316849043
 20
22510.5821798161
 30
0.0
 40
21917.95361826421
100
AcDbArc
 50
269.9411788004
 51
270.0588211996
  0
LINE
  5
A1
330
84
100
AcDbEntity
  8
DV1_Default
  6
Continuous
 62
     7
100
AcDbLine
 10
175.435627427
 20
592.6401118305
 30
0.0
 11
175.435627427
 21
592.6353372478
 31
0.0
  0
LINE
  5
A2
330
84
100
AcDbEntity
  8
DV1_Default
  6
Continuous
 62
     7
100
AcDbLine
 10
183.104519006
 20
592.6353372478
 30
0.0
 11
183.104519006
 21
592.6401118305
 31
0.0
  0
LINE
  5
A3
330
84
100
AcDbEntity
  8
DV1_Default
  6
Continuous
 62
     7
100
AcDbLine
 10
179.2857337444
 20
592.6401118305
 30
0.0
 11
179.2857337445
 21
592.6353372478
 31
0.0
  0
LINE
  5
A4
330
84
100
AcDbEntity
  8
DV1_Default
  6
Continuous
 62
     7
100
AcDbLine
 10
179.8283186003
 20
604.1558411275
 30
0.0
 11
179.8282987131
 21
604.1639973035
 31
0.0
  0
LINE
  5
A5
330
84
100
AcDbEntity
  8
DV1_Default
  6
Continuous
 62
     7
100
AcDbLine
 10
279.8606737836
 20
695.8980848703
 30
0.0
 11
279.860623782
 21
695.8995167287
 31
0.0
  0
LINE
  5
A6
330
84
100
AcDbEntity
  8
DV1_Default
  6
Continuous
 62
     7
100
AcDbLine
 10
318.9460457418
 20
660.5946930789
 30
0.0
 11
318.6104985375
 21
660.5047834765
 31
0.0
  0
LINE
  5
A7
330
84
100
AcDbEntity
  8
DV1_Default
  6
Continuous
 62
     7
100
AcDbLine
 10
302.935006197
 20
656.3045479629
 30
0.0
 11
303.2215685315
 21
656.381332109
 31
0.0
  0
LINE
  5
A8
330
84
100
AcDbEntity
  8
DV1_Default
  6
Continuous
 62
     7
100
AcDbLine
 10
303.2215685315
 20
656.381332109
 30
0.0
 11
318.6104986041
 21
660.5047834944
 31
0.0
  0
ARC
  5
A9
330
84
100
AcDbEntity
  8
DV1_Default
  6
Continuous
 62
     7
100
AcDbCircle
 10
302.8573618317
 20
656.5943260721
 30
0.0
 40
0.2999999999674792
100
AcDbArc
 50
194.017092113
 51
284.9997334203
  0
ARC
  5
AA
330
84
100
AcDbEntity
  8
DV1_Default
  6
Continuous
 62
     7
100
AcDbCircle
 10
318.5328528239
 20
660.7945612244
 30
0.0
 40
0.2999999999999706
100
AcDbArc
 50
285.0000131812
 51
18.8074322201
  0
ARC
  5
AB
330
84
100
AcDbEntity
  8
DV1_Default
  6
Continuous
 62
     7
100
AcDbCircle
 10
168.0218169021
 20
593.6350351652
 30
0.0
 40
1.000000000000001
100
AcDbArc
 50
90.0
 51
258.1422310753
  0
ARC
  5
AC
330
84
100
AcDbEntity
  8
DV1_Default
  6
Continuous
 62
     7
100
AcDbCircle
 10
212.6114958485
 20
593.6350351652
 30
0.0
 40
0.9999999999999996
100
AcDbArc
 50
281.853122639
 51
90.0
  0
LINE
  5
AD
330
84
100
AcDbEntity
  8
DV1_Default
  6
Continuous
 62
     7
100
AcDbLine
 10
173.0166563753
 20
592.6401118305
 30
0.0
 11
173.0166563753
 21
592.6353372478
 31
0.0
  0
LINE
  5
AE
330
84
100
AcDbEntity
  8
DV1_Default
  6
Continuous
 62
     7
100
AcDbLine
 10
207.6166563753
 20
592.6353372478
 30
0.0
 11
207.6166563753
 21
592.6401118305
 31
0.0
  0
ARC
  5
AF
330
84
100
AcDbEntity
  8
DV1_Default
  6
Continuous
 62
     7
100
AcDbCircle
 10
1784.1790034822
 20
707.2766802229
 30
0.0
 40
1616.000448805026
100
AcDbArc
 50
180.3291302046
 51
181.0842999529
  0
ARC
  5
B0
330
84
100
AcDbEntity
  8
DV1_Default
  6
Continuous
 62
     7
100
AcDbCircle
 10
-3394.3281219928
 20
617.4813316081
 30
0.0
 40
3563.288099561958
100
AcDbArc
 50
0.5573353386
 51
0.9521896509
  0
ARC
  5
B1
330
84
100
AcDbEntity
  8
DV1_Default
  6
Continuous
 62
     7
100
AcDbCircle
 10
-1771.122713894
 20
634.8002385235
 30
0.0
 40
1939.991623836724
100
AcDbArc
 50
0.2892769131
 51
0.5121816043
  0
ARC
  5
B2
330
84
100
AcDbEntity
  8
DV1_Default
  6
Continuous
 62
     7
100
AcDbCircle
 10
60.0810742174
 20
638.5411336977
 30
0.0
 40
108.9314558803014
100
AcDbArc
 50
356.9478406906
 51
3.1857986917
  0
ARC
  5
B3
330
84
100
AcDbEntity
  8
DV1_Default
  6
Continuous
 62
     7
100
AcDbCircle
 10
-1018.4137781848
 20
636.2684202879
 30
0.0
 40
1187.277026292932
100
AcDbArc
 50
359.6012608076
 51
359.8297765894
  0
ARC
  5
B4
330
84
100
AcDbEntity
  8
DV1_Default
  6
Continuous
 62
     7
100
AcDbCircle
 10
-879.2747307993
 20
635.0439580043
 30
0.0
 40
1048.13285823505
100
AcDbArc
 50
358.2958423513
 51
359.6152619703
  0
ARC
  5
B5
330
84
100
AcDbEntity
  8
DV1_Default
  6
Continuous
 62
     7
100
AcDbCircle
 10
-591.1513841691
 20
702.4407895928
 30
0.0
 40
803.5885293879833
100
AcDbArc
 50
359.3649939607
 51
359.6829088488
  0
ARC
  5
B6
330
84
100
AcDbEntity
  8
DV1_Default
  6
Continuous
 62
     7
100
AcDbCircle
 10
212.1248427448
 20
697.9951275278
 30
0.0
 40
0.2999999997379382
100
AcDbArc
 50
359.6938734246
 51
61.1600701602
  0
ARC
  5
B7
330
84
100
AcDbEntity
  8
DV1_Default
  6
Continuous
 62
     7
100
AcDbCircle
 10
168.5052146917
 20
697.9951275278
 30
0.0
 40
0.299999999940646
100
AcDbArc
 50
118.8381126307
 51
180.2594550504
  0
LINE
  5
B8
330
84
100
AcDbEntity
  8
DV1_Default
  6
Continuous
 62
     7
100
AcDbLine
 10
168.8580482125
 20
632.7373863644
 30
0.0
 11
168.8579019348
 21
632.7410245337
 31
0.0
  0
LINE
  5
B9
330
84
100
AcDbEntity
  8
DV1_Default
  6
Continuous
 62
     7
100
AcDbLine
 10
168.8441489513
 20
644.5948773258
 30
0.0
 11
168.8443682501
 21
644.5977310542
 31
0.0
  0
SPLINE
  5
BA
330
84
100
AcDbEntity
  8
DV1_Default
  6
Continuous
 62
     7
100
AcDbSpline
210
0.0
220
0.0
230
1.0
 70
     8
 71
     3
 72
    46
 73
    42
 74
     0
 42
0.0000000000631024
 43
0.0000000001
 40
0.0
 40
0.0
 40
0.0
 40
0.0
 40
0.0256734136434444
 40
0.0573569092596367
 40
0.0890404048752029
 40
0.1207239004907687
 40
0.1365656482985518
 40
0.1524073961063347
 40
0.1840908917225268
 40
0.2474578829536589
 40
0.3108248741847911
 40
0.3266666219932001
 40
0.342508369800983
 40
0.3741918654165492
 40
0.4375588566476812
 40
0.5009258478794393
 40
0.5167675956872224
 40
0.5326093434950054
 40
0.5642928391105715
 40
0.5959763347261374
 40
0.6276598303423295
 40
0.6435015781501127
 40
0.6593433259578957
 40
0.6910268215734615
 40
0.7068685693812446
 40
0.7227103171890277
 40
0.7543938128052198
 40
0.7860773084207858
 40
0.8019190562285688
 40
0.8177608040363518
 40
0.8494442996519178
 40
0.8811277952674839
 40
0.8969695430758929
 40
0.9128112908836761
 40
0.9444947864992422
 40
0.9603365343070249
 40
0.9761782821148081
 40
0.9920200299225912
 40
0.9959804668745368
 40
0.9999409038264825
 40
1.0
 40
1.0
 40
1.0
 40
1.0
 10
200.321004253839
 20
641.1147114173989
 30
0.0
 10
200.8758342493704
 20
642.3600812024905
 30
0.0
 10
202.1595806023086
 20
645.1160229826016
 30
0.0
 10
204.3235209879481
 20
649.2918522974248
 30
0.0
 10
206.8613911761251
 20
653.6126341258819
 30
0.0
 10
209.1725498871393
 20
657.0969169660464
 30
0.0
 10
211.1422133125839
 20
659.8108826347935
 30
0.0
 10
213.1962505374268
 20
662.4804849254301
 30
0.0
 10
216.9641470104294
 20
666.9736232894699
 30
0.0
 10
222.8111198616939
 20
672.8881172698451
 30
0.0
 10
228.6040652211673
 20
677.6431366926121
 30
0.0
 10
232.6841257686362
 20
680.5754488794478
 30
0.0
 10
235.4670618480743
 20
682.468428237619
 30
0.0
 10
240.4354526340371
 20
685.5723648291768
 30
0.0
 10
247.8103660357899
 20
689.4153324515784
 30
0.0
 10
254.7946704090059
 20
692.1251513160491
 30
0.0
 10
259.6250488717039
 20
693.567298948381
 30
0.0
 10
262.8848557982195
 20
694.4216787784059
 30
0.0
 10
266.977347179771
 20
695.2657487145567
 30
0.0
 10
271.9381361078723
 20
695.8975134502057
 30
0.0
 10
276.1091501001441
 20
696.0637915534065
 30
0.0
 10
279.4850799971497
 20
695.9511481638078
 30
0.0
 10
282.8418202089998
 20
695.6623275749538
 30
0.0
 10
286.1413420678521
 20
695.1016429470081
 30
0.0
 10
289.3792778903926
 20
694.2447358649014
 30
0.0
 10
292.5900918196862
 20
693.1726743956345
 30
0.0
 10
296.4122782544441
 20
691.4591809844113
 30
0.0
 10
299.9369123908775
 20
689.2724782096342
 30
0.0
 10
302.5844551172057
 20
687.2410459164272
 30
0.0
 10
305.1281140485621
 20
685.0090111068645
 30
0.0
 10
307.9990963998634
 20
681.9585283395309
 30
0.0
 10
310.4884834735895
 20
678.6173121838884
 30
0.0
 10
312.2800529666934
 20
675.7888047280212
 30
0.0
 10
313.9465307703832
 20
672.8564487384239
 30
0.0
 10
315.4046614612052
 20
669.8414130145488
 30
0.0
 10
316.6938208515652
 20
666.7563035237307
 30
0.0
 10
317.588229750837
 20
664.4110670872881
 30
0.0
 10
318.2149096509144
 20
662.631023416711
 30
0.0
 10
318.623467000686
 20
661.4370844781403
 30
0.0
 10
318.7600134402769
 20
661.035259892141
 30
0.0
 10
318.828816356568
 20
660.8327016056303
 30
0.0
 10
318.829738295719
 20
660.8297057882888
 30
0.0
  0
SPLINE
  5
BB
330
84
100
AcDbEntity
  8
DV1_Default
  6
Continuous
 62
     7
100
AcDbSpline
210
0.0
220
0.0
230
1.0
 70
     8
 71
     3
 72
     8
 73
     4
 74
     0
 42
0.0000002512550021
 43
0.0000000001
 40
0.0
 40
0.0
 40
0.0
 40
0.0
 40
1.0
 40
1.0
 40
1.0
 40
1.0
 10
168.5103427249292
 20
600.2631692160181
 30
0.0
 10
168.5201022727394
 20
600.2636125655839
 30
0.0
 10
168.53337055178
 20
600.2642429198705
 30
0.0
 10
168.5500954398691
 20
600.2651099318759
 30
0.0
  0
SPLINE
  5
BC
330
84
100
AcDbEntity
  8
DV1_Default
  6
Continuous
 62
     7
100
AcDbSpline
210
0.0
220
0.0
230
1.0
 70
     8
 71
     3
 72
    22
 73
    18
 74
     0
 42
0.0000000001816458
 43
0.0000000001
 40
0.0
 40
0.0
 40
0.0
 40
0.0
 40
0.1028028094465777
 40
0.1028028094465777
 40
0.2309738366684955
 40
0.2309738366684955
 40
0.2950593502794542
 40
0.2950593502794542
 40
0.3591448638904131
 40
0.3591448638904131
 40
0.4873158911123305
 40
0.4873158911123305
 40
0.6154869183342478
 40
0.6154869183342478
 40
0.7436579455561654
 40
0.7436579455561654
 40
0.9999999999999999
 40
0.9999999999999999
 40
0.9999999999999999
 40
0.9999999999999999
 10
168.5562553405741
 20
600.2654318234275
 30
0.0
 10
168.7337658000287
 20
600.2747807575662
 30
0.0
 10
169.2641676974529
 20
600.3089426381275
 30
0.0
 10
171.1275929433137
 20
600.5568350789906
 30
0.0
 10
172.6613614237967
 20
600.8196079757979
 30
0.0
 10
175.5024046187022
 20
601.8117214187115
 30
0.0
 10
176.5531756064952
 20
602.2533264462047
 30
0.0
 10
178.6686898547843
 20
603.3629989948807
 30
0.0
 10
179.7559584955029
 20
604.0401990736876
 30
0.0
 10
182.9722210259943
 20
606.450183711688
 30
0.0
 10
184.9389557381156
 20
608.4981429238168
 30
0.0
 10
188.2553153662098
 20
612.9680928620926
 30
0.0
 10
189.646376548298
 20
615.4095086214886
 30
0.0
 10
192.0918944941797
 20
620.4375724634947
 30
0.0
 10
193.1462141579827
 20
623.0135653902548
 30
0.0
 10
196.1795663258614
 20
630.79563982687
 30
0.0
 10
198.0572826524719
 20
636.0345442310805
 30
0.0
 10
200.321004253839
 20
641.1147114173989
 30
0.0
  0
LINE
  5
BD
330
84
100
AcDbEntity
  8
DV1_Default
  6
Continuous
 62
     7
100
AcDbLine
 10
334.8112858707
 20
664.8219496232
 30
0.0
 11
319.1913336536
 21
660.636596044
 31
0.0
  0
ARC
  5
BE
330
84
100
AcDbEntity
  8
DV1_Default
  6
Continuous
 62
     7
100
AcDbCircle
 10
319.1137510149
 20
660.9266995633
 30
0.0
 40
0.3002983811693276
100
AcDbArc
 50
233.1109985326
 51
284.9722884918
  0
ARC
  5
BF
330
84
100
AcDbEntity
  8
DV1_Default
  6
Continuous
 62
     7
100
AcDbCircle
 10
319.112865956
 20
660.9256807516
 30
0.0
 40
0.2989522797749545
100
AcDbArc
 50
198.7256944131
 51
233.1294570984
  0
SPLINE
  5
C0
330
84
100
AcDbEntity
  8
DV1_Default
  6
Continuous
 62
     7
100
AcDbSpline
210
0.0
220
0.0
230
1.0
 70
    12
 71
     3
 72
     8
 73
     4
 74
     0
 42
0.0000000171384245
 43
0.0000000001
 40
0.0
 40
0.0
 40
0.0
 40
0.0
 40
1.0
 40
1.0
 40
1.0
 40
1.0
 10
334.877763737119
 20
664.8397623137889
 30
0.0
 41
1.205176813725017
 10
335.0656266256742
 20
664.8901221389317
 30
0.0
 41
0.9315985033394224
 10
335.1516620932403
 20
665.064552927312
 30
0.0
 41
0.9316077290696311
 10
335.077310692719
 20
665.2442740903289
 30
0.0
 41
1.205204490915643
  0
SPLINE
  5
C1
330
84
100
AcDbEntity
  8
DV1_Default
  6
Continuous
 62
     7
100
AcDbSpline
210
0.0
220
0.0
230
1.0
 70
     8
 71
     3
 72
    17
 73
    13
 74
     0
 42
0.0000000000714784
 43
0.0000000001
 40
0.0
 40
0.0
 40
0.0
 40
0.0
 40
0.0495949406100543
 40
0.1064022213747187
 40
0.2200167829040479
 40
0.3336313444333771
 40
0.4472459059627062
 40
0.5608604674920353
 40
0.6744750290213645
 40
0.7880895905506936
 40
0.9017041520800227
 40
1.0
 40
1.0
 40
1.0
 40
1.0
 10
335.077310692719
 20
665.2442740903289
 30
0.0
 10
334.7759603767028
 20
665.9718827575801
 30
0.0
 10
334.1168888987651
 20
667.5888822045304
 30
0.0
 10
332.502357387136
 20
671.5199948832212
 30
0.0
 10
329.3875913398956
 20
678.1894053196405
 30
0.0
 10
322.5348609547009
 20
688.0673904128745
 30
0.0
 10
311.6545533752928
 20
697.8534672227917
 30
0.0
 10
296.6006428154669
 20
705.3737783639123
 30
0.0
 10
278.0055340982755
 20
708.8408686942633
 30
0.0
 10
257.1481596044706
 20
707.2256655598289
 30
0.0
 10
236.6813407536754
 20
700.6961680616013
 30
0.0
 10
224.0725930177466
 20
693.8235286420398
 30
0.0
 10
218.551176716699
 20
690.216045288429
 30
0.0
  0
ARC
  5
C2
330
84
100
AcDbEntity
  8
DV1_Default
  6
Continuous
 62
     7
100
AcDbCircle
 10
190.2679965942
 20
733.0709547597
 30
0.0
 40
51.34667996699535
100
AcDbArc
 50
302.3079152268
 51
303.423823876
  0
SPLINE
  5
C3
330
84
100
AcDbEntity
  8
DV1_Default
  6
Continuous
 62
     7
100
AcDbSpline
210
0.0
220
0.0
230
1.0
 70
     8
 71
     3
 72
    14
 73
    10
 74
     0
 42
0.0000000010574854
 43
0.0000000001
 40
0.0
 40
0.0
 40
0.0
 40
0.0
 40
0.25
 40
0.25
 40
0.5
 40
0.5
 40
0.75
 40
0.75
 40
1.0
 40
1.0
 40
1.0
 40
1.0
 10
217.711211167709
 20
689.673356698229
 30
0.0
 10
216.8808558308273
 20
689.1525736271689
 30
0.0
 10
216.1060802351164
 20
688.7671555578646
 30
0.0
 10
214.6912885856455
 20
688.5059489646177
 30
0.0
 10
214.0588946897833
 20
688.625660202011
 30
0.0
 10
213.0789635711976
 20
689.3586141216366
 30
0.0
 10
212.7380819188203
 20
689.9670260291367
 30
0.0
 10
212.384087121737
 20
691.5319829280654
 30
0.0
 10
212.3763538427576
 20
692.4844041419766
 30
0.0
 10
212.387792653309
 20
693.534843515429
 30
0.0
  0
ARC
  5
C4
330
84
100
AcDbEntity
  8
DV1_Default
  6
Continuous
 62
     7
100
AcDbCircle
 10
-114.8764818647
 20
611.8979872143
 30
0.0
 40
283.3846533581038
100
AcDbArc
 50
357.6889272894
 51
358.3774163717
  0
ARC
  5
C5
330
84
100
AcDbEntity
  8
DV1_Default
  6
Continuous
 62
     7
100
AcDbCircle
 10
168.4779303874
 20
600.4623269415
 30
0.0
 40
0.200426097717345
100
AcDbArc
 50
177.6538063362
 51
273.4871241845
  0
ARC
  5
C6
330
84
100
AcDbEntity
  8
DV1_Default
  6
Continuous
 62
     7
100
AcDbCircle
 10
190.3166580457
 20
18996.6309328183
 30
0.0
 40
18298.34915096409
100
AcDbArc
 50
269.9308006604
 51
270.0688102859
  0
ARC
  5
C7
330
84
100
AcDbEntity
  8
DV1_Default
  6
Continuous
 62
     7
100
AcDbCircle
 10
212.3070479838
 20
700.290959246
 30
0.0
 40
1.998836103912373
100
AcDbArc
 50
273.1418199809
 51
79.85826497
  0
ARC
  5
C8
330
84
100
AcDbEntity
  8
DV1_Default
  6
Continuous
 62
     7
100
AcDbCircle
 10
168.325986389
 20
700.2907491149
 30
0.0
 40
1.998610866542951
100
AcDbArc
 50
100.1338158897
 51
266.8659139692
  0
ARC
  5
C9
330
84
100
AcDbEntity
  8
DV1_Default
  6
Continuous
 62
     7
100
AcDbCircle
 10
167.9179677393
 20
702.5528373146
 30
0.0
 40
0.2999997377731592
100
AcDbArc
 50
280.8297927304
 51
359.9771180714
  0
ARC
  5
CA
330
84
100
AcDbEntity
  8
DV1_Default
  6
Continuous
 62
     7
100
AcDbCircle
 10
212.7145813382
 20
702.5533720662
 30
0.0
 40
0.2999999327430276
100
AcDbArc
 50
180.0173702819
 51
259.3251274404
  0
ARC
  5
CB
330
84
100
AcDbEntity
  8
DV1_Default
  6
Continuous
 62
     7
100
AcDbCircle
 10
190.3871065595
 20
-4851.8862670254
 30
0.0
 40
5554.483225611732
100
AcDbArc
 50
89.7734252687
 51
90.2284916191
  0
LINE
  5
CC
330
84
100
AcDbEntity
  8
DV1_Default
  6
Continuous
 62
     7
100
AcDbLine
 10
212.3299808105
 20
709.6925870789
 30
0.0
 11
212.4141396059
 21
703.0734606612
 31
0.0
  0
ARC
  5
CD
330
84
100
AcDbEntity
  8
DV1_Default
  6
Continuous
 62
     7
100
AcDbCircle
 10
190.3166323687
 20
-9400.9359990665
 30
0.0
 40
10110.65254640303
100
AcDbArc
 50
89.8752539406
 51
89.8756629761
  0
LINE
  5
CE
330
84
100
AcDbEntity
  8
DV1_Default
  6
Continuous
 62
     7
100
AcDbLine
 10
168.2184674533
 20
703.0768521791
 30
0.0
 11
168.3032723847
 21
709.6925857051
 31
0.0
  0
ARC
  5
CF
330
84
100
AcDbEntity
  8
DV1_Default
  6
Continuous
 62
     7
100
AcDbCircle
 10
168.8151630183
 20
710.168759171
 30
0.0
 40
0.4999999998079067
100
AcDbArc
 50
111.1675375437
 51
178.5606356263
  0
ARC
  5
D0
330
84
100
AcDbEntity
  8
DV1_Default
  6
Continuous
 62
     7
100
AcDbCircle
 10
168.8151630183
 20
710.168759171
 30
0.0
 40
0.4999999998079067
100
AcDbArc
 50
90.001153199
 51
111.1675375437
  0
LINE
  5
D1
330
84
100
AcDbEntity
  8
DV1_Default
  6
Continuous
 62
     7
100
AcDbLine
 10
168.8151529547
 20
710.6687591707
 30
0.0
 11
171.2875722133
 21
710.6687591709
 31
0.0
  0
LINE
  5
D2
330
84
100
AcDbEntity
  8
DV1_Default
  6
Continuous
 62
     7
100
AcDbLine
 10
189.4694702536
 20
710.6687591722
 30
0.0
 11
187.1201729372
 21
710.6687591721
 31
0.0
  0
LINE
  5
D3
330
84
100
AcDbEntity
  8
DV1_Default
  6
Continuous
 62
     7
100
AcDbLine
 10
184.4716292744
 20
710.6687591719
 30
0.0
 11
181.7443626845
 21
710.6687591717
 31
0.0
  0
LINE
  5
D4
330
84
100
AcDbEntity
  8
DV1_Default
  6
Continuous
 62
     7
100
AcDbLine
 10
181.7443626845
 20
710.6687591717
 30
0.0
 11
172.6370048133
 21
710.668759171
 31
0.0
  0
ARC
  5
D5
330
84
100
AcDbEntity
  8
DV1_Default
  6
Continuous
 62
     7
100
AcDbCircle
 10
212.6981656655
 20
702.5535032623
 30
0.0
 40
0.3000333066756229
100
AcDbArc
 50
179.4677538691
 51
260.1484703874
  0
LINE
  5
D6
330
84
100
AcDbEntity
  8
DV1_Default
  6
Continuous
 62
     7
100
AcDbLine
 10
212.4075958752
 20
702.5533367403
 30
0.0
 11
212.4104963623
 21
702.9189074081
 31
0.0
  0
LINE
  5
D7
330
84
100
AcDbEntity
  8
DV1_Default
  6
Continuous
 62
     7
100
AcDbLine
 10
168.2295966363
 20
702.9221991506
 30
0.0
 11
168.226664572
 21
702.5526485626
 31
0.0
  0
LINE
  5
D8
330
84
100
AcDbEntity
  8
DV1_Default
  6
Continuous
 62
     7
100
AcDbLine
 10
184.4334767564
 20
710.6349673125
 30
0.0
 11
181.7381986066
 21
710.6349717333
 31
0.0
  0
LINE
  5
D9
330
84
100
AcDbEntity
  8
DV1_Default
  6
Continuous
 62
     7
100
AcDbLine
 10
187.0919011536
 20
710.6349690042
 30
0.0
 11
184.4334767564
 21
710.6349673125
 31
0.0
  0
LINE
  5
DA
330
84
100
AcDbEntity
  8
DV1_Default
  6
Continuous
 62
     7
100
AcDbLine
 10
212.2568303621
 20
709.688407892
 30
0.0
 11
212.2482135282
 21
710.0451710069
 31
0.0
  0
SPLINE
  5
DB
330
84
100
AcDbEntity
  8
DV1_Default
  6
Continuous
 62
     7
100
AcDbSpline
210
0.0
220
0.0
230
1.0
 70
     8
 71
     3
 72
    17
 73
    13
 74
     0
 42
0.0000000005001738
 43
0.0000000001
 40
0.0
 40
0.0
 40
0.0
 40
0.0
 40
0.0262093579516294
 40
0.0631123851640762
 40
0.1269183886003212
 40
0.2544433718698282
 40
0.428537793763831
 40
0.509164877299144
 40
0.7193184635406383
 40
0.8713690480228922
 40
0.9649964768771947
 40
1.0
 40
1.0
 40
1.0
 40
1.0
 10
320.8757475926071
 20
653.3243414369707
 30
0.0
 10
321.1400810808035
 20
653.3951585293925
 30
0.0
 10
321.7765972176541
 20
653.5656849538262
 30
0.0
 10
323.0539903561934
 20
653.9079000034615
 30
0.0
 10
325.3334786230284
 20
654.5185662141851
 30
0.0
 10
328.8780452551944
 20
655.4681028057934
 30
0.0
 10
332.2395001847239
 20
656.3685190777844
 30
0.0
 10
335.7188706353083
 20
657.3004449608381
 30
0.0
 10
338.3226108296586
 20
657.9977416421448
 30
0.0
 10
339.7794831405199
 20
658.3877388908115
 30
0.0
 10
340.156932932838
 20
658.4886623782656
 30
0.0
 10
340.181643134317
 20
658.4951915489155
 30
0.0
 10
340.1880311308843
 20
658.4971163931871
 30
0.0
  0
SPLINE
  5
DC
330
84
100
AcDbEntity
  8
DV1_Default
  6
Continuous
 62
     7
100
AcDbSpline
210
0.0
220
0.0
230
1.0
 70
    12
 71
     3
 72
     8
 73
     4
 74
     0
 42
0.0000000004997679
 43
0.0000000001
 40
0.0
 40
0.0
 40
0.0
 40
0.0
 40
1.0
 40
1.0
 40
1.0
 40
1.0
 10
301.5485026046157
 20
648.1450882579552
 30
0.0
 41
1.0
 10
301.5507319852422
 20
648.1464792526099
 30
0.0
 41
0.8046919971584388
 10
309.5567951979336
 20
650.2919184174519
 30
0.0
 41
0.8046919971584388
 10
320.8757475926071
 20
653.3243414369707
 30
0.0
 41
1.0
  0
SPLINE
  5
DD
330
84
100
AcDbEntity
  8
DV1_Default
  6
Continuous
 62
     7
100
AcDbSpline
210
0.0
220
0.0
230
1.0
 70
     8
 71
     3
 72
    13
 73
     9
 74
     0
 42
0.0000000157012339
 43
0.0000000001
 40
0.0
 40
0.0
 40
0.0
 40
0.0
 40
0.2610797370766605
 40
0.4156422356831253
 40
0.5015147761445196
 40
0.5247511796178372
 40
0.7281743786208239
 40
1.0
 40
1.0
 40
1.0
 40
1.0
 10
301.5485026046157
 20
648.1450882579552
 30
0.0
 10
301.4958556826147
 20
648.130660218359
 30
0.0
 10
301.4120344215088
 20
648.1076890322884
 30
0.0
 10
301.3045660604926
 20
648.1140626422888
 30
0.0
 10
301.2550158095486
 20
648.1409085386479
 30
0.0
 10
301.2074246826671
 20
648.1856074845775
 30
0.0
 10
301.1697147530508
 20
648.2898616645798
 30
0.0
 10
301.1708847609096
 20
648.3885968388645
 30
0.0
 10
301.1713433010393
 20
648.4450772174573
 30
0.0
  0
SPLINE
  5
DE
330
84
100
AcDbEntity
  8
DV1_Default
  6
Continuous
 62
     7
100
AcDbSpline
210
0.0
220
0.0
230
1.0
 70
     8
 71
     3
 72
    17
 73
    13
 74
     0
 42
0.0000000157430481
 43
0.0000000001
 40
0.0
 40
0.0
 40
0.0
 40
0.0
 40
0.2106387773987985
 40
0.3671780593276971
 40
0.48405860414638
 40
0.5830918949103927
 40
0.6776791018375917
 40
0.7676906060327143
 40
0.8488129568266365
 40
0.9164769599339675
 40
0.967470262176637
 40
1.0
 40
1.0
 40
1.0
 40
1.0
 10
340.362946457619
 20
658.9460508157523
 30
0.0
 10
340.386746067064
 20
658.9070805432297
 30
0.0
 10
340.4257348053983
 20
658.8408960037387
 30
0.0
 10
340.4580637936482
 20
658.7440422016075
 30
0.0
 10
340.4572043158482
 20
658.663700554838
 30
0.0
 10
340.424215082826
 20
658.6052711763228
 30
0.0
 10
340.3780865660589
 20
658.5669611493845
 30
0.0
 10
340.3286259543702
 20
658.5412968387072
 30
0.0
 10
340.2818051359824
 20
658.5239744541954
 30
0.0
 10
340.2419237012874
 20
658.5117138743428
 30
0.0
 10
340.211521747965
 20
658.503199870213
 30
0.0
 10
340.1946819893636
 20
658.4986672651492
 30
0.0
 10
340.1880311308843
 20
658.4971163931871
 30
0.0
  0
LINE
  5
DF
330
84
100
AcDbEntity
  8
DV1_Default
  6
Continuous
 62
     7
100
AcDbLine
 10
302.0595421983
 20
650.3600995603
 30
0.0
 11
338.6351881312
 21
660.1604796383
 31
0.0
  0
SPLINE
  5
E0
330
84
100
AcDbEntity
  8
DV1_Default
  6
Continuous
 62
     7
100
AcDbSpline
210
0.0
220
0.0
230
1.0
 70
    12
 71
     3
 72
     8
 73
     4
 74
     0
 42
0.0000000005932546
 43
0.0000000001
 40
0.0
 40
0.0
 40
0.0
 40
0.0
 40
1.0
 40
1.0
 40
1.0
 40
1.0
 10
319.0605070819318
 20
660.0832470463399
 30
0.0
 41
1.0
 10
309.5250400444397
 20
657.5269733780258
 30
0.0
 41
0.8047212100006426
 10
302.7806780863763
 20
655.7201205923398
 30
0.0
 41
0.8047212100006426
 10
302.778971308083
 20
655.7206993163068
 30
0.0
 41
1.0
  0
SPLINE
  5
E1
330
84
100
AcDbEntity
  8
DV1_Default
  6
Continuous
 62
     7
100
AcDbSpline
210
0.0
220
0.0
230
1.0
 70
     8
 71
     3
 72
    10
 73
     6
 74
     0
 42
0.0000000126487485
 43
0.0000000001
 40
0.0
 40
0.0
 40
0.0
 40
0.0
 40
0.5
 40
0.5
 40
1.0
 40
1.0
 40
1.0
 40
1.0
 10
302.778971308083
 20
655.7206993163068
 30
0.0
 10
302.6308706750966
 20
655.6810139187456
 30
0.0
 10
302.5022195448191
 20
655.6358176267827
 30
0.0
 10
302.3832529526588
 20
655.4547368067689
 30
0.0
 10
302.3930226525305
 20
655.3187941719732
 30
0.0
 10
302.4122620357724
 20
655.1721004088762
 30
0.0
  0
SPLINE
  5
E2
330
84
100
AcDbEntity
  8
DV1_Default
  6
Continuous
 62
     7
100
AcDbSpline
210
0.0
220
0.0
230
1.0
 70
     8
 71
     3
 72
    15
 73
    11
 74
     0
 42
0.0000000129039376
 43
0.0000000001
 40
0.0
 40
0.0
 40
0.0
 40
0.0
 40
0.2210571234440686
 40
0.4105964929968029
 40
0.515395352768379
 40
0.6224662661100163
 40
0.708023264332189
 40
0.8008949809957877
 40
0.897612081179556
 40
1.0
 40
1.0
 40
1.0
 40
1.0
 10
335.9236968703957
 20
664.1514623100207
 30
0.0
 10
335.9033123536381
 20
664.2046572403813
 30
0.0
 10
335.8623384208254
 20
664.3013182397395
 30
0.0
 10
335.7879573051155
 20
664.4135096103672
 30
0.0
 10
335.7012992464789
 20
664.4728359228803
 30
0.0
 10
335.6253854594761
 20
664.4890877560208
 30
0.0
 10
335.5521546144214
 20
664.4891159111332
 30
0.0
 10
335.4821065842666
 20
664.4803973761433
 30
0.0
 10
335.4088156849776
 20
664.4654221629579
 30
0.0
 10
335.3595373240298
 20
664.4525710836072
 30
0.0
 10
335.3343261519091
 20
664.4454778886839
 30
0.0
  0
SPLINE
  5
E3
330
84
100
AcDbEntity
  8
DV1_Default
  6
Continuous
 62
     7
100
AcDbSpline
210
0.0
220
0.0
230
1.0
 70
     8
 71
     3
 72
    17
 73
    13
 74
     0
 42
0.0000000005935302
 43
0.0000000001
 40
0.0
 40
0.0
 40
0.0
 40
0.0
 40
0.0482706400909794
 40
0.1224439997137965
 40
0.2224880644538809
 40
0.3483618465535893
 40
0.5000154035586672
 40
0.6385816233661453
 40
0.7578887046306377
 40
0.857909316052156
 40
0.9386197641921565
 40
1.0
 40
1.0
 40
1.0
 40
1.0
 10
335.3343261519091
 20
664.4454778886839
 30
0.0
 10
335.3243191560473
 20
664.4432707172722
 30
0.0
 10
335.2992644436429
 20
664.4364426146534
 30
0.0
 10
335.0353074183152
 20
664.3654936942276
 30
0.0
 10
334.3528335028502
 20
664.1823123786622
 30
0.0
 10
332.9504177391273
 20
663.806128345899
 30
0.0
 10
330.7415462258658
 20
663.2138141724786
 30
0.0
 10
328.0029760188557
 20
662.479599898917
 30
0.0
 10
325.2780307858627
 20
661.7491240817754
 30
0.0
 10
322.8309520934936
 20
661.0931900441581
 30
0.0
 10
320.7921904176785
 20
660.546735820015
 30
0.0
 10
319.5830074818236
 20
660.2226531055315
 30
0.0
 10
319.0605070819318
 20
660.0832470463399
 30
0.0
  0
ARC
  5
E4
330
84
100
AcDbEntity
  8
DV1_Default
  6
Continuous
 62
     7
100
AcDbCircle
 10
303.9805299152
 20
648.3062851013
 30
0.0
 40
2.812632285968337
100
AcDbArc
 50
132.7927475691
 51
177.4466715436
  0
ARC
  5
E5
330
84
100
AcDbEntity
  8
DV1_Default
  6
Continuous
 62
     7
100
AcDbCircle
 10
337.9867651628
 20
657.4047963435
 30
0.0
 40
2.831360655452172
100
AcDbArc
 50
32.7088853118
 51
77.0516955755
  0
ARC
  5
E6
330
84
100
AcDbEntity
  8
DV1_Default
  6
Continuous
 62
     7
100
AcDbCircle
 10
289.5944521837
 20
653.685765788
 30
0.0
 40
12.90250980717439
100
AcDbArc
 50
344.7671293197
 51
6.907818714
  0
ARC
  5
E7
330
84
100
AcDbEntity
  8
DV1_Default
  6
Continuous
 62
     7
100
AcDbCircle
 10
347.9481855392
 20
669.3958437327
 30
0.0
 40
13.11698144037754
100
AcDbArc
 50
203.2754185798
 51
225.0496333864
  0
ARC
  5
E8
330
84
100
AcDbEntity
  8
DV1_Default
  6
Continuous
 62
     7
100
AcDbCircle
 10
307.0969021522
 20
657.1888260866
 30
0.0
 40
0.2999999999999938
100
AcDbArc
 50
285.0
 51
15.0
  0
ARC
  5
E9
330
84
100
AcDbEntity
  8
DV1_Default
  6
Continuous
 62
     7
100
AcDbCircle
 10
330.8586774789
 20
663.5557745962
 30
0.0
 40
0.3000000000000072
100
AcDbArc
 50
195.0
 51
285.0
  0
LINE
  5
EA
330
84
100
AcDbEntity
  8
DV1_Default
  6
Continuous
 62
     7
100
AcDbLine
 10
307.328955266
 20
657.4819030675
 30
0.0
 11
307.3866799001
 21
657.2664718002
 31
0.0
  0
LINE
  5
EB
330
84
100
AcDbEntity
  8
DV1_Default
  6
Continuous
 62
     7
100
AcDbLine
 10
330.5688997311
 20
663.4781288826
 30
0.0
 11
330.5171305312
 21
663.6713341666
 31
0.0
  0
LINE
  5
EC
330
84
100
AcDbEntity
  8
DV1_Default
  6
Continuous
 62
     7
100
AcDbLine
 10
189.6463525213
 20
710.6639157041
 30
0.0
 11
183.7253964195
 21
710.6639157041
 31
0.0
  0
LINE
  5
ED
330
84
100
AcDbEntity
  8
DV1_Default
  6
Continuous
 62
     7
100
AcDbLine
 10
181.6937475172
 20
710.6639157041
 30
0.0
 11
171.8666563753
 21
710.6639157041
 31
0.0
  0
ARC
  5
EE
330
84
100
AcDbEntity
  8
DV1_Default
  6
Continuous
 62
     7
100
AcDbCircle
 10
190.3166563753
 20
702.2639157041
 30
0.0
 40
19.99999999999984
100
AcDbArc
 50
153.5815374669
 51
155.1654125103
  0
LINE
  5
EF
330
84
100
AcDbEntity
  8
DV1_Default
  6
Continuous
 62
     7
100
AcDbLine
 10
168.9096356019
 20
643.2746637946
 30
0.0
 11
161.2252006499
 21
659.7539878581
 31
0.0
  0
LINE
  5
F0
330
84
100
AcDbEntity
  8
DV1_Default
  6
Continuous
 62
     7
100
AcDbLine
 10
157.5999694967
 20
658.063514822
 30
0.0
 11
168.90972525
 21
633.8096651503
 31
0.0
  0
ELLIPSE
  5
F1
330
84
100
AcDbEntity
  8
DV1_Default
  6
Continuous
 62
     7
100
AcDbEllipse
 10
159.4137737596
 20
658.9062021941
 30
0.0
 11
-4.281045353844548
 21
-1.996284217822692
 31
0.0
210
0.0
220
0.0
230
1.0
 40
0.0007615735
 41
2.007996774044313
 42
6.283185307179586
  0
ELLIPSE
  5
F2
330
84
100
AcDbEntity
  8
DV1_Default
  6
Continuous
 62
     7
100
AcDbEllipse
 10
159.4137737596
 20
658.9062021941
 30
0.0
 11
-4.281045353844548
 21
-1.996284217822692
 31
0.0
210
0.0
220
0.0
230
1.0
 40
0.0007615735
 41
0.0
 42
1.13359587954334
  0
ELLIPSE
  5
F3
330
84
100
AcDbEntity
  8
DV1_Default
  6
Continuous
 62
     7
100
AcDbEllipse
 10
159.4137737596
 20
658.9062021941
 30
0.0
 11
-3.80649271086125
 21
-1.774996687929353
 31
0.0
210
0.0
220
0.0
230
1.0
 40
0.0007615735
 41
2.067113688919123
 42
6.283185307179586
  0
ELLIPSE
  5
F4
330
84
100
AcDbEntity
  8
DV1_Default
  6
Continuous
 62
     7
100
AcDbEllipse
 10
159.4137737596
 20
658.9062021941
 30
0.0
 11
-3.80649271086125
 21
-1.774996687929353
 31
0.0
210
0.0
220
0.0
230
1.0
 40
0.0007615735
 41
0.0000000000061887
 42
1.074478964668171
  0
ARC
  5
F5
330
84
100
AcDbEntity
  8
DV1_Default
  6
Continuous
 62
     7
100
AcDbCircle
 10
157.089374009
 20
663.8908935842
 30
0.0
 40
7.250000000000071
100
AcDbArc
 50
335.6572291201
 51
254.3427705373
  0
ARC
  5
F6
330
84
100
AcDbEntity
  8
DV1_Default
  6
Continuous
 62
     7
100
AcDbCircle
 10
150.9183788379
 20
737.5734195922
 30
0.0
 40
19.65821354008876
100
AcDbArc
 50
4.8467698942
 51
5.0220494039
  0
ARC
  5
F7
330
84
100
AcDbEntity
  8
DV1_Default
  6
Continuous
 62
     7
100
AcDbCircle
 10
150.9183856221
 20
737.5734190204
 30
0.0
 40
19.65820684387916
100
AcDbArc
 50
344.7735403592
 51
5.5917507336
  0
SPLINE
  5
F8
330
84
100
AcDbEntity
  8
DV1_Default
  6
Continuous
 62
     7
100
AcDbSpline
210
0.0
220
0.0
230
1.0
 70
     8
 71
     3
 72
    14
 73
    10
 74
     0
 42
0.0000000004979171
 43
0.0000000001
 40
0.0
 40
0.0
 40
0.0
 40
0.0
 40
0.2495966980620142
 40
0.2495966980620142
 40
0.4997311320413427
 40
0.4997311320413427
 40
0.7498655660206716
 40
0.7498655660206716
 40
1.0
 40
1.0
 40
1.0
 40
1.0
 10
211.5608844504591
 20
744.1028970094941
 30
0.0
 10
211.5621904561878
 20
744.1026020948127
 30
0.0
 10
211.0492412655805
 20
744.1194348446147
 30
0.0
 10
209.046425631285
 20
744.1744991294725
 30
0.0
 10
207.5544546516537
 20
744.212776415754
 30
0.0
 10
203.786842637599
 20
744.3154300237788
 30
0.0
 10
201.5111966666445
 20
744.3798067966532
 30
0.0
 10
196.6526405734749
 20
744.5135714310422
 30
0.0
 10
194.0697337417221
 20
744.5829589774778
 30
0.0
 10
191.4874006572006
 20
744.6522573665363
 30
0.0
  0
SPLINE
  5
F9
330
84
100
AcDbEntity
  8
DV1_Default
  6
Continuous
 62
     7
100
AcDbSpline
210
0.0
220
0.0
230
1.0
 70
     8
 71
     3
 72
    16
 73
    12
 74
     0
 42
0.0000000006144062
 43
0.0000000001
 40
0.0
 40
0.0
 40
0.0
 40
0.0
 40
0.1181689570323718
 40
0.2453390746315153
 40
0.3731368151651161
 40
0.4932505137949458
 40
0.5954529156362431
 40
0.6971928233244972
 40
0.7985145307412155
 40
0.8994440971307717
 40
1.0
 40
1.0
 40
1.0
 40
1.0
 10
207.7756943515414
 20
744.8799223780685
 30
0.0
 10
207.7752270644635
 20
744.8800207737412
 30
0.0
 10
207.5748767596596
 20
744.8863841900303
 30
0.0
 10
206.6595606910738
 20
744.9140565927105
 30
0.0
 10
205.1725085483379
 20
744.9525694252028
 30
0.0
 10
203.2949833202341
 20
745.0022067195608
 30
0.0
 10
201.2011159106948
 20
745.0606974792506
 30
0.0
 10
198.9846836271829
 20
745.1218089440837
 30
0.0
 10
196.5892331148239
 20
745.187516154362
 30
0.0
 10
194.0767473597673
 20
745.2558197521553
 30
0.0
 10
192.3618051123679
 20
745.3020571949835
 30
0.0
 10
191.5059550699527
 20
745.3262593781172
 30
0.0
  0
SPLINE
  5
FA
330
84
100
AcDbEntity
  8
DV1_Default
  6
Continuous
 62
     7
100
AcDbSpline
210
0.0
220
0.0
230
1.0
 70
     8
 71
     3
 72
    18
 73
    14
 74
     0
 42
0.000000000614518
 43
0.0000000001
 40
0.0
 40
0.0
 40
0.0
 40
0.0
 40
0.0461571071564935
 40
0.0925924978633236
 40
0.1393085380336898
 40
0.1863058436496462
 40
0.2335835392691985
 40
0.2811395239956085
 40
0.4218873761157137
 40
0.5595330870573589
 40
0.8407895259567022
 40
0.9767027505091593
 40
1.0
 40
1.0
 40
1.0
 40
1.0
 10
191.5059550699527
 20
745.3262593781172
 30
0.0
 10
191.1140720871005
 20
745.335996602198
 30
0.0
 10
190.3280054390181
 20
745.3577938302318
 30
0.0
 10
189.1519136072348
 20
745.3906109772563
 30
0.0
 10
187.9815621900432
 20
745.4232766248954
 30
0.0
 10
186.8234128638472
 20
745.4555408782892
 30
0.0
 10
185.6836765593138
 20
745.4871127349941
 30
0.0
 10
183.8440826453569
 20
745.5377860444605
 30
0.0
 10
181.457987162246
 20
745.6009805659735
 30
0.0
 10
178.0134309895988
 20
745.693923744756
 30
0.0
 10
175.811978919633
 20
745.7584044938898
 30
0.0
 10
175.2643974553693
 20
745.7704578208011
 30
0.0
 10
175.2391526382776
 20
745.7711494702735
 30
0.0
 10
175.2391534514963
 20
745.7711667962976
 30
0.0
  0
SPLINE
  5
FB
330
84
100
AcDbEntity
  8
DV1_Default
  6
Continuous
 62
     7
100
AcDbSpline
210
0.0
220
0.0
230
1.0
 70
     8
 71
     3
 72
    14
 73
    10
 74
     0
 42
0.0000000004979292
 43
0.0000000001
 40
0.0
 40
0.0
 40
0.0
 40
0.0
 40
0.2501401410910744
 40
0.2501401410910744
 40
0.5002827542277275
 40
0.5002827542277275
 40
0.7504253673643806
 40
0.7504253673643806
 40
1.0
 40
1.0
 40
1.0
 40
1.0
 10
191.4873240965009
 20
744.652259504086
 30
0.0
 10
188.9049951905741
 20
744.7243572875477
 30
0.0
 10
186.3220851802142
 20
744.7963969701734
 30
0.0
 10
181.4634683068685
 20
744.9286639296536
 30
0.0
 10
179.1877604127125
 20
744.9888909205436
 30
0.0
 10
175.4202926710363
 20
745.0925278726546
 30
0.0
 10
173.928539038191
 20
745.1359380630291
 30
0.0
 10
171.9260054457049
 20
745.1905316438261
 30
0.0
 10
171.4130084912504
 20
745.2017874830533
 30
0.0
 10
171.4143200986666
 20
745.2020098502984
 30
0.0
  0
SPLINE
  5
FC
330
84
100
AcDbEntity
  8
DV1_Default
  6
Continuous
 62
     7
100
AcDbSpline
210
0.0
220
0.0
230
1.0
 70
     8
 71
     3
 72
    14
 73
    10
 74
     0
 42
0.0000000006311802
 43
0.0000000001
 40
0.0
 40
0.0
 40
0.0
 40
0.0
 40
0.2499832221752452
 40
0.2499832221752452
 40
0.4999888147834966
 40
0.4999888147834966
 40
0.7499944073917483
 40
0.7499944073917483
 40
1.0
 40
1.0
 40
1.0
 40
1.0
 10
175.7115151563737
 20
747.324312575496
 30
0.0
 10
175.7115824868637
 20
747.324467867511
 30
0.0
 10
176.1237342756031
 20
747.3133012730493
 30
0.0
 10
177.7101984992335
 20
747.269972214107
 30
0.0
 10
178.8839554596862
 20
747.2378247369529
 30
0.0
 10
181.8156094885277
 20
747.1573770722296
 30
0.0
 10
183.5723541127612
 20
747.1091083414088
 30
0.0
 10
187.4030073380275
 20
747.0037211494528
 30
0.0
 10
189.4754100969737
 20
746.9466439488326
 30
0.0
 10
191.5487756417028
 20
746.8894607828071
 30
0.0
  0
SPLINE
  5
FD
330
84
100
AcDbEntity
  8
DV1_Default
  6
Continuous
 62
     7
100
AcDbSpline
210
0.0
220
0.0
230
1.0
 70
     8
 71
     3
 72
    16
 73
    12
 74
     0
 42
0.0000000006310482
 43
0.0000000001
 40
0.0
 40
0.0
 40
0.0
 40
0.0
 40
0.0000032619088684
 40
0.0000032619088684
 40
0.2500024464316514
 40
0.2500024464316514
 40
0.5000016309544342
 40
0.5000016309544342
 40
0.7500008154772172
 40
0.7500008154772172
 40
1.0
 40
1.0
 40
1.0
 40
1.0
 10
207.3894701992079
 20
746.4555215160474
 30
0.0
 10
207.3894701992164
 20
746.4555215163304
 30
0.0
 10
207.3894701991547
 20
746.4555215166154
 30
0.0
 10
207.3894600896863
 20
746.4555435003566
 30
0.0
 10
206.9771611609928
 20
746.4668529253958
 30
0.0
 10
205.3901300310769
 20
746.5103453005901
 30
0.0
 10
204.2160222580574
 20
746.5425111554556
 30
0.0
 10
201.2835912621569
 20
746.6228372299462
 30
0.0
 10
199.5264218238192
 20
746.6709658618227
 30
0.0
 10
195.6950267384283
 20
746.7759033353389
 30
0.0
 10
193.6223085791949
 20
746.8326709057144
 30
0.0
 10
191.5487756417028
 20
746.8894607828071
 30
0.0
  0
ARC
  5
FE
330
84
100
AcDbEntity
  8
DV1_Default
  6
Continuous
 62
     7
100
AcDbCircle
 10
149.8723227429
 20
-560.6557679451
 30
0.0
 40
1310.222241149654
100
AcDbArc
 50
88.1846667076
 51
88.7000830176
  0
SPLINE
  5
FF
330
84
100
AcDbEntity
  8
DV1_Default
  6
Continuous
 62
     7
100
AcDbSpline
210
0.0
220
0.0
230
1.0
 70
     8
 71
     3
 72
    17
 73
    13
 74
     0
 42
0.0000000008324187
 43
0.0000000001
 40
0.0
 40
0.0
 40
0.0
 40
0.0
 40
0.0080906044503238
 40
0.1325885288021742
 40
0.2570526183868018
 40
0.3799280066451577
 40
0.502836243033294
 40
0.6262443173490551
 40
0.6964335344452122
 40
0.7493463062253453
 40
0.8639097189451231
 40
1.0
 40
1.0
 40
1.0
 40
1.0
 10
203.612430874762
 20
748.5715371777857
 30
0.0
 10
203.6124716069107
 20
748.5715359328786
 30
0.0
 10
203.6077666835316
 20
748.5716665294741
 30
0.0
 10
203.4275842394374
 20
748.5767335993722
 30
0.0
 10
202.7143961846483
 20
748.5983665293189
 30
0.0
 10
201.5888614216056
 20
748.6309097653194
 30
0.0
 10
200.1116233189938
 20
748.6652074640651
 30
0.0
 10
198.5556135276074
 20
748.7105919399723
 30
0.0
 10
197.2176465366076
 20
748.7486872660085
 30
0.0
 10
195.8627258758373
 20
748.7866730005251
 30
0.0
 10
194.0354337506812
 20
748.8358692981909
 30
0.0
 10
192.4594724439237
 20
748.876833231569
 30
0.0
 10
191.6039001890778
 20
748.9020866957204
 30
0.0
  0
SPLINE
  5
100
330
84
100
AcDbEntity
  8
DV1_Default
  6
Continuous
 62
     7
100
AcDbSpline
210
0.0
220
0.0
230
1.0
 70
     8
 71
     3
 72
    12
 73
     8
 74
     0
 42
0.0000000004271309
 43
0.0000000001
 40
0.0
 40
0.0
 40
0.0
 40
0.0
 40
0.49996438000488
 40
0.49996438000488
 40
0.9999287600097599
 40
0.9999287600097599
 40
1.0
 40
1.0
 40
1.0
 40
1.0
 10
190.6651616865284
 20
714.6549131588749
 30
0.0
 10
196.7723796041602
 20
714.4912944736021
 30
0.0
 10
202.8882031914792
 20
714.320096003534
 30
0.0
 10
211.5371926887436
 20
714.0844133569796
 30
0.0
 10
214.0675111544211
 20
714.014047571647
 30
0.0
 10
214.0683558564195
 20
714.0143694031186
 30
0.0
 10
214.0683559255516
 20
714.0143694503497
 30
0.0
 10
214.0683559434734
 20
714.0143694989605
 30
0.0
  0
SPLINE
  5
101
330
84
100
AcDbEntity
  8
DV1_Default
  6
Continuous
 62
     7
100
AcDbSpline
210
0.0
220
0.0
230
1.0
 70
     8
 71
     3
 72
    10
 73
     6
 74
     0
 42
0.0000000004271417
 43
0.0000000001
 40
0.0
 40
0.0
 40
0.0
 40
0.0
 40
0.4999955903019982
 40
0.4999955903019982
 40
1.0
 40
1.0
 40
1.0
 40
1.0
 10
167.2637246701521
 20
715.2955968746573
 30
0.0
 10
167.2631802553209
 20
715.2951697754935
 30
0.0
 10
169.7979391441455
 20
715.2264051247414
 30
0.0
 10
178.4384238743562
 20
714.9900469258914
 30
0.0
 10
184.5581453792533
 20
714.8255595442479
 30
0.0
 10
190.6651616865284
 20
714.6549131588749
 30
0.0
  0
LINE
  5
102
330
84
100
AcDbEntity
  8
DV1_Default
  6
Continuous
 62
     7
100
AcDbLine
 10
190.5563643039
 20
710.639039996
 30
0.0
 11
165.7079674634
 21
711.3193299035
 31
0.0
  0
LINE
  5
103
330
84
100
AcDbEntity
  8
DV1_Default
  6
Continuous
 62
     7
100
AcDbLine
 10
190.5563644424
 20
710.6390450558
 30
0.0
 11
215.4041302864
 21
709.9587692258
 31
0.0
  0
SPLINE
  5
104
330
84
100
AcDbEntity
  8
DV1_Default
  6
Continuous
 62
     7
100
AcDbSpline
210
0.0
220
0.0
230
1.0
 70
    12
 71
     3
 72
     8
 73
     4
 74
     0
 42
0.0000000025772646
 43
0.0000000001
 40
0.0
 40
0.0
 40
0.0
 40
0.0
 40
1.0
 40
1.0
 40
1.0
 40
1.0
 10
212.1517401586864
 20
739.6636118590558
 30
0.0
 41
1.33100655028128
 10
212.1758529169297
 20
738.3704762229447
 30
0.0
 41
0.889665959168028
 10
213.3058929604612
 20
737.7413550467453
 30
0.0
 41
0.889664483244409
 10
214.4177564206153
 20
738.402068350231
 30
0.0
 41
1.331002122510423
  0
ARC
  5
105
330
84
100
AcDbEntity
  8
DV1_Default
  6
Continuous
 62
     7
100
AcDbCircle
 10
224.7862217351
 20
733.1316778082
 30
0.0
 40
11.66039637099407
100
AcDbArc
 50
178.7880137293
 51
197.2224358945
  0
ARC
  5
106
330
84
100
AcDbEntity
  8
DV1_Default
  6
Continuous
 62
     7
100
AcDbCircle
 10
230.4699583237
 20
731.605021708
 30
0.0
 40
17.4319542505773
100
AcDbArc
 50
157.05055315
 51
174.1614008422
  0
ARC
  5
107
330
84
100
AcDbEntity
  8
DV1_Default
  6
Continuous
 62
     7
100
AcDbCircle
 10
216.1086269921
 20
721.1326856504
 30
0.0
 40
8.887762732094636
100
AcDbArc
 50
62.5261929281
 51
103.5624805277
  0
LINE
  5
108
330
84
100
AcDbEntity
  8
DV1_Default
  6
Continuous
 62
     7
100
AcDbLine
 10
220.2085141401
 20
729.0191430098
 30
0.0
 11
220.2089111974
 21
729.0180543121
 31
0.0
  0
ARC
  5
109
330
84
100
AcDbEntity
  8
DV1_Default
  6
Continuous
 62
     7
100
AcDbCircle
 10
-1413.7413454152
 20
329.3416146095
 30
0.0
 40
1682.121986810772
100
AcDbArc
 50
13.7451225873
 51
14.1663735534
  0
ARC
  5
10A
330
84
100
AcDbEntity
  8
DV1_Default
  6
Continuous
 62
     7
100
AcDbCircle
 10
209.5010653018
 20
746.4880148639
 30
0.0
 40
9.46342340695797
100
AcDbArc
 50
301.3018550216
 51
324.7142971497
  0
ARC
  5
10B
330
84
100
AcDbEntity
  8
DV1_Default
  6
Continuous
 62
     7
100
AcDbCircle
 10
217.6536338212
 20
740.7024540023
 30
0.0
 40
0.5335870604966015
100
AcDbArc
 50
103.6383144895
 51
143.2876952712
  0
ARC
  5
10C
330
84
100
AcDbEntity
  8
DV1_Default
  6
Continuous
 62
     7
100
AcDbCircle
 10
217.6612768789
 20
740.697906703
 30
0.0
 40
0.5398457244831022
100
AcDbArc
 50
74.4002366583
 51
104.3128446196
  0
ARC
  5
10D
330
84
100
AcDbEntity
  8
DV1_Default
  6
Continuous
 62
     7
100
AcDbCircle
 10
220.4397986859
 20
729.5115370622
 30
0.0
 40
0.543714718702837
100
AcDbArc
 50
284.0914956445
 51
313.3913707834
  0
ARC
  5
10E
330
84
100
AcDbEntity
  8
DV1_Default
  6
Continuous
 62
     7
100
AcDbCircle
 10
220.4371614635
 20
729.5002452568
 30
0.0
 40
0.5334311925090592
100
AcDbArc
 50
244.6690172185
 51
284.661539077
  0
LINE
  5
10F
330
84
100
AcDbEntity
  8
DV1_Default
  6
Continuous
 62
     7
100
AcDbLine
 10
220.8132685747
 20
729.1164840923
 30
0.0
 11
220.8131583237
 21
729.1176603377
 31
0.0
  0
ARC
  5
110
330
84
100
AcDbEntity
  8
DV1_Default
  6
Continuous
 62
     7
100
AcDbCircle
 10
2221.1685180776
 20
1232.6038877444
 30
0.0
 40
2062.745693948756
100
AcDbArc
 50
193.781471127
 51
194.1277951029
  0
ARC
  5
111
330
84
100
AcDbEntity
  8
DV1_Default
  6
Continuous
 62
     7
100
AcDbCircle
 10
7.0977542258
 20
682.4268066633
 30
0.0
 40
220.0673159542384
100
AcDbArc
 50
12.6377484233
 51
15.27573215
  0
ARC
  5
112
330
84
100
AcDbEntity
  8
DV1_Default
  6
Continuous
 62
     7
100
AcDbCircle
 10
216.6942602256
 20
737.0956236275
 30
0.0
 40
4.269643105154848
100
AcDbArc
 50
50.8503163753
 51
74.900994601
  0
ARC
  5
113
330
84
100
AcDbEntity
  8
DV1_Default
  6
Continuous
 62
     7
100
AcDbCircle
 10
217.8910878074
 20
732.2469005238
 30
0.0
 40
4.282437436657165
100
AcDbArc
 50
313.0295636957
 51
337.012660027
  0
ARC
  5
114
330
84
100
AcDbEntity
  8
DV1_Default
  6
Continuous
 62
     7
100
AcDbCircle
 10
219.7119339806
 20
740.8150559914
 30
0.0
 40
0.5200400432036257
100
AcDbArc
 50
231.7377534843
 51
283.9598297925
  0
ARC
  5
115
330
84
100
AcDbEntity
  8
DV1_Default
  6
Continuous
 62
     7
100
AcDbCircle
 10
222.3089722999
 20
730.365276117
 30
0.0
 40
0.5195003316248422
100
AcDbArc
 50
103.9059849444
 51
156.2515883102
  0
LINE
  5
116
330
84
100
AcDbEntity
  8
DV1_Default
  6
Continuous
 62
     7
100
AcDbLine
 10
222.1840581509
 20
730.8709387216
 30
0.0
 11
222.1839959335
 21
730.8700338159
 31
0.0
  0
SPLINE
  5
117
330
84
100
AcDbEntity
  8
DV1_Default
  6
Continuous
 62
     7
100
AcDbSpline
210
0.0
220
0.0
230
1.0
 70
     8
 71
     3
 72
    20
 73
    16
 74
     0
 42
0.0000000001573047
 43
0.0000000001
 40
0.0
 40
0.0
 40
0.0
 40
0.0
 40
0.125
 40
0.125
 40
0.2500000000000001
 40
0.2500000000000001
 40
0.5
 40
0.5
 40
0.625
 40
0.625
 40
0.75
 40
0.75
 40
0.8750000000000001
 40
0.8750000000000001
 40
1.0
 40
1.0
 40
1.0
 40
1.0
 10
282.3313474624895
 20
756.8330749798007
 30
0.0
 10
280.6438738275573
 20
757.584587418959
 30
0.0
 10
278.7553371348944
 20
757.9860802691887
 30
0.0
 10
274.8409151036412
 20
758.2224389507425
 30
0.0
 10
272.8179648602619
 20
758.0572991150691
 30
0.0
 10
266.6371604762658
 20
756.9127449012973
 30
0.0
 10
262.404277039035
 20
755.2871113242907
 30
0.0
 10
255.3282430686264
 20
752.326575384517
 30
0.0
 10
252.8402195599517
 20
751.2523428237031
 30
0.0
 10
247.5094571832613
 20
749.0459918406169
 30
0.0
 10
244.6612032690433
 20
747.9144596317834
 30
0.0
 10
238.6027661356351
 20
745.700074755307
 30
0.0
 10
235.3825804620587
 20
744.6180079990341
 30
0.0
 10
228.737031313821
 20
742.5951932829452
 30
0.0
 10
225.2968686447193
 20
741.6554290603412
 30
0.0
 10
221.952003950469
 20
740.8242378936194
 30
0.0
  0
LINE
  5
118
330
84
100
AcDbEntity
  8
DV1_Default
  6
Continuous
 62
     7
100
AcDbLine
 10
221.9520103582
 20
740.8242121087
 30
0.0
 11
219.8375194313
 21
740.3098283774
 31
0.0
  0
LINE
  5
119
330
84
100
AcDbEntity
  8
DV1_Default
  6
Continuous
 62
     7
100
AcDbLine
 10
222.1839959335
 20
730.8700338159
 30
0.0
 11
224.2935660296
 21
731.4052573498
 31
0.0
  0
SPLINE
  5
11A
330
84
100
AcDbEntity
  8
DV1_Default
  6
Continuous
 62
     7
100
AcDbSpline
210
0.0
220
0.0
230
1.0
 70
     8
 71
     3
 72
    20
 73
    16
 74
     0
 42
0.0000000001573071
 43
0.0000000001
 40
0.0
 40
0.0
 40
0.0
 40
0.0
 40
0.1250000000000002
 40
0.1250000000000002
 40
0.2500000000000004
 40
0.2500000000000004
 40
0.3750000000000006
 40
0.3750000000000006
 40
0.5000000000000004
 40
0.5000000000000004
 40
0.7500000000000002
 40
0.7500000000000002
 40
0.8750000000000001
 40
0.8750000000000001
 40
1.0
 40
1.0
 40
1.0
 40
1.0
 10
224.2935667676489
 20
731.4052543794388
 30
0.0
 10
227.6384480787524
 20
732.2363229834474
 30
0.0
 10
231.1183292411865
 20
733.0160669808645
 30
0.0
 10
237.9376676932629
 20
734.3390433143919
 30
0.0
 10
241.2897434452896
 20
734.8900726023178
 30
0.0
 10
247.6799017335146
 20
735.7689619499259
 30
0.0
 10
250.7264568814246
 20
736.1021992067294
 30
0.0
 10
256.469822146655
 20
736.64760771983
 30
0.0
 10
259.1712326447208
 20
736.8628791899815
 30
0.0
 10
266.8098632746803
 20
737.558748250761
 30
0.0
 10
271.3112644360357
 20
738.1034874780768
 30
0.0
 10
277.3088263484917
 20
739.9851127591149
 30
0.0
 10
279.1737573504297
 20
740.786063324049
 30
0.0
 10
282.5222123782688
 20
742.8271492751112
 30
0.0
 10
284.0031434629452
 20
744.0659048289735
 30
0.0
 10
285.1425438220637
 20
745.5198734943167
 30
0.0
  0
LINE
  5
11B
330
84
100
AcDbEntity
  8
DV1_Default
  6
Continuous
 62
     7
100
AcDbLine
 10
285.1425438221
 20
745.5198734943
 30
0.0
 11
285.1424420343
 21
745.5210652103
 31
0.0
  0
ARC
  5
11C
330
84
100
AcDbEntity
  8
DV1_Default
  6
Continuous
 62
     7
100
AcDbCircle
 10
348.4024334015
 20
767.2468002661
 30
0.0
 40
66.88672567477015
100
AcDbArc
 50
188.9569297439
 51
198.9542976913
  0
SPLINE
  5
11D
330
84
100
AcDbEntity
  8
DV1_Default
  6
Continuous
 62
     7
100
AcDbSpline
210
0.0
220
0.0
230
1.0
 70
    12
 71
     3
 72
     8
 73
     4
 74
     0
 42
0.0000000026006787
 43
0.0000000001
 40
0.0
 40
0.0
 40
0.0
 40
0.0
 40
1.0
 40
1.0
 40
1.0
 40
1.0
 10
285.9535172648701
 20
755.7239527529424
 30
0.0
 41
1.0
 10
285.2951948133167
 20
755.681300706649
 30
0.0
 41
1.0
 10
284.0878206931411
 20
756.050794909766
 30
0.0
 41
1.0
 10
282.3313474624895
 20
756.8330749798007
 30
0.0
 41
1.0
  0
SPLINE
  5
11E
330
84
100
AcDbEntity
  8
DV1_Default
  6
Continuous
 62
     7
100
AcDbSpline
210
0.0
220
0.0
230
1.0
 70
    12
 71
     3
 72
     8
 73
     4
 74
     0
 42
0.0000000026007661
 43
0.0000000001
 40
0.0
 40
0.0
 40
0.0
 40
0.0
 40
1.0
 40
1.0
 40
1.0
 40
1.0
 10
285.1425438220637
 20
745.5198734943167
 30
0.0
 41
1.0
 10
286.3284921371323
 20
747.0332430060822
 30
0.0
 41
1.0
 10
287.2224564156846
 20
747.9248756457057
 30
0.0
 41
1.0
 10
287.8241754407992
 20
748.1953553005108
 30
0.0
 41
1.0
  0
ARC
  5
11F
330
84
100
AcDbEntity
  8
DV1_Default
  6
Continuous
 62
     7
100
AcDbCircle
 10
285.9880745602
 20
755.2033695142
 30
0.0
 40
0.5217289671292644
100
AcDbArc
 50
59.0334156139
 51
93.7978297858
  0
ARC
  5
120
330
84
100
AcDbEntity
  8
DV1_Default
  6
Continuous
 62
     7
100
AcDbCircle
 10
287.613591009
 20
748.6688401646
 30
0.0
 40
0.5182023923423156
100
AcDbArc
 50
293.9773125435
 51
328.9961342261
  0
ARC
  5
121
330
84
100
AcDbEntity
  8
DV1_Default
  6
Continuous
 62
     7
100
AcDbCircle
 10
1136.8227641747
 20
963.1569407976
 30
0.0
 40
875.5122810882747
100
AcDbArc
 50
193.7102051183
 51
194.1990141286
  0
ARC
  5
122
330
84
100
AcDbEntity
  8
DV1_Default
  6
Continuous
 62
     7
100
AcDbCircle
 10
283.697717408
 20
750.9603745594
 30
0.0
 40
5.342936801868303
100
AcDbArc
 50
16.1024935615
 51
61.3855104723
  0
ARC
  5
123
330
84
100
AcDbEntity
  8
DV1_Default
  6
Continuous
 62
     7
100
AcDbCircle
 10
283.6010293755
 20
751.3490573232
 30
0.0
 40
5.34304041300283
100
AcDbArc
 50
326.524179467
 51
11.8064047923
  0
ARC
  5
124
330
84
100
AcDbEntity
  8
DV1_Default
  6
Continuous
 62
     7
100
AcDbCircle
 10
-283.4968728322
 20
774.1847445444
 30
0.0
 40
455.3038083928
100
AcDbArc
 50
352.6775103293
 51
354.7356864937
  0
ARC
  5
125
330
84
100
AcDbEntity
  8
DV1_Default
  6
Continuous
 62
     7
100
AcDbCircle
 10
-283.4968728322
 20
774.1847445444
 30
0.0
 40
455.3038083928
100
AcDbArc
 50
355.6296046224
 51
356.2689908322
  0
ARC
  5
126
330
84
100
AcDbEntity
  8
DV1_Default
  6
Continuous
 62
     7
100
AcDbCircle
 10
667.3764119408
 20
748.152200967
 30
0.0
 40
455.3038083928
100
AcDbArc
 50
180.5945309987
 51
181.0682587122
  0
ARC
  5
127
330
84
100
AcDbEntity
  8
DV1_Default
  6
Continuous
 62
     7
100
AcDbCircle
 10
667.3764119408
 20
748.152200967
 30
0.0
 40
455.3038083928001
100
AcDbArc
 50
182.5169319452
 51
184.1860386087
  0
ARC
  5
128
330
84
100
AcDbEntity
  8
DV1_Default
  6
Continuous
 62
     7
100
AcDbCircle
 10
211.4168297279
 20
743.4350299446
 30
0.0
 40
0.6832785440110587
100
AcDbArc
 50
358.8903810944
 51
78.3199718247
  0
ARC
  5
129
330
84
100
AcDbEntity
  8
DV1_Default
  6
Continuous
 62
     7
100
AcDbCircle
 10
188.685268558
 20
642.2934944633
 30
0.0
 40
104.3475870335
100
AcDbArc
 50
97.3915443345
 51
99.525781725
  0
ARC
  5
12A
330
84
100
AcDbEntity
  8
DV1_Default
  6
Continuous
 62
     7
100
AcDbCircle
 10
188.685268558
 20
642.2934944633
 30
0.0
 40
104.3475870335
100
AcDbArc
 50
77.3380120138
 51
79.4631153249
  0
ARC
  5
12B
330
84
100
AcDbEntity
  8
DV1_Default
  6
Continuous
 62
     7
100
AcDbCircle
 10
207.8247241236
 20
745.3509508283
 30
0.0
 40
0.4611639136873604
100
AcDbArc
 50
175.5226961272
 51
243.9463373602
  0
SPLINE
  5
12C
330
84
100
AcDbEntity
  8
DV1_Default
  6
Continuous
 62
     7
100
AcDbSpline
210
0.0
220
0.0
230
1.0
 70
     8
 71
     3
 72
     8
 73
     4
 74
     0
 42
0.0000000127542722
 43
0.0000000001
 40
0.0
 40
0.0
 40
0.0
 40
0.0
 40
1.0
 40
1.0
 40
1.0
 40
1.0
 10
175.682537771315
 20
746.2654974150967
 30
0.0
 10
175.6346532473089
 20
745.9633553404673
 30
0.0
 10
175.4839152529601
 20
745.798845830735
 30
0.0
 10
175.2303237882684
 20
745.7719688858995
 30
0.0
  0
ARC
  5
12D
330
84
100
AcDbEntity
  8
DV1_Default
  6
Continuous
 62
     7
100
AcDbCircle
 10
171.5215892726
 20
744.5273010414
 30
0.0
 40
0.6832351650207515
100
AcDbArc
 50
98.5417775161
 51
177.9684791593
  0
LINE
  5
12E
330
84
100
AcDbEntity
  8
DV1_Default
  6
Continuous
 62
     7
100
AcDbLine
 10
175.709738337
 20
747.378811748
 30
0.0
 11
175.6775318615
 21
746.2024273858
 31
0.0
  0
LINE
  5
12F
330
84
100
AcDbEntity
  8
DV1_Default
  6
Continuous
 62
     7
100
AcDbLine
 10
207.358795115
 20
745.3350732605
 30
0.0
 11
207.3910015906
 21
746.5114576226
 31
0.0
  0
ARC
  5
130
330
84
100
AcDbEntity
  8
DV1_Default
  6
Continuous
 62
     7
100
AcDbCircle
 10
206.8757694545
 20
746.4670356082
 30
0.0
 40
0.5104193990173012
100
AcDbArc
 50
358.207742765
 51
61.0472567964
  0
SPLINE
  5
131
330
84
100
AcDbEntity
  8
DV1_Default
  6
Continuous
 62
     7
100
AcDbSpline
210
0.0
220
0.0
230
1.0
 70
     8
 71
     3
 72
    11
 73
     7
 74
     0
 42
0.0000000186111205
 43
0.0000000001
 40
0.0
 40
0.0
 40
0.0
 40
0.0
 40
0.2634990776001295
 40
0.6035960747229628
 40
0.9439112131656144
 40
1.0
 40
1.0
 40
1.0
 40
1.0
 10
175.978718358703
 20
747.7521260842831
 30
0.0
 10
175.9352842309832
 20
747.7256963812205
 30
0.0
 10
175.8504592260502
 20
747.6717182063369
 30
0.0
 10
175.7542904916718
 20
747.5319574021976
 30
0.0
 10
175.7063502137454
 20
747.4010129758709
 30
0.0
 10
175.7149863723135
 20
747.3355732780365
 30
0.0
 10
175.7164474409927
 20
747.3248482780592
 30
0.0
  0
ARC
  5
132
330
84
100
AcDbEntity
  8
DV1_Default
  6
Continuous
 62
     7
100
AcDbCircle
 10
187.4750188506
 20
724.7478574766
 30
0.0
 40
25.71825281258647
100
AcDbArc
 50
107.7664617036
 51
116.6076726765
  0
SPLINE
  5
133
330
84
100
AcDbEntity
  8
DV1_Default
  6
Continuous
 62
     7
100
AcDbSpline
210
0.0
220
0.0
230
1.0
 70
     8
 71
     3
 72
     8
 73
     4
 74
     0
 42
0.0000000254932636
 43
0.0000000001
 40
0.0
 40
0.0
 40
0.0
 40
0.0
 40
1.0
 40
1.0
 40
1.0
 40
1.0
 10
180.6399295500469
 20
749.4161591761052
 30
0.0
 10
180.5518086568277
 20
749.2923967714438
 30
0.0
 10
180.4539015922012
 20
749.2121849321627
 30
0.0
 10
180.3462083561672
 20
749.175523658262
 30
0.0
  0
SPLINE
  5
134
330
84
100
AcDbEntity
  8
DV1_Default
  6
Continuous
 62
     7
100
AcDbSpline
210
0.0
220
0.0
230
1.0
 70
     8
 71
     3
 72
     8
 73
     4
 74
     0
 42
0.000000017214775
 43
0.0000000001
 40
0.0
 40
0.0
 40
0.0
 40
0.0
 40
1.0
 40
1.0
 40
1.0
 40
1.0
 10
203.0263692321411
 20
748.5276201563922
 30
0.0
 10
202.8104432176229
 20
748.5523019326253
 30
0.0
 10
202.6615079716732
 20
748.6483290166567
 30
0.0
 10
202.579563494292
 20
748.8157014084865
 30
0.0
  0
SPLINE
  5
135
330
84
100
AcDbEntity
  8
DV1_Default
  6
Continuous
 62
     7
100
AcDbSpline
210
0.0
220
0.0
230
1.0
 70
     8
 71
     3
 72
    10
 73
     6
 74
     0
 42
0.0000000253953473
 43
0.0000000001
 40
0.0
 40
0.0
 40
0.0
 40
0.0
 40
0.4690624916912957
 40
0.7148994772887057
 40
1.0
 40
1.0
 40
1.0
 40
1.0
 10
202.5869124168577
 20
748.8044725755499
 30
0.0
 10
202.5599475424394
 20
748.8649750281329
 30
0.0
 10
202.5213541479435
 20
748.9459645140109
 30
0.0
 10
202.4038440347581
 20
749.0122020449248
 30
0.0
 10
202.3445273983941
 20
749.0324124902075
 30
0.0
 10
202.3060445326194
 20
749.0442449925192
 30
0.0
  0
SPLINE
  5
136
330
84
100
AcDbEntity
  8
DV1_Default
  6
Continuous
 62
     7
100
AcDbSpline
210
0.0
220
0.0
230
1.0
 70
     8
 71
     3
 72
    10
 73
     6
 74
     0
 42
0.0000000253405559
 43
0.0000000001
 40
0.0
 40
0.0
 40
0.0
 40
0.0
 40
0.2853232087658394
 40
0.5311320736409314
 40
1.0
 40
1.0
 40
1.0
 40
1.0
 10
180.9262411621191
 20
749.6297477902076
 30
0.0
 10
180.8870535375803
 20
749.6200167586937
 30
0.0
 10
180.8265735271052
 20
749.6030463068747
 30
0.0
 10
180.7053017084125
 20
749.543321295053
 30
0.0
 10
180.6622569088567
 20
749.464398596706
 30
0.0
 10
180.6319777131694
 20
749.4053586569343
 30
0.0
  0
ARC
  5
137
330
84
100
AcDbEntity
  8
DV1_Default
  6
Continuous
 62
     7
100
AcDbCircle
 10
190.4878760219
 20
713.9445861386
 30
0.0
 40
36.94355470996524
100
AcDbArc
 50
88.1852416614
 51
105.0985787875
  0
ARC
  5
138
330
84
100
AcDbEntity
  8
DV1_Default
  6
Continuous
 62
     7
100
AcDbCircle
 10
190.7944511389
 20
713.8707308197
 30
0.0
 40
37.00895229252944
100
AcDbArc
 50
71.7800257746
 51
88.6632574222
  0
ARC
  5
139
330
84
100
AcDbEntity
  8
DV1_Default
  6
Continuous
 62
     7
100
AcDbCircle
 10
194.351525947
 20
724.4446321889
 30
0.0
 40
25.84334710550635
100
AcDbArc
 50
60.2775967599
 51
69.0765348371
  0
ARC
  5
13A
330
84
100
AcDbEntity
  8
DV1_Default
  6
Continuous
 62
     7
100
AcDbCircle
 10
214.3071767423
 20
715.0070732304
 30
0.0
 40
1.02097160184717
100
AcDbArc
 50
184.5799802632
 51
256.9178893393
  0
ARC
  5
13B
330
84
100
AcDbEntity
  8
DV1_Default
  6
Continuous
 62
     7
100
AcDbCircle
 10
167.0799010975
 20
716.3003630449
 30
0.0
 40
1.021391174503771
100
AcDbArc
 50
279.9238992073
 51
352.2425174131
  0
SPLINE
  5
13C
330
84
100
AcDbEntity
  8
DV1_Default
  6
Continuous
 62
     7
100
AcDbSpline
210
0.0
220
0.0
230
1.0
 70
     8
 71
     3
 72
    14
 73
    10
 74
     0
 42
0.0000000018180313
 43
0.0000000001
 40
0.0
 40
0.0
 40
0.0
 40
0.0
 40
0.1940770461450727
 40
0.3659741434770306
 40
0.5224826848533618
 40
0.6347929628163522
 40
0.7475638979623074
 40
0.8668939000463006
 40
1.0
 40
1.0
 40
1.0
 40
1.0
 10
167.3280607455588
 20
715.3062035587129
 30
0.0
 10
166.9518179419885
 20
715.2222543217046
 30
0.0
 10
166.3507008441883
 20
715.0696812072458
 30
0.0
 10
165.5419931878543
 20
714.5165679612714
 30
0.0
 10
165.064991346893
 20
713.8622691930273
 30
0.0
 10
164.8644434227581
 20
713.1908043849899
 30
0.0
 10
164.8770883433134
 20
712.5620218483946
 30
0.0
 10
165.1020996123997
 20
711.9162327235084
 30
0.0
 10
165.3688270799103
 20
711.5823230345407
 30
0.0
 10
165.5391669096719
 20
711.3801214414477
 30
0.0
  0
ARC
  5
13D
330
84
100
AcDbEntity
  8
DV1_Default
  6
Continuous
 62
     7
100
AcDbCircle
 10
165.7104938044
 20
711.5906219375
 30
0.0
 40
0.2713387073646013
100
AcDbArc
 50
218.1411805875
 51
269.782439587
  0
LINE
  5
13E
330
84
100
AcDbEntity
  8
DV1_Default
  6
Continuous
 62
     7
100
AcDbLine
 10
215.52283194
 20
709.9795450976
 30
0.0
 11
215.620647525
 21
710.0503541167
 31
0.0
  0
ARC
  5
13F
330
84
100
AcDbEntity
  8
DV1_Default
  6
Continuous
 62
     7
100
AcDbCircle
 10
215.4160739203
 20
710.2398098651
 30
0.0
 40
0.28130948074178
100
AcDbArc
 50
267.3595164744
 51
292.3029508742
  0
SPLINE
  5
140
330
84
100
AcDbEntity
  8
DV1_Default
  6
Continuous
 62
     7
100
AcDbSpline
210
0.0
220
0.0
230
1.0
 70
     8
 71
     3
 72
    14
 73
    10
 74
     0
 42
0.000000001817901
 43
0.0000000001
 40
0.0
 40
0.0
 40
0.0
 40
0.0
 40
0.1331081086224655
 40
0.2524381751589488
 40
0.3652081056553512
 40
0.4775170737587763
 40
0.6340242481218528
 40
0.8059211757162705
 40
1.0
 40
1.0
 40
1.0
 40
1.0
 10
215.5765775400521
 20
710.010096405314
 30
0.0
 10
215.7577522531892
 20
710.2026808805426
 30
0.0
 10
216.0423903959503
 20
710.5215056726217
 30
0.0
 10
216.3024461014653
 20
711.1540516464926
 30
0.0
 10
216.3494944375071
 20
711.7812405190872
 30
0.0
 10
216.1859793260506
 20
712.4627156772627
 30
0.0
 10
215.7454523665431
 20
713.1421717579038
 30
0.0
 10
214.9681436399353
 20
713.7387219895288
 30
0.0
 10
214.3762212518083
 20
713.9239419587709
 30
0.0
 10
214.0051006497287
 20
714.028341137379
 30
0.0
  0
ARC
  5
141
330
84
100
AcDbEntity
  8
DV1_Default
  6
Continuous
 62
     7
100
AcDbCircle
 10
214.0103951612
 20
728.2235173811
 30
0.0
 40
1.499999492478078
100
AcDbArc
 50
103.5197966294
 51
182.9507316345
  0
LINE
  5
142
330
84
100
AcDbEntity
  8
DV1_Default
  6
Continuous
 62
     7
100
AcDbLine
 10
213.6213719682
 20
729.6724654226
 30
0.0
 11
214.0243969895
 21
729.7726110945
 31
0.0
  0
ENDBLK
  5
144
330
84
100
AcDbEntity
  8
0
100
AcDbBlockEnd
  0
BLOCK
  5
1E3
330
145
100
AcDbEntity
  8
0
100
AcDbBlockBegin
  2
SE1
 70
     0
 10
0.0
 20
0.0
 30
0.0
  3
SE1
  1

  0
LINE
  5
148
330
145
100
AcDbEntity
  8
DV2_Default
  6
Continuous
 62
     7
100
AcDbLine
 10
15.8935949974
 20
582.6353374211
 30
0.0
 11
76.3754288581
 21
582.6353374211
 31
0.0
  0
LINE
  5
149
330
145
100
AcDbEntity
  8
DV2_Default
  6
Continuous
 62
     7
100
AcDbLine
 10
46.2005366576
 20
592.6353372478
 30
0.0
 11
46.0691806696
 21
592.6353372478
 31
0.0
  0
LINE
  5
14A
330
145
100
AcDbEntity
  8
DV2_Default
  6
Continuous
 62
     7
100
AcDbLine
 10
18.7254994788
 20
586.017559051
 30
0.0
 11
73.5435243767
 21
586.017559051
 31
0.0
  0
ARC
  5
14B
330
145
100
AcDbEntity
  8
DV2_Default
  6
Continuous
 62
     7
100
AcDbCircle
 10
68.3600541024
 20
592.1353372478
 30
0.0
 40
0.500000000000997
100
AcDbArc
 50
17.0858655338
 51
90.0
  0
ARC
  5
14C
330
145
100
AcDbEntity
  8
DV2_Default
  6
Continuous
 62
     7
100
AcDbCircle
 10
23.908969753
 20
592.1353372478
 30
0.0
 40
0.5
100
AcDbArc
 50
90.0
 51
162.9141344662
  0
SPLINE
  5
14D
330
145
100
AcDbEntity
  8
DV2_Default
  6
Continuous
 62
     7
100
AcDbSpline
210
0.0
220
0.0
230
1.0
 70
     8
 71
     3
 72
    12
 73
     8
 74
     0
 42
0.000000001316643
 43
0.0000000001
 40
0.0
 40
0.0
 40
0.0
 40
0.0
 40
0.1899774438397029
 40
0.3736770244458238
 40
0.5558952928525308
 40
0.7739656302215737
 40
1.0
 40
1.0
 40
1.0
 40
1.0
 10
23.4310369913441
 20
592.2822395122331
 30
0.0
 10
23.25985687126257
 20
591.78278464404
 30
0.0
 10
22.96810706287821
 20
590.9560901809823
 30
0.0
 10
22.28117422025689
 20
589.6924342740151
 30
0.0
 10
21.43236300046425
 20
588.4996205512108
 30
0.0
 10
20.34371707449547
 20
587.2998057692378
 30
0.0
 10
19.56338133950401
 20
586.612501343688
 30
0.0
 10
19.08796497629495
 20
586.2019008633001
 30
0.0
  0
SPLINE
  5
14E
330
145
100
AcDbEntity
  8
DV2_Default
  6
Continuous
 62
     7
100
AcDbSpline
210
0.0
220
0.0
230
1.0
 70
     8
 71
     3
 72
    13
 73
     9
 74
     0
 42
0.0000000013172167
 43
0.0000000001
 40
0.0
 40
0.0
 40
0.0
 40
0.0
 40
0.1923731808911223
 40
0.3785996862052654
 40
0.5612577870596295
 40
0.7045767795746033
 40
0.8500100899030559
 40
1.0
 40
1.0
 40
1.0
 40
1.0
 10
73.18105887917545
 20
586.2019008633001
 30
0.0
 10
72.77571468130692
 20
586.5506487715757
 30
0.0
 10
72.10780637208606
 20
587.1345163401187
 30
0.0
 10
71.10940732497579
 20
588.1823438689664
 30
0.0
 10
70.31779178917263
 20
589.2037418564395
 30
0.0
 10
69.69297106001358
 20
590.2145985955236
 30
0.0
 10
69.1954593003497
 20
591.2316369084451
 30
0.0
 10
68.97041963423517
 20
591.8869181590145
 30
0.0
 10
68.8379868641263
 20
592.2822395122331
 30
0.0
  0
ARC
  5
14F
330
145
100
AcDbEntity
  8
DV2_Default
  6
Continuous
 62
     7
100
AcDbCircle
 10
74.3044669008
 20
587.9622995118
 30
0.0
 40
2.088312473003661
100
AcDbArc
 50
237.4557941576
 51
248.6304731478
  0
ARC
  5
150
330
145
100
AcDbEntity
  8
DV2_Default
  6
Continuous
 62
     7
100
AcDbCircle
 10
17.9645569546
 20
587.9622995118
 30
0.0
 40
2.088312473003039
100
AcDbArc
 50
291.3695268522
 51
302.5442058424
  0
SPLINE
  5
151
330
145
100
AcDbEntity
  8
DV2_Default
  6
Continuous
 62
     7
100
AcDbSpline
210
0.0
220
0.0
230
1.0
 70
     8
 71
     3
 72
    13
 73
     9
 74
     0
 42
0.0000000021604009
 43
0.0000000001
 40
0.0
 40
0.0
 40
0.0
 40
0.0
 40
0.202795663717794
 40
0.3869815413260252
 40
0.5615870989880622
 40
0.698771217905596
 40
0.8425975690223864
 40
1.0
 40
1.0
 40
1.0
 40
1.0
 10
18.725499478795
 20
586.0175590510506
 30
0.0
 10
18.39590402805232
 20
585.9252317903816
 30
0.0
 10
17.86671847244176
 20
585.7670501849485
 30
0.0
 10
17.0911879302551
 20
585.3426337659948
 30
0.0
 10
16.5130805609729
 20
584.842452018144
 30
0.0
 10
16.08520728945866
 20
584.288061125893
 30
0.0
 10
15.77565472774477
 20
583.6715959209486
 30
0.0
 10
15.66483211393471
 20
583.2562741700689
 30
0.0
 10
15.60033159811849
 20
582.9985559203772
 30
0.0
  0
SPLINE
  5
152
330
145
100
AcDbEntity
  8
DV2_Default
  6
Continuous
 62
     7
100
AcDbSpline
210
0.0
220
0.0
230
1.0
 70
     8
 71
     3
 72
    13
 73
     9
 74
     0
 42
0.0000000021597809
 43
0.0000000001
 40
0.0
 40
0.0
 40
0.0
 40
0.0
 40
0.1975571520063318
 40
0.3761822987886961
 40
0.5497557844855655
 40
0.6900403540637459
 40
0.8387238821637312
 40
1.0
 40
1.0
 40
1.0
 40
1.0
 10
76.6686922573519
 20
582.9985559203772
 30
0.0
 10
76.58507485080293
 20
583.3213058953105
 30
0.0
 10
76.4398661124148
 20
583.8400469178891
 30
0.0
 10
75.99120256892935
 20
584.5836270842768
 30
0.0
 10
75.45584393920296
 20
585.1219561679471
 30
0.0
 10
74.86976138257994
 20
585.5226368901904
 30
0.0
 10
74.23028672148163
 20
585.8235331427909
 30
0.0
 10
73.80603146780135
 20
585.9456562753481
 30
0.0
 10
73.54352437667539
 20
586.0175590510506
 30
0.0
  0
ARC
  5
153
330
145
100
AcDbEntity
  8
DV2_Default
  6
Continuous
 62
     7
100
AcDbCircle
 10
76.3754288581
 20
582.9353374211
 30
0.0
 40
0.2999999999999999
100
AcDbArc
 50
270.0
 51
12.1650377108
  0
ARC
  5
154
330
145
100
AcDbEntity
  8
DV2_Default
  6
Continuous
 62
     7
100
AcDbCircle
 10
15.8935949974
 20
582.9353374211
 30
0.0
 40
0.3000000000016066
100
AcDbArc
 50
167.8349622892
 51
270.0
  0
SPLINE
  5
155
330
145
100
AcDbEntity
  8
DV2_Default
  6
Continuous
 62
     7
100
AcDbSpline
210
0.0
220
0.0
230
1.0
 70
     8
 71
     3
 72
    13
 73
     9
 74
     0
 42
0.0000000003498887
 43
0.0000000001
 40
0.0
 40
0.0
 40
0.0
 40
0.0
 40
0.0451120980633536
 40
0.1827121260546152
 40
0.3537759440967748
 40
0.5449200045890594
 40
0.769946059099097
 40
1.0
 40
1.0
 40
1.0
 40
1.0
 10
24.76851480872988
 20
610.7985583220997
 30
0.0
 10
24.78931700457085
 20
611.1848912406946
 30
0.0
 10
24.88460093847025
 20
612.7678746177107
 30
0.0
 10
25.12882240829781
 20
615.9771696762552
 30
0.0
 10
25.45032619620714
 20
620.7140739836238
 30
0.0
 10
25.72899015665073
 20
626.3977174989077
 30
0.0
 10
25.93259163817534
 20
632.6950169279236
 30
0.0
 10
26.05989709384905
 20
637.110471303655
 30
0.0
 10
26.1244394146252
 20
639.3425884107809
 30
0.0
  0
SPLINE
  5
156
330
145
100
AcDbEntity
  8
DV2_Default
  6
Continuous
 62
     7
100
AcDbSpline
210
0.0
220
0.0
230
1.0
 70
     8
 71
     3
 72
    16
 73
    12
 74
     0
 42
0.0000000004740481
 43
0.0000000001
 40
0.0
 40
0.0
 40
0.0
 40
0.0
 40
0.1489329375847865
 40
0.2592444796943676
 40
0.3237060955556973
 40
0.3951347532854446
 40
0.5593352288228715
 40
0.7379626569266551
 40
0.8856980923779367
 40
0.934868002652793
 40
1.0
 40
1.0
 40
1.0
 40
1.0
 10
67.26382370128098
 20
616.2175034357604
 30
0.0
 10
67.22963181559486
 20
617.2183234506442
 30
0.0
 10
67.14940146131046
 20
618.9891707143723
 30
0.0
 10
67.02815803822607
 20
621.2398580305722
 30
0.0
 10
66.93212137594948
 20
622.9658883013102
 30
0.0
 10
66.81448487764634
 20
625.0804647273998
 30
0.0
 10
66.65658544281898
 20
628.0184264141948
 30
0.0
 10
66.48552709265336
 20
631.5081031684707
 30
0.0
 10
66.36546856304493
 20
634.1718375621734
 30
0.0
 10
66.28509968573067
 20
636.0233748242938
 30
0.0
 10
66.25090413175194
 20
636.8281826209655
 30
0.0
 10
66.2311777938752
 20
637.2867792494209
 30
0.0
  0
LINE
  5
157
330
145
100
AcDbEntity
  8
DV2_Default
  6
Continuous
 62
     7
100
AcDbLine
 10
46.1344880263
 20
592.6563491434
 30
0.0
 11
46.13446402
 21
592.6401118305
 31
0.0
  0
SPLINE
  5
158
330
145
100
AcDbEntity
  8
DV2_Default
  6
Continuous
 62
     7
100
AcDbSpline
210
0.0
220
0.0
230
1.0
 70
     8
 71
     3
 72
    27
 73
    23
 74
     0
 42
0.0000000004444265
 43
0.0000000001
 40
0.0
 40
0.0
 40
0.0
 40
0.0
 40
0.0417955275659967
 40
0.0844688495044355
 40
0.1280323685951144
 40
0.1724881752389132
 40
0.2178291603937819
 40
0.2640408957991432
 40
0.311104394455627
 40
0.3589998910816824
 40
0.4077118083032714
 40
0.4572350922924768
 40
0.5075831037752732
 40
0.5587934919658777
 40
0.610901009978728
 40
0.6639170670059233
 40
0.7178327138479463
 40
0.7726239839457837
 40
0.8282590338644945
 40
0.8847073292078517
 40
0.9419511868863412
 40
1.0
 40
1.0
 40
1.0
 40
1.0
 10
46.13446402001361
 20
592.640111830512
 30
0.0
 10
46.62665048541846
 20
592.6401136790724
 30
0.0
 10
47.62136037175182
 20
592.6401174161175
 30
0.0
 10
49.12194837204363
 20
592.6401190455846
 30
0.0
 10
50.63930177694851
 20
592.6401173383875
 30
0.0
 10
52.16561856342117
 20
592.6401120108669
 30
0.0
 10
53.69227122264004
 20
592.640103444211
 30
0.0
 10
55.20975849338382
 20
592.6400922752082
 30
0.0
 10
56.70766317830115
 20
592.6400795224922
 30
0.0
 10
58.17461126738012
 20
592.6400665561351
 30
0.0
 10
59.59820583028539
 20
592.6400551328409
 30
0.0
 10
60.96504411572817
 20
592.6400473158997
 30
0.0
 10
62.26036150009323
 20
592.6400457871098
 30
0.0
 10
63.46868886803385
 20
592.640052635032
 30
0.0
 10
64.58006324954538
 20
592.6400642876426
 30
0.0
 10
65.58371014956796
 20
592.640078043591
 30
0.0
 10
66.46840207537478
 20
592.6400914280935
 30
0.0
 10
67.22225914174528
 20
592.6401026093235
 30
0.0
 10
67.83275528927848
 20
592.6401102386662
 30
0.0
 10
68.28668431418538
 20
592.6401146271673
 30
0.0
 10
68.57005424489144
 20
592.640114161169
 30
0.0
 10
68.6350631343833
 20
592.6401179502907
 30
0.0
 10
68.63475275954745
 20
592.6401158210095
 30
0.0
  0
ARC
  5
159
330
145
100
AcDbEntity
  8
DV2_Default
  6
Continuous
 62
     7
100
AcDbCircle
 10
57.3800786024
 20
7338.2112370473
 30
0.0
 40
6745.564271262235
100
AcDbArc
 50
269.904481378
 51
270.0955953908
  0
SPLINE
  5
15A
330
145
100
AcDbEntity
  8
DV2_Default
  6
Continuous
 62
     7
100
AcDbSpline
210
0.0
220
0.0
230
1.0
 70
     8
 71
     3
 72
    23
 73
    19
 74
     0
 42
0.0000000004461496
 43
0.0000000001
 40
0.0
 40
0.0
 40
0.0
 40
0.0
 40
0.0001302646301979
 40
0.0613206257482313
 40
0.1234730311669316
 40
0.2504072305524946
 40
0.3141545746266332
 40
0.3772923950260906
 40
0.4393313188179534
 40
0.5002089617771388
 40
0.5611138729573131
 40
0.6231691720642293
 40
0.6865016444474275
 40
0.7503629936191013
 40
0.8772683605279196
 40
0.9393412247149043
 40
0.9717293211697657
 40
1.0
 40
1.0
 40
1.0
 40
1.0
 10
68.5484646106551
 20
594.6279136910188
 30
0.0
 10
68.5484640591084
 20
594.6279139883306
 30
0.0
 10
68.54812716864312
 20
594.6280543801075
 30
0.0
 10
68.47421585523999
 20
594.6287503660238
 30
0.0
 10
68.03548506265912
 20
594.6307087337883
 30
0.0
 10
67.16242129276993
 20
594.6317598456561
 30
0.0
 10
65.88883405930741
 20
594.6315996090345
 30
0.0
 10
64.75050021371071
 20
594.6310016547689
 30
0.0
 10
63.4518728330053
 20
594.630221933397
 30
0.0
 10
62.00372192136889
 20
594.6299087695054
 30
0.0
 10
60.40188298734439
 20
594.6306963980486
 30
0.0
 10
58.64151471128012
 20
594.6319056946774
 30
0.0
 10
56.73391105483626
 20
594.63264340486
 30
0.0
 10
54.03729886173694
 20
594.633067231343
 30
0.0
 10
51.18146406985129
 20
594.6324263668537
 30
0.0
 10
48.61222769807728
 20
594.6313518865334
 30
0.0
 10
47.17689361162127
 20
594.6309147187799
 30
0.0
 10
46.46587278585375
 20
594.6308627207341
 30
0.0
 10
46.13449383346958
 20
594.6308384866909
 30
0.0
  0
SPLINE
  5
15B
330
145
100
AcDbEntity
  8
DV2_Default
  6
Continuous
 62
     7
100
AcDbSpline
210
0.0
220
0.0
230
1.0
 70
     8
 71
     3
 72
    12
 73
     8
 74
     0
 42
0.000000000683462
 43
0.0000000001
 40
0.0
 40
0.0
 40
0.0
 40
0.0
 40
0.1880407592639709
 40
0.3610496743116154
 40
0.6909511783107689
 40
0.860073592129283
 40
1.0
 40
1.0
 40
1.0
 40
1.0
 10
66.2311777938752
 20
637.2867792494209
 30
0.0
 10
66.19125061131047
 20
638.2300709630018
 30
0.0
 10
66.11505012168038
 20
640.041252999563
 30
0.0
 10
65.97015344972795
 20
643.4680089266154
 30
0.0
 10
65.82640110574009
 20
646.7474346831698
 30
0.0
 10
65.68473791028657
 20
649.797044369437
 30
0.0
 10
65.61460344543345
 20
651.2504753478491
 30
0.0
 10
65.58249895250847
 20
651.9037448110305
 30
0.0
  0
SPLINE
  5
15C
330
145
100
AcDbEntity
  8
DV2_Default
  6
Continuous
 62
     7
100
AcDbSpline
210
0.0
220
0.0
230
1.0
 70
     8
 71
     3
 72
    22
 73
    18
 74
     0
 42
0.0000000002577063
 43
0.0000000001
 40
0.0
 40
0.0
 40
0.0
 40
0.0
 40
0.0409034270926466
 40
0.1625509727948902
 40
0.3064855676818359
 40
0.38468017001803
 40
0.4647228497133408
 40
0.5427460511490768
 40
0.580009511736916
 40
0.6161660703913869
 40
0.686883582942064
 40
0.7608621274428748
 40
0.8139160572724501
 40
0.8414099966325493
 40
0.8830725359299976
 40
0.9244781597072829
 40
1.0
 40
1.0
 40
1.0
 40
1.0
 10
65.3854550906262
 20
655.7671539106587
 30
0.0
 10
65.34388063541229
 20
656.552504688678
 30
0.0
 10
65.1765669902411
 20
659.64070439174
 30
0.0
 10
64.84582508849046
 20
665.2022887141742
 30
0.0
 10
64.45292634969262
 20
670.9191588016056
 30
0.0
 10
64.09724719368019
 20
675.5237480725333
 30
0.0
 10
63.81376830208171
 20
678.8862564798396
 30
0.0
 10
63.57646411543212
 20
681.4599375059233
 30
0.0
 10
63.3915393227153
 20
683.3348021551895
 30
0.0
 10
63.21515101859651
 20
685.0451810023826
 30
0.0
 10
62.9934514096182
 20
687.053484969078
 30
0.0
 10
62.75184453422053
 20
689.0354304031025
 30
0.0
 10
62.56523998492077
 20
690.4200430047006
 30
0.0
 10
62.4192724906358
 20
691.4316085707512
 30
0.0
 10
62.28872212806323
 20
692.2790379745268
 30
0.0
 10
62.10499261425288
 20
693.3638660384456
 30
0.0
 10
61.97378540607414
 20
694.0271713356357
 30
0.0
 10
61.89169350186784
 20
694.3900070933017
 30
0.0
  0
SPLINE
  5
15D
330
145
100
AcDbEntity
  8
DV2_Default
  6
Continuous
 62
     7
100
AcDbSpline
210
0.0
220
0.0
230
1.0
 70
     8
 71
     3
 72
    13
 73
     9
 74
     0
 42
0.0000000032422289
 43
0.0000000001
 40
0.0
 40
0.0
 40
0.0
 40
0.0
 40
0.011987115814177
 40
0.2295216635661733
 40
0.6157432969799415
 40
0.7892078492188843
 40
0.9532344396745528
 40
1.0
 40
1.0
 40
1.0
 40
1.0
 10
61.89169350186784
 20
694.3900070933017
 30
0.0
 10
61.88728854971905
 20
694.4094764205862
 30
0.0
 10
61.80309159207369
 20
694.778647037817
 30
0.0
 10
61.58486083532736
 20
695.5819926056481
 30
0.0
 10
61.34299797526085
 20
695.9016075742428
 30
0.0
 10
61.16711451038782
 20
695.4502718563936
 30
0.0
 10
61.09271510319439
 20
694.9485984008776
 30
0.0
 10
61.05957428112925
 20
694.57676976175
 30
0.0
 10
61.0526161210954
 20
694.4894916576778
 30
0.0
  0
SPLINE
  5
15E
330
145
100
AcDbEntity
  8
DV2_Default
  6
Continuous
 62
     7
100
AcDbSpline
210
0.0
220
0.0
230
1.0
 70
     8
 71
     3
 72
    22
 73
    18
 74
     0
 42
0.0000000002972305
 43
0.0000000001
 40
0.0
 40
0.0
 40
0.0
 40
0.0
 40
0.0539716572483695
 40
0.1284997638514492
 40
0.2019416773128925
 40
0.2753149477841498
 40
0.3477973254073989
 40
0.4163834789101437
 40
0.5335338674616729
 40
0.6260133330908357
 40
0.6995180246482351
 40
0.7583104441088772
 40
0.8440077073913281
 40
0.9010945186312931
 40
0.9404459853326191
 40
0.9682917852100591
 40
1.0
 40
1.0
 40
1.0
 40
1.0
 10
61.0526161210954
 20
694.4894916576778
 30
0.0
 10
61.0361404318364
 20
694.2828325818859
 30
0.0
 10
61.00217774275157
 20
693.7269223770174
 30
0.0
 10
60.97047400075536
 20
692.6107623585207
 30
0.0
 10
60.96584714656047
 20
691.0784362440975
 30
0.0
 10
60.99313539665431
 20
689.2610897855591
 30
0.0
 10
61.05345551291977
 20
687.2130807026641
 30
0.0
 10
61.16893666643458
 20
684.4665120630731
 30
0.0
 10
61.35469388398516
 20
681.1472370466882
 30
0.0
 10
61.61872884348891
 20
677.4541791757722
 30
0.0
 10
61.87271383949253
 20
674.3744941483773
 30
0.0
 10
62.14847694310036
 20
671.2936241892832
 30
0.0
 10
62.42963040666602
 20
668.3601606530509
 30
0.0
 10
62.6844524907563
 20
665.659265628118
 30
0.0
 10
62.83916364232218
 20
663.7974806882355
 30
0.0
 10
62.94048743879569
 20
662.307139590685
 30
0.0
 10
62.96873578342158
 20
661.4050092543247
 30
0.0
 10
62.98302222264817
 20
660.9245807038382
 30
0.0
  0
ARC
  5
15F
330
145
100
AcDbEntity
  8
DV2_Default
  6
Continuous
 62
     7
100
AcDbCircle
 10
34.8859221073
 20
7023.5083848766
 30
0.0
 40
6430.861873476081
100
AcDbArc
 50
269.8997534521
 51
270.1002191765
  0
SPLINE
  5
160
330
145
100
AcDbEntity
  8
DV2_Default
  6
Continuous
 62
     7
100
AcDbSpline
210
0.0
220
0.0
230
1.0
 70
     8
 71
     3
 72
    21
 73
    17
 74
     0
 42
0.0000000004461502
 43
0.0000000001
 40
0.0
 40
0.0
 40
0.0
 40
0.0
 40
0.0282809393960726
 40
0.0606639202332331
 40
0.1227385025727336
 40
0.2496524470925194
 40
0.3766878726142734
 40
0.4387718444954916
 40
0.4997857293723392
 40
0.5607768393918126
 40
0.6228342663859873
 40
0.6859711444348896
 40
0.7497294469940403
 40
0.876657830601674
 40
0.9388425829735003
 40
1.0
 40
1.0
 40
1.0
 40
1.0
 10
46.13449383346958
 20
594.6308384866909
 30
0.0
 10
45.80303976208855
 20
594.6308627508505
 30
0.0
 10
45.09205548162885
 20
594.6309147990407
 30
0.0
 10
43.65687441520814
 20
594.6313515822785
 30
0.0
 10
41.08760297708608
 20
594.6324286622182
 30
0.0
 10
37.52133667849493
 20
594.6332119584639
 30
0.0
 10
34.22983604593529
 20
594.6323068345158
 30
0.0
 10
31.86711733917394
 20
594.6306979784259
 30
0.0
 10
30.26326868133703
 20
594.6299114932574
 30
0.0
 10
28.81375363624768
 20
594.6302226556895
 30
0.0
 10
27.51488337986164
 20
594.6310009744446
 30
0.0
 10
26.37713439054314
 20
594.631602435035
 30
0.0
 10
25.10444253382362
 20
594.6317594526928
 30
0.0
 10
24.23209548180512
 20
594.6307032057562
 30
0.0
 10
23.79425913350167
 20
594.6287484986066
 30
0.0
 10
23.72081934182246
 20
594.6280548929578
 30
0.0
 10
23.72056442349344
 20
594.6279142433978
 30
0.0
  0
SPLINE
  5
161
330
145
100
AcDbEntity
  8
DV2_Default
  6
Continuous
 62
     7
100
AcDbSpline
210
0.0
220
0.0
230
1.0
 70
     8
 71
     3
 72
    18
 73
    14
 74
     0
 42
0.0000000004444406
 43
0.0000000001
 40
0.0
 40
0.0
 40
0.0
 40
0.0
 40
0.1052248793894558
 40
0.2079194651218925
 40
0.3077679973486909
 40
0.4045905260398605
 40
0.4983279584968562
 40
0.5891369097342667
 40
0.6771608821543418
 40
0.7623520835280514
 40
0.8445970642559533
 40
0.9238124633741164
 40
0.9999999999999999
 40
0.9999999999999999
 40
0.9999999999999999
 40
0.9999999999999999
 10
23.63426976526503
 20
592.6401158591513
 30
0.0
 10
23.63432156943418
 20
592.6401221421281
 30
0.0
 10
23.84837729711196
 20
592.6401188475636
 30
0.0
 10
24.74913898003801
 20
592.6401160078608
 30
0.0
 10
26.14104531879002
 20
592.6400952679327
 30
0.0
 10
27.94771331532445
 20
592.6400691038491
 30
0.0
 10
30.10122288157459
 20
592.6400508481736
 30
0.0
 10
32.53602303656208
 20
592.6400600350793
 30
0.0
 10
35.15667668495071
 20
592.6400813757194
 30
0.0
 10
37.88503772190187
 20
592.6401030554596
 30
0.0
 10
40.65444570111821
 20
592.6401172789389
 30
0.0
 10
43.40846877190012
 20
592.6401211539041
 30
0.0
 10
45.23767901550847
 20
592.6401148972056
 30
0.0
 10
46.13446402001361
 20
592.640111830512
 30
0.0
  0
SPLINE
  5
162
330
145
100
AcDbEntity
  8
DV2_Default
  6
Continuous
 62
     7
100
AcDbSpline
210
0.0
220
0.0
230
1.0
 70
     8
 71
     3
 72
    48
 73
    44
 74
     0
 42
0.0000000001326303
 43
0.0000000001
 40
0.0
 40
0.0
 40
0.0
 40
0.0
 40
0.0068958706310718
 40
0.018202666001784
 40
0.0269127227952112
 40
0.0348951606657911
 40
0.0462229643787355
 40
0.0603150718913597
 40
0.0779615389138134
 40
0.1002158132400101
 40
0.1284590969716941
 40
0.1453787706260812
 40
0.1644941255715942
 40
0.1861901542568293
 40
0.2106499894066509
 40
0.2369767093768159
 40
0.2503799267160383
 40
0.263834437516789
 40
0.3188803987823464
 40
0.3478109615183001
 40
0.3783978425335984
 40
0.411468147599213
 40
0.4476011558686065
 40
0.4668622755020496
 40
0.4864076491849505
 40
0.5055009134025258
 40
0.523831098827833
 40
0.5634751335987737
 40
0.5784345752532146
 40
0.5939984537856227
 40
0.6133072958512146
 40
0.6339763027886166
 40
0.6554346405143958
 40
0.6770387610970588
 40
0.6982082728036134
 40
0.7184358769277488
 40
0.755395708793619
 40
0.817023949586317
 40
0.866795694583477
 40
0.9065602541667378
 40
0.9669046797779416
 40
0.9956713736311569
 40
1.0
 40
1.0
 40
1.0
 40
1.0
 10
29.28546167823627
 20
660.9227575117513
 30
0.0
 10
29.29338592985306
 20
661.2288862037251
 30
0.0
 10
29.31556581037734
 20
662.0368118647744
 30
0.0
 10
29.38913958372444
 20
663.2265905175228
 30
0.0
 10
29.48381320917812
 20
664.458175885589
 30
0.0
 10
29.58980949747959
 20
665.6848025439956
 30
0.0
 10
29.7237073234601
 20
667.1383047073908
 30
0.0
 10
29.90071120393324
 20
668.9954566484772
 30
0.0
 10
30.11894580587211
 20
671.2920538038107
 30
0.0
 10
30.37574427862619
 20
674.1258498455956
 30
0.0
 10
30.59988136441213
 20
676.836159489209
 30
0.0
 10
30.78431493299096
 20
679.3194215880168
 30
0.0
 10
30.92733110162103
 20
681.4663064841891
 30
0.0
 10
31.06061040017942
 20
683.7663705981516
 30
0.0
 10
31.17412744384453
 20
686.1344871224246
 30
0.0
 10
31.24142203448038
 20
688.0311648191499
 30
0.0
 10
31.27666911865774
 20
689.4507603832734
 30
0.0
 10
31.31098165760298
 20
691.4730828318287
 30
0.0
 10
31.29332252041314
 20
693.3562555529509
 30
0.0
 10
31.20220561130371
 20
694.7832691726583
 30
0.0
 10
31.09396241635362
 20
695.5049223381434
 30
0.0
 10
30.94406847710265
 20
695.8197926582002
 30
0.0
 10
30.78564709131985
 20
695.7033332981015
 30
0.0
 10
30.63798847805968
 20
695.3548617856808
 30
0.0
 10
30.51798728198567
 20
694.9699679144967
 30
0.0
 10
30.39489418740528
 20
694.4816138616203
 30
0.0
 10
30.22260516957608
 20
693.6776467714742
 30
0.0
 10
30.05267059654413
 20
692.7298026920623
 30
0.0
 10
29.88507740636363
 20
691.6648057579042
 30
0.0
 10
29.76467967877886
 20
690.8518474169524
 30
0.0
 10
29.62895362130926
 20
689.8710963707551
 30
0.0
 10
29.47749196547629
 20
688.7025859594506
 30
0.0
 10
29.31946399256682
 20
687.4054467251674
 30
0.0
 10
29.1596135987847
 20
686.0066466331805
 30
0.0
 10
29.00281438879275
 20
684.5553197488181
 30
0.0
 10
28.80802086368828
 20
682.6534531173824
 30
0.0
 10
28.51379173961094
 20
679.5750670069912
 30
0.0
 10
28.15100644074556
 20
675.3197138677942
 30
0.0
 10
27.79160946478553
 20
670.5430536235857
 30
0.0
 10
27.44490465919921
 20
665.470730626502
 30
0.0
 10
27.15844788094764
 20
660.7948340598895
 30
0.0
 10
26.96101021480161
 20
657.223969313339
 30
0.0
 10
26.89249428776211
 20
655.9360996180703
 30
0.0
 10
26.88355723580167
 20
655.7672671798807
 30
0.0
  0
SPLINE
  5
163
330
145
100
AcDbEntity
  8
DV2_Default
  6
Continuous
 62
     7
100
AcDbSpline
210
0.0
220
0.0
230
1.0
 70
     8
 71
     3
 72
    12
 73
     8
 74
     0
 42
0.0000000007951798
 43
0.0000000001
 40
0.0
 40
0.0
 40
0.0
 40
0.0
 40
0.0607560304915576
 40
0.1994669142483322
 40
0.4688846786101825
 40
0.7352758716000438
 40
1.0
 40
1.0
 40
1.0
 40
1.0
 10
26.68663004665817
 20
651.905755838209
 30
0.0
 10
26.67459362090216
 20
651.660856416003
 30
0.0
 10
26.63523720733629
 20
650.8546291854183
 30
0.0
 10
26.54394326927728
 20
648.9428221384657
 30
0.0
 10
26.41604574186677
 20
646.1456976390484
 30
0.0
 10
26.26887341966573
 20
642.7651827389732
 30
0.0
 10
26.17260913124943
 20
640.4810621819664
 30
0.0
 10
26.1244394146252
 20
639.3425884107809
 30
0.0
  0
ARC
  5
164
330
145
100
AcDbEntity
  8
DV2_Default
  6
Continuous
 62
     7
100
AcDbCircle
 10
-239.0205285029
 20
625.0460660546
 30
0.0
 40
264.1731666273668
100
AcDbArc
 50
356.9084884254
 51
358.1011760678
  0
ARC
  5
165
330
145
100
AcDbEntity
  8
DV2_Default
  6
Continuous
 62
     7
100
AcDbCircle
 10
332.8956480046
 20
625.0879303756
 30
0.0
 40
265.7796445283154
100
AcDbArc
 50
181.912565476
 51
183.1731942304
  0
ARC
  5
166
330
145
100
AcDbEntity
  8
DV2_Default
  6
Continuous
 62
     7
100
AcDbCircle
 10
389.6264798641
 20
623.3298769961
 30
0.0
 40
322.3667831501711
100
AcDbArc
 50
182.2585848374
 51
185.1081765853
  0
SPLINE
  5
167
330
145
100
AcDbEntity
  8
DV2_Default
  6
Continuous
 62
     7
100
AcDbSpline
210
0.0
220
0.0
230
1.0
 70
     8
 71
     3
 72
     8
 73
     4
 74
     0
 42
0.0000000523168657
 43
0.0000000001
 40
0.0
 40
0.0
 40
0.0
 40
0.0
 40
1.0
 40
1.0
 40
1.0
 40
1.0
 10
60.98186186800791
 20
690.1272863820374
 30
0.0
 10
60.980693290695
 20
690.1965893320416
 30
0.0
 10
60.9796527212746
 20
690.2587044605269
 30
0.0
 10
60.97872799031496
 20
690.3184036028832
 30
0.0
  0
ARC
  5
168
330
145
100
AcDbEntity
  8
DV2_Default
  6
Continuous
 62
     7
100
AcDbCircle
 10
23.8396724545
 20
593.6350351652
 30
0.0
 40
1.000000000000001
100
AcDbArc
 50
96.7965963744
 51
258.1514971803
  0
ARC
  5
169
330
145
100
AcDbEntity
  8
DV2_Default
  6
Continuous
 62
     7
100
AcDbCircle
 10
68.4293514009
 20
593.6350351652
 30
0.0
 40
0.9999999999999996
100
AcDbArc
 50
281.8502056558
 51
83.2154780605
  0
ARC
  5
16A
330
145
100
AcDbEntity
  8
DV2_Default
  6
Continuous
 62
     7
100
AcDbCircle
 10
-406.1086001781
 20
630.4743551889
 30
0.0
 40
431.3286108411432
100
AcDbArc
 50
355.2327705543
 51
357.4000490702
  0
LINE
  5
16B
330
145
100
AcDbEntity
  8
DV2_Default
  6
Continuous
 62
     7
100
AcDbLine
 10
28.8345119277
 20
592.6401118305
 30
0.0
 11
28.8345119277
 21
592.6353372478
 31
0.0
  0
LINE
  5
16C
330
145
100
AcDbEntity
  8
DV2_Default
  6
Continuous
 62
     7
100
AcDbLine
 10
63.4345119277
 20
592.6353372478
 30
0.0
 11
63.4345119277
 21
592.6401118305
 31
0.0
  0
SPLINE
  5
16D
330
145
100
AcDbEntity
  8
DV2_Default
  6
Continuous
 62
     7
100
AcDbSpline
210
0.0
220
0.0
230
1.0
 70
     8
 71
     3
 72
     8
 73
     4
 74
     0
 42
0.0000000665389895
 43
0.0000000001
 40
0.0
 40
0.0
 40
0.0
 40
0.0
 40
1.0
 40
1.0
 40
1.0
 40
1.0
 10
25.20863928979028
 20
626.8702746693777
 30
0.0
 10
25.20817868510671
 20
626.8201806453009
 30
0.0
 10
25.2077210866151
 20
626.7700859958511
 30
0.0
 10
25.20726658791071
 20
626.7199931139198
 30
0.0
  0
SPLINE
  5
16E
330
145
100
AcDbEntity
  8
DV2_Default
  6
Continuous
 62
     7
100
AcDbSpline
210
0.0
220
0.0
230
1.0
 70
     8
 71
     3
 72
     8
 73
     4
 74
     0
 42
0.0000001022788864
 43
0.0000000001
 40
0.0
 40
0.0
 40
0.0
 40
0.0
 40
1.0
 40
1.0
 40
1.0
 40
1.0
 10
67.06182454417464
 20
626.7125766236554
 30
0.0
 10
67.06152906099518
 20
626.7451653236977
 30
0.0
 10
67.06123226390983
 20
626.7777548218061
 30
0.0
 10
67.06093417868965
 20
626.8103444591094
 30
0.0
  0
SPLINE
  5
16F
330
145
100
AcDbEntity
  8
DV2_Default
  6
Continuous
 62
     7
100
AcDbSpline
210
0.0
220
0.0
230
1.0
 70
     8
 71
     3
 72
    10
 73
     6
 74
     0
 42
0.0000000009312085
 43
0.0000000001
 40
0.0
 40
0.0
 40
0.0
 40
0.0
 40
0.2446575985950815
 40
0.6619040957967093
 40
1.0
 40
1.0
 40
1.0
 40
1.0
 10
26.6644707292689
 20
651.9276451090471
 30
0.0
 10
26.62206120171441
 20
651.0834499034653
 30
0.0
 10
26.50886271576426
 20
648.7781148511807
 30
0.0
 10
26.34410857288042
 20
645.2088618656967
 30
0.0
 10
26.22307384649444
 20
642.4476647658446
 30
0.0
 10
26.1692895692152
 20
641.2003642444388
 30
0.0
  0
SPLINE
  5
170
330
145
100
AcDbEntity
  8
DV2_Default
  6
Continuous
 62
     7
100
AcDbSpline
210
0.0
220
0.0
230
1.0
 70
     8
 71
     3
 72
     8
 73
     4
 74
     0
 42
0.0000003904539373
 43
0.0000000001
 40
0.0
 40
0.0
 40
0.0
 40
0.0
 40
1.0
 40
1.0
 40
1.0
 40
1.0
 10
29.29580717086812
 20
660.9800364277677
 30
0.0
 10
29.29403925922638
 20
660.9716821305649
 30
0.0
 10
29.29228586864104
 20
660.9633273595475
 30
0.0
 10
29.29054201615194
 20
660.9549722768897
 30
0.0
  0
SPLINE
  5
171
330
145
100
AcDbEntity
  8
DV2_Default
  6
Continuous
 62
     7
100
AcDbSpline
210
0.0
220
0.0
230
1.0
 70
     8
 71
     3
 72
     9
 73
     5
 74
     0
 42
0.0000000019912871
 43
0.0000000001
 40
0.0
 40
0.0
 40
0.0
 40
0.0
 40
0.0172666988864723
 40
1.0
 40
1.0
 40
1.0
 40
1.0
 10
26.16930426928313
 20
641.2007890896758
 30
0.0
 10
26.17028417058862
 20
641.2291127061843
 30
0.0
 10
26.22481830821429
 20
642.8468472711888
 30
0.0
 10
26.28953666130556
 20
644.5309544862768
 30
0.0
 10
26.36938127026034
 20
646.2186000947787
 30
0.0
  0
SPLINE
  5
172
330
145
100
AcDbEntity
  8
DV2_Default
  6
Continuous
 62
     7
100
AcDbSpline
210
0.0
220
0.0
230
1.0
 70
     8
 71
     3
 72
     8
 73
     4
 74
     0
 42
0.000000068740013
 43
0.0000000001
 40
0.0
 40
0.0
 40
0.0
 40
0.0
 40
0.9999999999999999
 40
0.9999999999999999
 40
0.9999999999999999
 40
0.9999999999999999
 10
26.36938127026034
 20
646.2186000947787
 30
0.0
 10
26.37167163323832
 20
646.267010639614
 30
0.0
 10
26.37397536226832
 20
646.3154480234483
 30
0.0
 10
26.37629260860553
 20
646.3639115031732
 30
0.0
  0
SPLINE
  5
173
330
145
100
AcDbEntity
  8
DV2_Default
  6
Continuous
 62
     7
100
AcDbSpline
210
0.0
220
0.0
230
1.0
 70
     8
 71
     3
 72
     8
 73
     4
 74
     0
 42
0.0000000424110351
 43
0.0000000001
 40
0.0
 40
0.0
 40
0.0
 40
0.0
 40
1.0
 40
1.0
 40
1.0
 40
1.0
 10
25.04244357964287
 20
617.366415324757
 30
0.0
 10
25.03984385440155
 20
617.2877716443991
 30
0.0
 10
25.03730606259334
 20
617.2092153117161
 30
0.0
 10
25.03483542366206
 20
617.1307504613607
 30
0.0
  0
SPLINE
  5
174
330
145
100
AcDbEntity
  8
DV2_Default
  6
Continuous
 62
     7
100
AcDbSpline
210
0.0
220
0.0
230
1.0
 70
     8
 71
     3
 72
     8
 73
     4
 74
     0
 42
0.0000000041767874
 43
0.0000000001
 40
0.0
 40
0.0
 40
0.0
 40
0.0
 40
1.0
 40
1.0
 40
1.0
 40
1.0
 10
67.27875737708337
 20
615.225037167842
 30
0.0
 10
67.26829704088813
 20
616.0110496614498
 30
0.0
 10
67.24624585675113
 20
616.8102835962613
 30
0.0
 10
67.21817118145692
 20
617.6183604868427
 30
0.0
  0
SPLINE
  5
175
330
145
100
AcDbEntity
  8
DV2_Default
  6
Continuous
 62
     7
100
AcDbSpline
210
0.0
220
0.0
230
1.0
 70
     8
 71
     3
 72
     8
 73
     4
 74
     0
 42
0.000000026680241
 43
0.0000000001
 40
0.0
 40
0.0
 40
0.0
 40
0.0
 40
1.0
 40
1.0
 40
1.0
 40
1.0
 10
65.88429868961443
 20
646.5391466771632
 30
0.0
 10
65.89035069148972
 20
646.4141812654176
 30
0.0
 10
65.89631183802204
 20
646.2893829855313
 30
0.0
 10
65.90218471252236
 20
646.1647645291551
 30
0.0
  0
SPLINE
  5
176
330
145
100
AcDbEntity
  8
DV2_Default
  6
Continuous
 62
     7
100
AcDbSpline
210
0.0
220
0.0
230
1.0
 70
     8
 71
     3
 72
     9
 73
     5
 74
     0
 42
0.0000000020128627
 43
0.0000000001
 40
0.0
 40
0.0
 40
0.0
 40
0.0
 40
0.9825518217147248
 40
1.0
 40
1.0
 40
1.0
 40
1.0
 10
65.90218471252236
 20
646.1647645291551
 30
0.0
 10
65.98083957546834
 20
644.4957611124673
 30
0.0
 10
66.0447766732513
 20
642.8299472141167
 30
0.0
 10
66.0987413030218
 20
641.2291254194412
 30
0.0
 10
66.09973852116471
 20
641.2007215772849
 30
0.0
  0
SPLINE
  5
177
330
145
100
AcDbEntity
  8
DV2_Default
  6
Continuous
 62
     7
100
AcDbSpline
210
0.0
220
0.0
230
1.0
 70
     8
 71
     3
 72
    10
 73
     6
 74
     0
 42
0.0000000009316385
 43
0.0000000001
 40
0.0
 40
0.0
 40
0.0
 40
0.0
 40
0.8248823925221482
 40
0.8248823925221482
 40
1.0
 40
1.0
 40
1.0
 40
1.0
 10
66.0997568130852
 20
641.2002006920089
 30
0.0
 10
65.96870712927684
 20
644.2394521191025
 30
0.0
 10
65.83524251520373
 20
647.2115433118773
 30
0.0
 10
65.66530942186434
 20
650.708543198923
 30
0.0
 10
65.63522606333532
 20
651.3174292503058
 30
0.0
 10
65.60483168928766
 20
651.9225268905018
 30
0.0
  0
ARC
  5
178
330
145
100
AcDbEntity
  8
DV2_Default
  6
Continuous
 62
     7
100
AcDbCircle
 10
-1551.3818051058
 20
636.6651557487
 30
0.0
 40
1576.620910165625
100
AcDbArc
 50
359.6386143147
 51
2.2292557431
  0
ARC
  5
179
330
145
100
AcDbEntity
  8
DV2_Default
  6
Continuous
 62
     7
100
AcDbCircle
 10
25.0169332252
 20
676.3801951928
 30
0.0
 40
21.90832229954991
100
AcDbArc
 50
89.4426111541
 51
92.0469743043
  0
ARC
  5
17A
330
145
100
AcDbEntity
  8
DV2_Default
  6
Continuous
 62
     7
100
AcDbCircle
 10
24.3436200169
 20
697.9951280785
 30
0.0
 40
0.2999999921201455
100
AcDbArc
 50
111.354496036
 51
181.0016430248
  0
ARC
  5
17B
330
145
100
AcDbEntity
  8
DV2_Default
  6
Continuous
 62
     7
100
AcDbCircle
 10
67.9254038395
 20
697.9951280788
 30
0.0
 40
0.2999999906914149
100
AcDbArc
 50
359.0199602898
 51
68.6551117715
  0
ARC
  5
17C
330
145
100
AcDbEntity
  8
DV2_Default
  6
Continuous
 62
     7
100
AcDbCircle
 10
67.6547087234
 20
692.7030767971
 30
0.0
 40
5.58439145700597
100
AcDbArc
 50
86.0987513941
 51
90.9251956141
  0
ARC
  5
17D
330
145
100
AcDbEntity
  8
DV2_Default
  6
Continuous
 62
     7
100
AcDbCircle
 10
67.3006980432
 20
682.1378894663
 30
0.0
 40
16.15336020894977
100
AcDbArc
 50
87.3961675414
 51
90.8317052539
  0
ARC
  5
17E
330
145
100
AcDbEntity
  8
DV2_Default
  6
Continuous
 62
     7
100
AcDbCircle
 10
1464.6849059584
 20
639.5744589523
 30
0.0
 40
1397.682486613426
100
AcDbArc
 50
177.6045428854
 51
180.5272361574
  0
SPLINE
  5
17F
330
145
100
AcDbEntity
  8
DV2_Default
  6
Continuous
 62
     7
100
AcDbSpline
210
0.0
220
0.0
230
1.0
 70
     8
 71
     3
 72
    72
 73
    68
 74
     0
 42
0.0000000001614967
 43
0.0000000001
 40
0.0
 40
0.0
 40
0.0
 40
0.0
 40
0.0147641521029439
 40
0.0301612781588002
 40
0.0446221134725757
 40
0.0580841746767685
 40
0.0744198682516725
 40
0.0888831555461632
 40
0.1014828567919676
 40
0.1122608740723555
 40
0.1222421659616366
 40
0.1327278018989645
 40
0.1438639642346325
 40
0.155760677265759
 40
0.1684974654367711
 40
0.178526622804614
 40
0.1879628630469622
 40
0.1966435749742239
 40
0.204676458288551
 40
0.217498347456125
 40
0.2306961978349917
 40
0.2446921380733649
 40
0.2581295134109403
 40
0.2704379708150018
 40
0.281954666776342
 40
0.2940572416814711
 40
0.3069148522131422
 40
0.3284560994915211
 40
0.3505749601029593
 40
0.3731255529363244
 40
0.3958803980600291
 40
0.4124832539303954
 40
0.4271512095500646
 40
0.4398547317831676
 40
0.4513802818909598
 40
0.4641218250249133
 40
0.4829045366295939
 40
0.5040836901201462
 40
0.5270409805101701
 40
0.5558461802665169
 40
0.5865549367901688
 40
0.6191549496712503
 40
0.6323014558769459
 40
0.6442601506302137
 40
0.6547595183116458
 40
0.6637960631770518
 40
0.671367689603983
 40
0.6774732928290227
 40
0.682112413689497
 40
0.6853759229022665
 40
0.6887945981419245
 40
0.6929156302196844
 40
0.6977387927183365
 40
0.7032637148295445
 40
0.7133621084749061
 40
0.7251884408705493
 40
0.7387408643024381
 40
0.755999643235609
 40
0.775758289827846
 40
0.7979891147333402
 40
0.8226524387277289
 40
0.8496933334597446
 40
0.8790379758935802
 40
0.9105896761359598
 40
0.9442277010380783
 40
0.9798156216846378
 40
1.0
 40
1.0
 40
1.0
 40
1.0
 10
46.13407085879256
 20
708.0717257856695
 30
0.0
 10
45.61065757112987
 20
708.0629215773123
 30
0.0
 10
44.70821799364808
 20
708.0426390084003
 30
0.0
 10
43.25109877164721
 20
707.8493217397719
 30
0.0
 10
41.89076389549631
 20
707.5624185919673
 30
0.0
 10
40.51788925487394
 20
707.1639878225934
 30
0.0
 10
39.18290972910042
 20
706.6589112553314
 30
0.0
 10
37.92091040197883
 20
706.0551064781076
 30
0.0
 10
36.86699349483247
 20
705.4452126093453
 30
0.0
 10
35.9797820760689
 20
704.8426947917079
 30
0.0
 10
35.19541791639425
 20
704.2276109489653
 30
0.0
 10
34.47242877280263
 20
703.5735903377512
 30
0.0
 10
33.78548173541198
 20
702.8552169621925
 30
0.0
 10
33.14069453272942
 20
702.0699914864821
 30
0.0
 10
32.60079547474385
 20
701.2965696016361
 30
0.0
 10
32.16333404376842
 20
700.5661425264998
 30
0.0
 10
31.83548976550671
 20
699.9383384542762
 30
0.0
 10
31.58047554808808
 20
699.3840769486393
 30
0.0
 10
31.34312440600872
 20
698.8045500501196
 30
0.0
 10
31.15579537831256
 20
698.2817072404453
 30
0.0
 10
30.9860300098799
 20
697.7485973591795
 30
0.0
 10
30.85155859717961
 20
697.2764627398877
 30
0.0
 10
30.73438710539932
 20
696.825096775
 30
0.0
 10
30.63564466107628
 20
696.4114722993003
 30
0.0
 10
30.55186411326577
 20
696.0364600058999
 30
0.0
 10
30.47119281370644
 20
695.6537091488817
 30
0.0
 10
30.37365453064642
 20
695.1634114541247
 30
0.0
 10
30.26146972438097
 20
694.557414533694
 30
0.0
 10
30.13318564695704
 20
693.8069795870622
 30
0.0
 10
30.00585913482735
 20
693.0056460537127
 30
0.0
 10
29.89160492307253
 20
692.2379065091698
 30
0.0
 10
29.79225608358941
 20
691.5349277424319
 30
0.0
 10
29.71181798409302
 20
690.9432213193626
 30
0.0
 10
29.6411849238901
 20
690.4066103146173
 30
0.0
 10
29.57477249783667
 20
689.888150551044
 30
0.0
 10
29.49753967331382
 20
689.2691974568628
 30
0.0
 10
29.4032347635401
 20
688.4880775101749
 30
0.0
 10
29.29080680307714
 20
687.5186864901974
 30
0.0
 10
29.16110732617165
 20
686.3515092685274
 30
0.0
 10
29.01543048856836
 20
684.9771464143269
 30
0.0
 10
28.85388321548641
 20
683.3734602949311
 30
0.0
 10
28.72087505118981
 20
681.9836031584099
 30
0.0
 10
28.6211533656688
 20
680.9037523898539
 30
0.0
 10
28.55978142427649
 20
680.2262741700729
 30
0.0
 10
28.50563737092212
 20
679.6183093959878
 30
0.0
 10
28.45915264607483
 20
679.0886079373834
 30
0.0
 10
28.42029398214517
 20
678.6402583148804
 30
0.0
 10
28.38902566978183
 20
678.2757805106994
 30
0.0
 10
28.36515770060845
 20
677.9953279335734
 30
0.0
 10
28.34590500590407
 20
677.7677719484536
 30
0.0
 10
28.3275846977043
 20
677.5501600768681
 30
0.0
 10
28.30666280126009
 20
677.3002553616217
 30
0.0
 10
28.28222794329701
 20
677.0064531730993
 30
0.0
 10
28.24777366516687
 20
676.5890015188736
 30
0.0
 10
28.20166123065532
 20
676.0238209296289
 30
0.0
 10
28.14231883344982
 20
675.284657390446
 30
0.0
 10
28.0713295563185
 20
674.3840156076341
 30
0.0
 10
27.98771412625405
 20
673.299601063327
 30
0.0
 10
27.89055959104752
 20
672.0064703394954
 30
0.0
 10
27.78227189485981
 20
670.522820154361
 30
0.0
 10
27.66342194154955
 20
668.8417086687404
 30
0.0
 10
27.53471662650163
 20
666.9567386514746
 30
0.0
 10
27.39702630506239
 20
664.8625184827132
 30
0.0
 10
27.25141241206749
 20
662.5552425756973
 30
0.0
 10
27.09910360716321
 20
660.0320327523656
 30
0.0
 10
26.96679048222169
 20
657.7373003397518
 30
0.0
 10
26.88545628371816
 20
656.2756999443711
 30
0.0
 10
26.85622512208915
 20
655.7436200417912
 30
0.0
  0
SPLINE
  5
180
330
145
100
AcDbEntity
  8
DV2_Default
  6
Continuous
 62
     7
100
AcDbSpline
210
0.0
220
0.0
230
1.0
 70
     8
 71
     3
 72
    10
 73
     6
 74
     0
 42
0.0000000017443289
 43
0.0000000001
 40
0.0
 40
0.0
 40
0.0
 40
0.0
 40
0.1274924264773659
 40
0.7149238561431134
 40
0.9999999999999999
 40
0.9999999999999999
 40
0.9999999999999999
 40
0.9999999999999999
 10
26.65352398016349
 20
651.9422735462557
 30
0.0
 10
26.64116802644769
 20
651.7038826917443
 30
0.0
 10
26.57186725461121
 20
650.360366567285
 30
0.0
 10
26.47420849263995
 20
648.4188956078394
 30
0.0
 10
26.39883572579751
 20
646.8281659098176
 30
0.0
 10
26.36990512784065
 20
646.2164390041174
 30
0.0
  0
ARC
  5
181
330
145
100
AcDbEntity
  8
DV2_Default
  6
Continuous
 62
     7
100
AcDbCircle
 10
-406.8011088444
 20
629.7097809688
 30
0.0
 40
432.0191590735626
100
AcDbArc
 50
358.3315067119
 51
359.6235373861
  0
ARC
  5
182
330
145
100
AcDbEntity
  8
DV2_Default
  6
Continuous
 62
     7
100
AcDbCircle
 10
514.2030316429
 20
629.9618548418
 30
0.0
 40
447.1531555766601
100
AcDbArc
 50
180.4037463286
 51
181.6406952523
  0
SPLINE
  5
183
330
145
100
AcDbEntity
  8
DV2_Default
  6
Continuous
 62
     7
100
AcDbSpline
210
0.0
220
0.0
230
1.0
 70
     8
 71
     3
 72
     9
 73
     5
 74
     0
 42
0.000000001728447
 43
0.0000000001
 40
0.0
 40
0.0
 40
0.0
 40
0.0
 40
0.4647086470247339
 40
0.9999999999999999
 40
0.9999999999999999
 40
0.9999999999999999
 40
0.9999999999999999
 10
65.9012349964819
 20
646.1625984785211
 30
0.0
 10
65.85332151392653
 20
647.166768619349
 30
0.0
 10
65.76584454186589
 20
648.9945659156182
 30
0.0
 10
65.66807631340363
 20
650.921258168879
 30
0.0
 10
65.61517916163967
 20
651.9410543114248
 30
0.0
  0
SPLINE
  5
184
330
145
100
AcDbEntity
  8
DV2_Default
  6
Continuous
 62
     7
100
AcDbSpline
210
0.0
220
0.0
230
1.0
 70
     8
 71
     3
 72
    52
 73
    48
 74
     0
 42
0.0000000002254699
 43
0.0000000001
 40
0.0
 40
0.0
 40
0.0
 40
0.0
 40
0.0107296350818426
 40
0.0237977766728347
 40
0.0349179879294319
 40
0.0445527054170173
 40
0.0600844318070729
 40
0.0763856165343066
 40
0.0945003833955006
 40
0.1127406256806737
 40
0.1329253237806305
 40
0.1550464349013721
 40
0.179091942886459
 40
0.2050451284966849
 40
0.2322432644665276
 40
0.2842296154893938
 40
0.3361508191733366
 40
0.3879035200593783
 40
0.4392191249067016
 40
0.4710516717418891
 40
0.501337239376153
 40
0.5297937074842127
 40
0.5574154127159737
 40
0.5864967502046464
 40
0.6153391573090493
 40
0.6439320103382113
 40
0.6717556882891111
 40
0.6844903923651399
 40
0.696081229438055
 40
0.7065873170466636
 40
0.7178520947738247
 40
0.7311170354826814
 40
0.7464315865717469
 40
0.7615712215045066
 40
0.7758517372516699
 40
0.7895338100016722
 40
0.8029803789200638
 40
0.8180279893552589
 40
0.8355921198417775
 40
0.8505353401095547
 40
0.8670750668454037
 40
0.8852594206769437
 40
0.9051070612066382
 40
0.9265972221445453
 40
0.9496619094521512
 40
0.9741831898352814
 40
1.0
 40
1.0
 40
1.0
 40
1.0
 10
64.2820722988004
 20
673.2717280195694
 30
0.0
 10
64.26873563920934
 20
673.447008339506
 30
0.0
 10
64.23910566314912
 20
673.8342794493385
 30
0.0
 10
64.19546363735104
 20
674.397706720538
 30
0.0
 10
64.15301456612379
 20
674.9388654312049
 30
0.0
 10
64.10727966167582
 20
675.5155887740801
 30
0.0
 10
64.05479376353132
 20
676.168676507972
 30
0.0
 10
63.99126231170631
 20
676.9458321917887
 30
0.0
 10
63.92389445309987
 20
677.7546295157657
 30
0.0
 10
63.85115238051771
 20
678.6105245187057
 30
0.0
 10
63.77284555352563
 20
679.5120868151516
 30
0.0
 10
63.6865771073748
 20
680.4812627605689
 30
0.0
 10
63.59231439593913
 20
681.5115162673055
 30
0.0
 10
63.49090231606176
 20
682.5861744850557
 30
0.0
 10
63.35210827455104
 20
684.0088463324319
 30
0.0
 10
63.17767956409903
 20
685.7087804674895
 30
0.0
 10
62.96902398977625
 20
687.6067684956527
 30
0.0
 10
62.76092326798317
 20
689.3661928940035
 30
0.0
 10
62.57792980031993
 20
690.7949743186769
 30
0.0
 10
62.42228222172171
 20
691.9251893926195
 30
0.0
 10
62.2965118315143
 20
692.7852865685682
 30
0.0
 10
62.17483651519078
 20
693.5665258649317
 30
0.0
 10
62.05199473352945
 20
694.304431372359
 30
0.0
 10
61.92154689602256
 20
695.0288466621618
 30
0.0
 10
61.78510545518867
 20
695.7220790149187
 30
0.0
 10
61.63484808681055
 20
696.411647014088
 30
0.0
 10
61.49690467931685
 20
696.9736618340687
 30
0.0
 10
61.37765785530459
 20
697.4125318880956
 30
0.0
 10
61.28693889573178
 20
697.7242982605416
 30
0.0
 10
61.19314116435351
 20
698.0273618011211
 30
0.0
 10
61.05610761438772
 20
698.4391147414495
 30
0.0
 10
60.85296592918952
 20
698.9860316223176
 30
0.0
 10
60.58316496424327
 20
699.6200721038433
 30
0.0
 10
60.24094449203109
 20
700.3140668986103
 30
0.0
 10
59.82980346682967
 20
701.0319846939813
 30
0.0
 10
59.34910860991624
 20
701.7573736465175
 30
0.0
 10
58.76427089343874
 20
702.5195756353136
 30
0.0
 10
58.04365565423514
 20
703.3248301883509
 30
0.0
 10
57.22039511164557
 20
704.1000060168583
 30
0.0
 10
56.29963715764436
 20
704.8302540765458
 30
0.0
 10
55.3078180515469
 20
705.4987363097168
 30
0.0
 10
54.15880167214623
 20
706.1468136734741
 30
0.0
 10
52.84895479064185
 20
706.7502813367647
 30
0.0
 10
51.37592251419432
 20
707.2826875224772
 30
0.0
 10
49.75946241116775
 20
707.7083593743396
 30
0.0
 10
47.96108707291575
 20
708.008643675008
 30
0.0
 10
46.82527300433789
 20
708.0502961778473
 30
0.0
 10
46.13453311722607
 20
708.0706201434895
 30
0.0
  0
ARC
  5
185
330
145
100
AcDbEntity
  8
DV2_Default
  6
Continuous
 62
     7
100
AcDbCircle
 10
97.3436644719
 20
614.675648261
 30
0.0
 40
72.35248265230518
100
AcDbArc
 50
177.6706617342
 51
178.7204357788
  0
SPLINE
  5
186
330
145
100
AcDbEntity
  8
DV2_Default
  6
Continuous
 62
     7
100
AcDbSpline
210
0.0
220
0.0
230
1.0
 70
     8
 71
     3
 72
    13
 73
     9
 74
     0
 42
0.0000000013502818
 43
0.0000000001
 40
0.0
 40
0.0
 40
0.0
 40
0.0
 40
0.2196354587417919
 40
0.4592104280718061
 40
0.6846370050792232
 40
0.8004642795201844
 40
0.9192612998694102
 40
1.0
 40
1.0
 40
1.0
 40
1.0
 10
23.79258172374103
 20
698.2950542239311
 30
0.0
 10
23.76755477132924
 20
698.2947649465527
 30
0.0
 10
24.00756849295616
 20
698.2952432833598
 30
0.0
 10
25.13641939709175
 20
698.295104618581
 30
0.0
 10
26.81189569202954
 20
698.2952152023119
 30
0.0
 10
28.52332990239406
 20
698.2950433047747
 30
0.0
 10
29.84997471810923
 20
698.2951218753183
 30
0.0
 10
30.76588951803859
 20
698.2951387063847
 30
0.0
 10
31.14838693860144
 20
698.2951420259498
 30
0.0
  0
LINE
  5
187
330
145
100
AcDbEntity
  8
DV2_Default
  6
Continuous
 62
     7
100
AcDbLine
 10
68.4770294836
 20
698.2951275278
 30
0.0
 11
61.1181529991
 21
698.2951275278
 31
0.0
  0
SPLINE
  5
188
330
145
100
AcDbEntity
  8
DV2_Default
  6
Continuous
 62
     7
100
AcDbSpline
210
0.0
220
0.0
230
1.0
 70
     8
 71
     3
 72
    14
 73
    10
 74
     0
 42
0.000000001049968
 43
0.0000000001
 40
0.0
 40
0.0
 40
0.0
 40
0.0
 40
0.0814377980908183
 40
0.2162758324859781
 40
0.4925791292624052
 40
0.6496252152890195
 40
0.7968552926416065
 40
0.9330064233206549
 40
1.0
 40
1.0
 40
1.0
 40
1.0
 10
58.95569161886364
 20
702.2545280795624
 30
0.0
 10
59.43201091431118
 20
702.2543928428911
 30
0.0
 10
60.66205533259897
 20
702.2547364143505
 30
0.0
 10
63.23340336956153
 20
702.2606858757823
 30
0.0
 10
65.62369367371583
 20
702.262746928938
 30
0.0
 10
67.28052626931758
 20
702.2574148542001
 30
0.0
 10
68.10773144204931
 20
702.2569112697513
 30
0.0
 10
68.43256770579205
 20
702.2578981916996
 30
0.0
 10
68.47971529785099
 20
702.2580779699874
 30
0.0
 10
68.47977292556268
 20
702.2580798991012
 30
0.0
  0
SPLINE
  5
189
330
145
100
AcDbEntity
  8
DV2_Default
  6
Continuous
 62
     7
100
AcDbSpline
210
0.0
220
0.0
230
1.0
 70
     8
 71
     3
 72
    14
 73
    10
 74
     0
 42
0.0000000010521949
 43
0.0000000001
 40
0.0
 40
0.0
 40
0.0
 40
0.0
 40
0.0000069526854133
 40
0.0510057807267896
 40
0.2038694335543397
 40
0.4582237154652821
 40
0.6237973250632685
 40
0.8147783765165413
 40
1.0
 40
1.0
 40
1.0
 40
1.0
 10
24.04022600359772
 20
702.5529196125244
 30
0.0
 10
24.04022600414373
 20
702.5529196488409
 30
0.0
 10
24.04023123657098
 20
702.5531860305608
 30
0.0
 10
24.07576648664448
 20
702.5522943393241
 30
0.0
 10
24.47403840930295
 20
702.5507743307769
 30
0.0
 10
25.7629443246587
 20
702.5542216160388
 30
0.0
 10
27.9306772662914
 20
702.5584346434845
 30
0.0
 10
30.39829679037764
 20
702.5511138613778
 30
0.0
 10
32.4623334690357
 20
702.5487062313279
 30
0.0
 10
33.54387279192837
 20
702.5487045820073
 30
0.0
  0
ARC
  5
18A
330
145
100
AcDbEntity
  8
DV2_Default
  6
Continuous
 62
     7
100
AcDbCircle
 10
68.1014105187
 20
700.2845021594
 30
0.0
 40
2.00966838667094
100
AcDbArc
 50
280.3347654688
 51
80.6166044718
  0
ARC
  5
18B
330
145
100
AcDbEntity
  8
DV2_Default
  6
Continuous
 62
     7
100
AcDbCircle
 10
68.5368389063
 20
702.5525871572
 30
0.0
 40
0.3000030443344968
100
AcDbArc
 50
179.613356025
 51
260.1778946126
  0
ARC
  5
18C
330
145
100
AcDbEntity
  8
DV2_Default
  6
Continuous
 62
     7
100
AcDbCircle
 10
23.7402270144
 20
702.5528540713
 30
0.0
 40
0.3000002532337932
100
AcDbArc
 50
279.8604051866
 51
0.5637051462
  0
ARC
  5
18D
330
145
100
AcDbEntity
  8
DV2_Default
  6
Continuous
 62
     7
100
AcDbCircle
 10
24.1645858098
 20
700.2867142712
 30
0.0
 40
2.005868941509233
100
AcDbArc
 50
99.0984813611
 51
259.8113016848
  0
LINE
  5
18E
330
145
100
AcDbEntity
  8
DV2_Default
  6
Continuous
 62
     7
100
AcDbLine
 10
68.2295572301
 20
702.5522946185
 30
0.0
 11
68.2285702401
 21
703.088735616
 31
0.0
  0
ARC
  5
18F
330
145
100
AcDbEntity
  8
DV2_Default
  6
Continuous
 62
     7
100
AcDbCircle
 10
231.6164892431
 20
703.7974998552
 30
0.0
 40
207.5729779132307
100
AcDbArc
 50
178.3651520007
 51
180.3435364952
  0
ARC
  5
190
330
145
100
AcDbEntity
  8
DV2_Default
  6
Continuous
 62
     7
100
AcDbCircle
 10
-143.7147531883
 20
703.9427612885
 30
0.0
 40
211.9369729428516
100
AcDbArc
 50
359.769120184
 51
1.6867540984
  0
ARC
  5
191
330
145
100
AcDbEntity
  8
DV2_Default
  6
Continuous
 62
     7
100
AcDbCircle
 10
67.6355095892
 20
710.1687571437
 30
0.0
 40
0.4999998799029014
100
AcDbArc
 50
0.9549164959
 51
18.4948953137
  0
ARC
  5
192
330
145
100
AcDbEntity
  8
DV2_Default
  6
Continuous
 62
     7
100
AcDbCircle
 10
24.6325544376
 20
710.1687571438
 30
0.0
 40
0.4999998798413531
100
AcDbArc
 50
161.8606550942
 51
179.0450288785
  0
LINE
  5
193
330
145
100
AcDbEntity
  8
DV2_Default
  6
Continuous
 62
     7
100
AcDbLine
 10
24.1331497671
 20
710.1989146834
 30
0.0
 11
24.1207765741
 21
709.7020085708
 31
0.0
  0
ELLIPSE
  5
194
330
145
100
AcDbEntity
  8
DV2_Default
  6
Continuous
 62
     7
100
AcDbEllipse
 10
46.1345119277
 20
653.3210619282
 30
0.0
 11
10.55
 21
0.0
 31
0.0
210
0.0
220
0.0
230
1.0
 40
0.2588190451
 41
0.0
 42
6.283185307179586
  0
SPLINE
  5
195
330
145
100
AcDbEntity
  8
DV2_Default
  6
Continuous
 62
     7
100
AcDbSpline
210
0.0
220
0.0
230
1.0
 70
     8
 71
     3
 72
    31
 73
    27
 74
     0
 42
0.00000000046727
 43
0.0000000001
 40
0.0
 40
0.0
 40
0.0
 40
0.0
 40
0.0460995280342381
 40
0.0918588078141889
 40
0.1372778328994049
 40
0.1823565969255382
 40
0.2270950936041899
 40
0.271493316722747
 40
0.3155512601442338
 40
0.3592689178071528
 40
0.4026462837253376
 40
0.4456833519878104
 40
0.4883801167586356
 40
0.5307365722767756
 40
0.5727527128559615
 40
0.6144285328845505
 40
0.6557640268253978
 40
0.69675918921573
 40
0.7374140146670123
 40
0.7777284978648298
 40
0.8177026335687699
 40
0.8573364166122994
 40
0.8966298419026542
 40
0.9355829044207264
 40
0.9741955992209579
 40
1.0
 40
1.0
 40
1.0
 40
1.0
 10
46.13451184766548
 20
658.9460508157523
 30
0.0
 10
45.67060504903291
 20
658.944018904158
 30
0.0
 10
44.74621552219466
 20
658.9392472179862
 30
0.0
 10
43.37125547278698
 20
658.9011587648705
 30
0.0
 10
42.01921015882194
 20
658.8412400173576
 30
0.0
 10
40.69590122039094
 20
658.7580809637738
 30
0.0
 10
39.4067939356893
 20
658.6531621993024
 30
0.0
 10
38.15698435801941
 20
658.5272994525164
 30
0.0
 10
36.95118764448438
 20
658.381574032447
 30
0.0
 10
35.79372990403762
 20
658.2170748513341
 30
0.0
 10
34.68854278165998
 20
658.0349554449019
 30
0.0
 10
33.63916080397414
 20
657.8364077778856
 30
0.0
 10
32.64872128443923
 20
657.6226583784388
 30
0.0
 10
31.71996663602198
 20
657.3949589002685
 30
0.0
 10
30.8552489180795
 20
657.1545785496666
 30
0.0
 10
30.0565364441114
 20
656.902796449403
 30
0.0
 10
29.32542227353902
 20
656.6408944854384
 30
0.0
 10
28.66313441008736
 20
656.3701505214493
 30
0.0
 10
28.0705475298467
 20
656.091832035518
 30
0.0
 10
27.54819606400618
 20
655.8071901831164
 30
0.0
 10
27.09628846433251
 20
655.517454298691
 30
0.0
 10
26.7147224836235
 20
655.22382684118
 30
0.0
 10
26.40310130846293
 20
654.9274787861359
 30
0.0
 10
26.16075038752626
 20
654.6295454636435
 30
0.0
 10
26.0054645064244
 20
654.3632427582876
 30
0.0
 10
25.93954238053546
 20
654.1963196954264
 30
0.0
 10
25.91810270763132
 20
654.1293465850058
 30
0.0
  0
SPLINE
  5
196
330
145
100
AcDbEntity
  8
DV2_Default
  6
Continuous
 62
     7
100
AcDbSpline
210
0.0
220
0.0
230
1.0
 70
     8
 71
     3
 72
     9
 73
     5
 74
     0
 42
0.0000003037158324
 43
0.0000000001
 40
0.0
 40
0.0
 40
0.0
 40
0.0
 40
0.8859881980089397
 40
1.0
 40
1.0
 40
1.0
 40
1.0
 10
46.13214217467196
 20
648.1450882579552
 30
0.0
 10
46.1337987613549
 20
648.130660218359
 30
0.0
 10
46.13397691280476
 20
648.114374422848
 30
0.0
 10
46.13417116230925
 20
648.1122897556087
 30
0.0
 10
46.13419326139869
 20
648.1122874776272
 30
0.0
  0
SPLINE
  5
197
330
145
100
AcDbEntity
  8
DV2_Default
  6
Continuous
 62
     7
100
AcDbSpline
210
0.0
220
0.0
230
1.0
 70
     8
 71
     3
 72
    22
 73
    18
 74
     0
 42
0.0000000004670879
 43
0.0000000001
 40
0.0
 40
0.0
 40
0.0
 40
0.0
 40
0.0177781719606549
 40
0.0818554152492293
 40
0.1468684483418807
 40
0.2128172283771785
 40
0.2797017116488562
 40
0.3475218536044311
 40
0.4162776088437815
 40
0.4859689311176495
 40
0.5565957733260865
 40
0.6281580875168437
 40
0.7006558248836995
 40
0.7740889357647264
 40
0.848457369640503
 40
0.9237610751322658
 40
1.0
 40
1.0
 40
1.0
 40
1.0
 10
66.35055759085895
 20
654.1304737039977
 30
0.0
 10
66.33575246118646
 20
654.1766054208387
 30
0.0
 10
66.25673427308197
 20
654.3887748770949
 30
0.0
 10
66.0254578251291
 20
654.7669169767149
 30
0.0
 10
65.53368797574554
 20
655.259168224861
 30
0.0
 10
64.84951485638315
 20
655.7435987475113
 30
0.0
 10
63.97170493606935
 20
656.2148093827577
 30
0.0
 10
62.90134234917874
 20
656.6671897107291
 30
0.0
 10
61.64201897977181
 20
657.0949810050905
 30
0.0
 10
60.20000202471288
 20
657.4923523279015
 30
0.0
 10
58.58437314491852
 20
657.8534703317055
 30
0.0
 10
56.80713321079008
 20
658.1726350862998
 30
0.0
 10
54.88326634388554
 20
658.4442038298413
 30
0.0
 10
52.83075800145601
 20
658.6633569923316
 30
0.0
 10
50.67055844140089
 20
658.8236896401971
 30
0.0
 10
48.42649720632303
 20
658.9269010596994
 30
0.0
 10
46.90164379077656
 20
658.9398827115084
 30
0.0
 10
46.13451184766548
 20
658.9460508157523
 30
0.0
  0
SPLINE
  5
198
330
145
100
AcDbEntity
  8
DV2_Default
  6
Continuous
 62
     7
100
AcDbSpline
210
0.0
220
0.0
230
1.0
 70
     8
 71
     3
 72
    14
 73
    10
 74
     0
 42
0.0000000005872394
 43
0.0000000001
 40
0.0
 40
0.0
 40
0.0
 40
0.0
 40
0.18171631686752
 40
0.18171631686752
 40
0.36343263373504
 40
0.36343263373504
 40
0.72686526747008
 40
0.72686526747008
 40
1.0
 40
1.0
 40
1.0
 40
1.0
 10
46.1345119277352
 20
660.1604796383187
 30
0.0
 10
44.88381564492018
 20
660.1604797241831
 30
0.0
 10
43.65090178313473
 20
660.128716732919
 30
0.0
 10
41.21969175939775
 20
660.0033563878056
 30
0.0
 10
40.01439760233422
 20
659.9084133261172
 30
0.0
 10
36.59162937400106
 20
659.5405394300686
 30
0.0
 10
34.48200219943744
 20
659.1748361794303
 30
0.0
 10
31.42957310430396
 20
658.3839138884701
 30
0.0
 10
30.30711317741967
 20
657.9907348783067
 30
0.0
 10
29.42939334771382
 20
657.5657175489017
 30
0.0
  0
SPLINE
  5
199
330
145
100
AcDbEntity
  8
DV2_Default
  6
Continuous
 62
     7
100
AcDbSpline
210
0.0
220
0.0
230
1.0
 70
     8
 71
     3
 72
    16
 73
    12
 74
     0
 42
0.0000000005870578
 43
0.0000000001
 40
0.0
 40
0.0
 40
0.0
 40
0.0
 40
0.091742485536511
 40
0.091742485536511
 40
0.2733939884292088
 40
0.2733939884292088
 40
0.6366969942146044
 40
0.6366969942146044
 40
0.8183484971073022
 40
0.8183484971073022
 40
1.0
 40
1.0
 40
1.0
 40
1.0
 10
62.84810267860971
 20
657.5624673922803
 30
0.0
 10
62.55548873107987
 20
657.7047727059673
 30
0.0
 10
62.23529576170861
 20
657.8434767915852
 30
0.0
 10
61.19836958158655
 20
658.2460121641454
 30
0.0
 10
60.4028238632449
 20
658.4969891159452
 30
0.0
 10
57.78865572849884
 20
659.1745258343378
 30
0.0
 10
55.67693388610739
 20
659.5404766153241
 30
0.0
 10
52.25905968422587
 20
659.9079912972003
 30
0.0
 10
51.05763133276499
 20
660.0028389937409
 30
0.0
 10
48.61985217415027
 20
660.1287155882617
 30
0.0
 10
47.38520821055022
 20
660.160479552454
 30
0.0
 10
46.1345119277352
 20
660.1604796383187
 30
0.0
  0
ELLIPSE
  5
19A
330
145
100
AcDbEntity
  8
DV2_Default
  6
Continuous
 62
     7
100
AcDbEllipse
 10
46.1345119277
 20
653.8040248414
 30
0.0
 11
10.05
 21
0.0
 31
0.0
210
0.0
220
0.0
230
1.0
 40
0.2588190451
 41
3.14358310394346
 42
6.281530009109515
  0
SPLINE
  5
19B
330
145
100
AcDbEntity
  8
DV2_Default
  6
Continuous
 62
     7
100
AcDbSpline
210
0.0
220
0.0
230
1.0
 70
     8
 71
     3
 72
    42
 73
    38
 74
     0
 42
0.0000000004420911
 43
0.0000000001
 40
0.0
 40
0.0
 40
0.0
 40
0.0
 40
0.0135791446011809
 40
0.0326753057816971
 40
0.0563333112006669
 40
0.0829473341597979
 40
0.1111314812176303
 40
0.1402274563957766
 40
0.1699359027759343
 40
0.2002597035471666
 40
0.2308284820773838
 40
0.2614768949638168
 40
0.2921701949876149
 40
0.3228879567026013
 40
0.3536189384422088
 40
0.3843570263183382
 40
0.4150976932544233
 40
0.4458374835781508
 40
0.4765735033427753
 40
0.5073030569895588
 40
0.5380233578455461
 40
0.5687312591738001
 40
0.5994229574124881
 40
0.6300936116229343
 40
0.6607367985414468
 40
0.6913436683885461
 40
0.7219015522873162
 40
0.7523915232450729
 40
0.7827838338005236
 40
0.8130286817068912
 40
0.8430355549763413
 40
0.8726204420316527
 40
0.9013425427207266
 40
0.9278083890647084
 40
0.948899781235919
 40
0.9679597400342802
 40
1.0
 40
1.0
 40
1.0
 40
1.0
 10
25.92143549862356
 20
654.1397423996616
 30
0.0
 10
25.89985473095
 20
654.0676965302022
 30
0.0
 10
25.85668600080064
 20
653.9212730212538
 30
0.0
 10
25.81831083141759
 20
653.69281002896
 30
0.0
 10
25.80853670174673
 20
653.4431782407238
 30
0.0
 10
25.84052538849756
 20
653.1793735155342
 30
0.0
 10
25.91966078575682
 20
652.9112378922497
 30
0.0
 10
26.04824192223992
 20
652.6427055008174
 30
0.0
 10
26.22752884566697
 20
652.375104039661
 30
0.0
 10
26.45846392963606
 20
652.1092513982115
 30
0.0
 10
26.74133870556059
 20
651.8461091270013
 30
0.0
 10
27.07431433756139
 20
651.5877011352329
 30
0.0
 10
27.45609136118313
 20
651.3348640252511
 30
0.0
 10
27.88558538056485
 20
651.0881333156121
 30
0.0
 10
28.36165750122924
 20
650.8480031021305
 30
0.0
 10
28.88308143084825
 20
650.6149664062959
 30
0.0
 10
29.44852846740596
 20
650.3895173441435
 30
0.0
 10
30.05655127271902
 20
650.1721530741085
 30
0.0
 10
30.70558284682279
 20
649.9633677007846
 30
0.0
 10
31.39393491737305
 20
649.7636477871038
 30
0.0
 10
32.11979676333004
 20
649.5734682527662
 30
0.0
 10
32.88123344353514
 20
649.3932888355763
 30
0.0
 10
33.67618232143841
 20
649.223551027127
 30
0.0
 10
34.50244618766321
 20
649.064675451873
 30
0.0
 10
35.35768013286912
 20
648.9170596603655
 30
0.0
 10
36.23936727582399
 20
648.7810763406927
 30
0.0
 10
37.1447730373793
 20
648.6570720515513
 30
0.0
 10
38.07085981378395
 20
648.5453666425905
 30
0.0
 10
39.014108351823
 20
648.4462543189991
 30
0.0
 10
39.97015954889272
 20
648.3600070984019
 30
0.0
 10
40.93283506684938
 20
648.286890655114
 30
0.0
 10
41.89175691359794
 20
648.2272004657436
 30
0.0
 10
42.82133409252673
 20
648.1815027701866
 30
0.0
 10
43.66541619004155
 20
648.1502854540137
 30
0.0
 10
44.40210055688972
 20
648.1307083184619
 30
0.0
 10
45.21772897669342
 20
648.1158390632388
 30
0.0
 10
45.7428086848845
 20
648.1135954716347
 30
0.0
 10
46.13607881862048
 20
648.112216537605
 30
0.0
  0
SPLINE
  5
19C
330
145
100
AcDbEntity
  8
DV2_Default
  6
Continuous
 62
     7
100
AcDbSpline
210
0.0
220
0.0
230
1.0
 70
     8
 71
     3
 72
    45
 73
    41
 74
     0
 42
0.0000000004421137
 43
0.0000000001
 40
0.0
 40
0.0
 40
0.0
 40
0.0
 40
0.0328124881635063
 40
0.0463638390288352
 40
0.0688123655533829
 40
0.0921317010811304
 40
0.1171390307852657
 40
0.1432118953998218
 40
0.1700966117836317
 40
0.1975905747075277
 40
0.2255495490791058
 40
0.2538664686668131
 40
0.282460297780355
 40
0.3112683981911298
 40
0.3402413981441794
 40
0.3693396604197089
 40
0.3985308059411588
 40
0.4277879461116236
 40
0.4570884000800228
 40
0.4864127497374504
 40
0.5157441335683324
 40
0.5450677111427142
 40
0.5743702491771912
 40
0.6036397912330478
 40
0.632865377873383
 40
0.6620367827332987
 40
0.69114422145823
 40
0.7201779724044007
 40
0.7491278165560968
 40
0.7779782307559866
 40
0.8067121593053264
 40
0.8351886480044797
 40
0.8622634430043369
 40
0.8886193850345128
 40
0.9141385866623101
 40
0.9384098327127636
 40
0.9607728537115791
 40
0.9802795534760831
 40
0.9960202757707001
 40
1.0
 40
1.0
 40
1.0
 40
1.0
 10
46.13294446174295
 20
648.1122166070039
 30
0.0
 10
46.53569609167499
 20
648.113662189037
 30
0.0
 10
47.01010843193866
 20
648.1156677083815
 30
0.0
 10
47.78492308196238
 20
648.1290917080657
 30
0.0
 10
48.44145705843749
 20
648.1453782039472
 30
0.0
 10
49.22533103876032
 20
648.1726735566418
 30
0.0
 10
50.04319501444638
 20
648.2098371785761
 30
0.0
 10
50.89351922758932
 20
648.2581587142205
 30
0.0
 10
51.7616632807939
 20
648.3179431887236
 30
0.0
 10
52.63873711246698
 20
648.3894406868393
 30
0.0
 10
53.51732796225778
 20
648.4727296765442
 30
0.0
 10
54.3914312197192
 20
648.5677796123758
 30
0.0
 10
55.25597726653605
 20
648.6744693195972
 30
0.0
 10
56.10659832922775
 20
648.7926041092268
 30
0.0
 10
56.93945862399612
 20
648.9219275040015
 30
0.0
 10
57.75114466404648
 20
649.0621304031974
 30
0.0
 10
58.53858990381122
 20
649.2128584047188
 30
0.0
 10
59.29902340093562
 20
649.373718014473
 30
0.0
 10
60.0299342415298
 20
649.5442821759748
 30
0.0
 10
60.72904674384803
 20
649.7240954509778
 30
0.0
 10
61.39430296048399
 20
649.9126791009504
 30
0.0
 10
62.02385008916494
 20
650.1095362769664
 30
0.0
 10
62.61603104657605
 20
650.3141575067799
 30
0.0
 10
63.16937684534317
 20
650.5260266407073
 30
0.0
 10
63.68259966801568
 20
650.7446274678268
 30
0.0
 10
64.1545854642215
 20
650.9694509748272
 30
0.0
 10
64.584385447685
 20
651.2000039906619
 30
0.0
 10
64.97120370279441
 20
651.4358168018721
 30
0.0
 10
65.31437032569978
 20
651.6764475589716
 30
0.0
 10
65.61332224817153
 20
651.9214736529808
 30
0.0
 10
65.86728701006511
 20
652.1702321702417
 30
0.0
 10
66.07297762275552
 20
652.4185840215725
 30
0.0
 10
66.23213024473215
 20
652.6653691282595
 30
0.0
 10
66.34716770948673
 20
652.9093789642177
 30
0.0
 10
66.42125182515649
 20
653.1524282987333
 30
0.0
 10
66.4565148390018
 20
653.3926046385211
 30
0.0
 10
66.45610493303006
 20
653.6275157530823
 30
0.0
 10
66.42683183915932
 20
653.8483657378118
 30
0.0
 10
66.38374041821645
 20
654.0248209830754
 30
0.0
 10
66.35454024442046
 20
654.117752404486
 30
0.0
 10
66.34759676030293
 20
654.1397162748771
 30
0.0
  0
ARC
  5
19D
330
145
100
AcDbEntity
  8
DV2_Default
  6
Continuous
 62
     7
100
AcDbCircle
 10
31.6291256734
 20
651.8113663651
 30
0.0
 40
6.162537145981234
100
AcDbArc
 50
110.776066868
 51
158.1351914336
  0
ARC
  5
19E
330
145
100
AcDbEntity
  8
DV2_Default
  6
Continuous
 62
     7
100
AcDbCircle
 10
60.6359852765
 20
651.8073872055
 30
0.0
 40
6.167642866813851
100
AcDbArc
 50
21.8856074024
 51
69.203134296
  0
ARC
  5
19F
330
145
100
AcDbEntity
  8
DV2_Default
  6
Continuous
 62
     7
100
AcDbCircle
 10
18.3616427141
 20
661.4327815559
 30
0.0
 40
10.55977435775759
100
AcDbArc
 50
332.1492289148
 51
351.210579207
  0
ARC
  5
1A0
330
145
100
AcDbEntity
  8
DV2_Default
  6
Continuous
 62
     7
100
AcDbCircle
 10
73.8488097641
 20
661.4070485978
 30
0.0
 40
10.49727342240215
100
AcDbArc
 50
188.6986725023
 51
207.8458906747
  0
SPLINE
  5
1A1
330
145
100
AcDbEntity
  8
DV2_Default
  6
Continuous
 62
     7
100
AcDbSpline
210
0.0
220
0.0
230
1.0
 70
     8
 71
     3
 72
    41
 73
    37
 74
     0
 42
0.0000000005326702
 43
0.0000000001
 40
0.0
 40
0.0
 40
0.0
 40
0.0
 40
0.0402321561324484
 40
0.0561809061699076
 40
0.0826835247977984
 40
0.1101221538065705
 40
0.1394918234402727
 40
0.1700824123917033
 40
0.2016069075693128
 40
0.233835268674361
 40
0.2666030367366445
 40
0.2997874672168278
 40
0.3332949431373047
 40
0.3670523184585757
 40
0.4010010562039383
 40
0.4350931458070718
 40
0.4692881843113876
 40
0.5035512244533051
 40
0.53785112766586
 40
0.5721592417592855
 40
0.6064482709319251
 40
0.6406912301861897
 40
0.6748603814131886
 40
0.7089260331043382
 40
0.7428550415138191
 40
0.776608757330611
 40
0.8101399719150505
 40
0.8428038835611512
 40
0.8733394433653815
 40
0.903249976692887
 40
0.9318471662463583
 40
0.9579987237121389
 40
0.9791606987304667
 40
0.9915540726858844
 40
0.9976315148807798
 40
1.0
 40
1.0
 40
1.0
 40
1.0
 10
46.13566974020772
 20
664.4886916077809
 30
0.0
 10
45.74619821735376
 20
664.487084831726
 30
0.0
 10
45.29296244904634
 20
664.484893113502
 30
0.0
 10
44.55932892403754
 20
664.4704576071176
 30
0.0
 10
43.94984847953162
 20
664.4534539358777
 30
0.0
 10
43.22361611588492
 20
664.4251829024348
 30
0.0
 10
42.46839163333454
 20
664.3869570590673
 30
0.0
 10
41.68542610704787
 20
664.3374960510515
 30
0.0
 10
40.8882764505756
 20
664.2765248626432
 30
0.0
 10
40.08534106344949
 20
664.2038218233006
 30
0.0
 10
39.28370941330027
 20
664.1193394739715
 30
0.0
 10
38.48921310225938
 20
664.0231434137324
 30
0.0
 10
37.70683995506742
 20
663.9153948190666
 30
0.0
 10
36.94093588725988
 20
663.7963339010215
 30
0.0
 10
36.19535116071976
 20
663.6662685154777
 30
0.0
 10
35.47353348994361
 20
663.5255651563834
 30
0.0
 10
34.77859076590515
 20
663.3746416504349
 30
0.0
 10
34.11333240420707
 20
663.2139608295972
 30
0.0
 10
33.48029652004885
 20
663.0440247302611
 30
0.0
 10
32.88176722542264
 20
662.8653689441599
 30
0.0
 10
32.31978498407771
 20
662.6785567634955
 30
0.0
 10
31.79615200052348
 20
662.4841728163206
 30
0.0
 10
31.31243390306751
 20
662.2828155219414
 30
0.0
 10
30.86995907885644
 20
662.0750886330645
 30
0.0
 10
30.46981515495623
 20
661.8615879150109
 30
0.0
 10
30.11284851248188
 20
661.6428936018818
 30
0.0
 10
29.80146940569349
 20
661.4208218652469
 30
0.0
 10
29.53997495660026
 20
661.2000498481041
 30
0.0
 10
29.32411477695127
 20
660.9804810131116
 30
0.0
 10
29.15049858709629
 20
660.7622250747132
 30
0.0
 10
29.01525430195027
 20
660.5433357288193
 30
0.0
 10
28.91853680693218
 20
660.3306404666765
 30
0.0
 10
28.85836110217747
 20
660.140226979417
 30
0.0
 10
28.82510988088412
 20
659.9867094554563
 30
0.0
 10
28.80794423340129
 20
659.8817517539517
 30
0.0
 10
28.80044384620222
 20
659.8268341329164
 30
0.0
 10
28.79799778507653
 20
659.8088317497417
 30
0.0
  0
SPLINE
  5
1A2
330
145
100
AcDbEntity
  8
DV2_Default
  6
Continuous
 62
     7
100
AcDbSpline
210
0.0
220
0.0
230
1.0
 70
     8
 71
     3
 72
    39
 73
    35
 74
     0
 42
0.000000000532648
 43
0.0000000001
 40
0.0
 40
0.0
 40
0.0
 40
0.0
 40
0.0043476450883516
 40
0.0121276054650278
 40
0.0271830615007317
 40
0.0545461863743943
 40
0.0867229456416269
 40
0.1196760883421064
 40
0.153539149697137
 40
0.188486999429885
 40
0.2242145159274024
 40
0.2601343259822274
 40
0.2960899615528291
 40
0.3320633553309762
 40
0.3680421877003641
 40
0.4040180519487275
 40
0.4399846856817259
 40
0.4759368486475734
 40
0.5118695258224443
 40
0.5477772581184917
 40
0.5836534480679206
 40
0.6194894796630641
 40
0.6552734214491986
 40
0.6909879039762851
 40
0.7266063472742224
 40
0.7620856997535576
 40
0.7973511345582325
 40
0.8322598834786828
 40
0.8665013722722907
 40
0.8992487963196696
 40
0.9286611481538587
 40
0.9499556234629198
 40
0.9737333328741601
 40
1.0
 40
1.0
 40
1.0
 40
1.0
 10
63.471023918727
 20
659.8088478699643
 30
0.0
 10
63.46667778161652
 20
659.8402000026238
 30
0.0
 10
63.45623800069697
 20
659.9148963548217
 30
0.0
 10
63.43419995177518
 20
660.0362276424188
 30
0.0
 10
63.38973851463395
 20
660.2177697366574
 30
0.0
 10
63.3068809442541
 20
660.4392080892543
 30
0.0
 10
63.17214192206362
 20
660.685391402665
 30
0.0
 10
62.98932755660168
 20
660.9310463368242
 30
0.0
 10
62.76000330095538
 20
661.1724465127926
 30
0.0
 10
62.4806258963204
 20
661.4115551667728
 30
0.0
 10
62.14889409526428
 20
661.6484337023501
 30
0.0
 10
61.76688207774617
 20
661.880560351179
 30
0.0
 10
61.33761130455531
 20
662.1060509830141
 30
0.0
 10
60.8628002950753
 20
662.3241935248739
 30
0.0
 10
60.34386855019387
 20
662.5345147475604
 30
0.0
 10
59.78238329190386
 20
662.7365204862539
 30
0.0
 10
59.18005812896345
 20
662.929709588834
 30
0.0
 10
58.53875323733278
 20
663.113582780767
 30
0.0
 10
57.8604766887976
 20
663.2876498608163
 30
0.0
 10
57.14738749867309
 20
663.4514354414745
 30
0.0
 10
56.40180261880759
 20
663.6044835807984
 30
0.0
 10
55.62621124562605
 20
663.7463614970627
 30
0.0
 10
54.82330250988682
 20
663.8766624736076
 30
0.0
 10
53.99601955056933
 20
663.9950078891387
 30
0.0
 10
53.14766427648856
 20
664.1010481217224
 30
0.0
 10
52.2821247085884
 20
664.1944610720547
 30
0.0
 10
51.40436073682615
 20
664.2749461941121
 30
0.0
 10
50.5217962114279
 20
664.3421999417355
 30
0.0
 10
49.64828436727254
 20
664.3958380383319
 30
0.0
 10
48.81347853597381
 20
664.4354405750311
 30
0.0
 10
48.08403587647485
 20
664.4607439359479
 30
0.0
 10
47.43416706209106
 20
664.4766080635122
 30
0.0
 10
46.79535163794215
 20
664.4865899535623
 30
0.0
 10
46.38764347429684
 20
664.487997579598
 30
0.0
 10
46.13335409523521
 20
664.488691658986
 30
0.0
  0
SPLINE
  5
1A3
330
145
100
AcDbEntity
  8
DV2_Default
  6
Continuous
 62
     7
100
AcDbSpline
210
0.0
220
0.0
230
1.0
 70
     8
 71
     3
 72
    29
 73
    25
 74
     0
 42
0.0000000009599111
 43
0.0000000001
 40
0.0
 40
0.0
 40
0.0
 40
0.0
 40
0.0241199574365251
 40
0.0716446645762501
 40
0.115400506101907
 40
0.1621419123889625
 40
0.2068807219082164
 40
0.2514928572449195
 40
0.2965460514812754
 40
0.3422403439814697
 40
0.3885478784624206
 40
0.4353730669385883
 40
0.4826120189184515
 40
0.5301734380005811
 40
0.5779835266380176
 40
0.6259847943471115
 40
0.6741330809016302
 40
0.7223945003065841
 40
0.770742857274196
 40
0.8191576236449428
 40
0.867622402801774
 40
0.9161237738355729
 40
0.9646504144006164
 40
1.0
 40
1.0
 40
1.0
 40
1.0
 10
36.0873181340969
 20
653.802143363602
 30
0.0
 10
36.08631033358608
 20
653.8131810408312
 30
0.0
 10
36.08461288998014
 20
653.8418643682455
 30
0.0
 10
36.10194674737812
 20
653.9011747140306
 30
0.0
 10
36.15690145715324
 20
654.0032192701517
 30
0.0
 10
36.26357263771758
 20
654.1305231892756
 30
0.0
 10
36.42923104692892
 20
654.2758023712721
 30
0.0
 10
36.64904318567273
 20
654.4278658199327
 30
0.0
 10
36.92478212502551
 20
654.584024232991
 30
0.0
 10
37.25665863439654
 20
654.7413081151152
 30
0.0
 10
37.64367488372449
 20
654.8969698706939
 30
0.0
 10
38.08372827551732
 20
655.0485393864392
 30
0.0
 10
38.5739960698031
 20
655.1939082066875
 30
0.0
 10
39.11118918157697
 20
655.3313100419316
 30
0.0
 10
39.69170635402926
 20
655.4592707960632
 30
0.0
 10
40.31171818006041
 20
655.5765572729083
 30
0.0
 10
40.96723327571818
 20
655.6821354789668
 30
0.0
 10
41.65406620337005
 20
655.7751361668695
 30
0.0
 10
42.36808927251127
 20
655.8548421953897
 30
0.0
 10
43.10438430952109
 20
655.9206358677984
 30
0.0
 10
43.86049551870144
 20
655.9721275574947
 30
0.0
 10
44.62435125804443
 20
656.0086292809103
 30
0.0
 10
45.34741334493248
 20
656.0290557626272
 30
0.0
 10
45.76641869806078
 20
656.0326855521195
 30
0.0
 10
45.97508021969923
 20
656.0342500857745
 30
0.0
  0
SPLINE
  5
1A4
330
145
100
AcDbEntity
  8
DV2_Default
  6
Continuous
 62
     7
100
AcDbSpline
210
0.0
220
0.0
230
1.0
 70
     8
 71
     3
 72
    29
 73
    25
 74
     0
 42
0.0000000009314776
 43
0.0000000001
 40
0.0
 40
0.0
 40
0.0
 40
0.0
 40
0.0250308678941336
 40
0.0726397169889435
 40
0.1202496869800525
 40
0.1678437568502482
 40
0.2154125028712598
 40
0.2629452824386875
 40
0.3104296194293121
 40
0.3578504279878649
 40
0.4051889953837385
 40
0.4524216276874859
 40
0.4995178425922258
 40
0.5464379946315829
 40
0.5931302912151328
 40
0.6395274360627752
 40
0.6855439388373427
 40
0.731077174185035
 40
0.776020048869465
 40
0.8203034668483139
 40
0.8640081543894379
 40
0.9075773724058404
 40
0.9519458780899253
 40
1.0
 40
1.0
 40
1.0
 40
1.0
 10
45.97508021969923
 20
656.0342500857745
 30
0.0
 10
46.12578636562738
 20
656.0344622194087
 30
0.0
 10
46.49735414331422
 20
656.0346370679963
 30
0.0
 10
47.17151538318299
 20
656.0237298848056
 30
0.0
 10
47.94119989400981
 20
655.9962629058354
 30
0.0
 10
48.7069527692875
 20
655.9537001827666
 30
0.0
 10
49.45566636202696
 20
655.8965312921059
 30
0.0
 10
50.18512435943482
 20
655.8250900241504
 30
0.0
 10
50.89031188029126
 20
655.7398874833968
 30
0.0
 10
51.5670904395512
 20
655.641529927002
 30
0.0
 10
52.21123353888323
 20
655.530751412196
 30
0.0
 10
52.81870152533739
 20
655.4084219865084
 30
0.0
 10
53.38558291234562
 20
655.2755721056003
 30
0.0
 10
53.9081246330055
 20
655.133427661911
 30
0.0
 10
54.38274295788055
 20
654.9834649231451
 30
0.0
 10
54.80605441813541
 20
654.8274945815647
 30
0.0
 10
55.17493915292822
 20
654.6677862648589
 30
0.0
 10
55.48667449622726
 20
654.5072505767215
 30
0.0
 10
55.73921626349668
 20
654.3496632184955
 30
0.0
 10
55.9317015198793
 20
654.1999536588013
 30
0.0
 10
56.06539071865502
 20
654.0642211019488
 30
0.0
 10
56.1445724381899
 20
653.9501655704225
 30
0.0
 10
56.18026420796208
 20
653.8622918770396
 30
0.0
 10
56.18373836563448
 20
653.8248753482958
 30
0.0
 10
56.18441885704841
 20
653.8027727884587
 30
0.0
  0
ARC
  5
1A5
330
145
100
AcDbEntity
  8
DV2_Default
  6
Continuous
 62
     7
100
AcDbCircle
 10
46.1346321746
 20
1117.975700883
 30
0.0
 40
403.0744173659991
100
AcDbArc
 50
266.7846153589
 51
266.7972579452
  0
ARC
  5
1A6
330
145
100
AcDbEntity
  8
DV2_Default
  6
Continuous
 62
     7
100
AcDbCircle
 10
46.1346321746
 20
1117.975700883
 30
0.0
 40
403.0744173659991
100
AcDbArc
 50
266.7972579452
 51
273.2149348706
  0
SPLINE
  5
1A7
330
145
100
AcDbEntity
  8
DV2_Default
  6
Continuous
 62
     7
100
AcDbSpline
210
0.0
220
0.0
230
1.0
 70
     8
 71
     3
 72
    19
 73
    15
 74
     0
 42
0.0000000009688214
 43
0.0000000001
 40
0.0
 40
0.0
 40
0.0
 40
0.0
 40
0.0314821001316716
 40
0.1291112344340419
 40
0.1771257494734868
 40
0.2246217639010098
 40
0.3180800507784615
 40
0.50006015073211
 40
0.6820277349501236
 40
0.7755095026407807
 40
0.870954837394281
 40
0.9265280715313475
 40
0.9828332372304567
 40
1.0
 40
1.0
 40
1.0
 40
1.0
 10
41.86606704938923
 20
730.5692977914177
 30
0.0
 10
41.9222507663392
 20
730.4782875560185
 30
0.0
 10
42.16388043165907
 20
730.1121147851611
 30
0.0
 10
42.55683511442972
 20
729.6534054759574
 30
0.0
 10
43.05135507115727
 20
729.2227920246971
 30
0.0
 10
43.57429803768377
 20
728.8496028711727
 30
0.0
 10
44.5560235679737
 20
728.3423681445018
 30
0.0
 10
46.13421186302125
 20
728.0356370624476
 30
0.0
 10
47.7127756711386
 20
728.3423943536105
 30
0.0
 10
48.83991062218237
 20
728.9244037510506
 30
0.0
 10
49.49504843850395
 20
729.4421583093684
 30
0.0
 10
49.97489622037137
 20
729.956877083412
 30
0.0
 10
50.23679095797334
 20
730.3081719430684
 30
0.0
 10
50.3713510678082
 20
730.5181790966313
 30
0.0
 10
50.40198390782037
 20
730.5677651231488
 30
0.0
  0
ARC
  5
1A8
330
145
100
AcDbEntity
  8
DV2_Default
  6
Continuous
 62
     7
100
AcDbCircle
 10
26.177814392
 20
743.9826047729
 30
0.0
 40
0.6812316758236258
100
AcDbArc
 50
100.578993707
 51
179.1617738501
  0
ARC
  5
1A9
330
145
100
AcDbEntity
  8
DV2_Default
  6
Continuous
 62
     7
100
AcDbCircle
 10
66.0893945609
 20
743.983566246
 30
0.0
 40
0.6804882306528813
100
AcDbArc
 50
0.7460690812
 51
79.2457255654
  0
ARC
  5
1AA
330
145
100
AcDbEntity
  8
DV2_Default
  6
Continuous
 62
     7
100
AcDbCircle
 10
46.1359416705
 20
1103.6870492598
 30
0.0
 40
359.5960463098705
100
AcDbArc
 50
271.407861221
 51
273.2011550085
  0
ARC
  5
1AB
330
145
100
AcDbEntity
  8
DV2_Default
  6
Continuous
 62
     7
100
AcDbCircle
 10
46.1359416705
 20
1103.6870492598
 30
0.0
 40
359.5960463098705
100
AcDbArc
 50
266.7984037319
 51
268.5917344178
  0
ARC
  5
1AC
330
145
100
AcDbEntity
  8
DV2_Default
  6
Continuous
 62
     7
100
AcDbCircle
 10
46.1627586665
 20
1025.3054191107
 30
0.0
 40
280.4535625078405
100
AcDbArc
 50
271.8510504072
 51
273.3212460906
  0
ARC
  5
1AD
330
145
100
AcDbEntity
  8
DV2_Default
  6
Continuous
 62
     7
100
AcDbCircle
 10
46.1627586665
 20
1025.3054191107
 30
0.0
 40
280.4535625078405
100
AcDbArc
 50
266.6669486956
 51
268.1373698364
  0
ARC
  5
1AE
330
145
100
AcDbEntity
  8
DV2_Default
  6
Continuous
 62
     7
100
AcDbCircle
 10
46.1331845151
 20
387.6760437836
 30
0.0
 40
357.5405446358194
100
AcDbArc
 50
93.1857670309
 51
93.2195790696
  0
ARC
  5
1AF
330
145
100
AcDbEntity
  8
DV2_Default
  6
Continuous
 62
     7
100
AcDbCircle
 10
46.1331845151
 20
387.6760437836
 30
0.0
 40
357.5405446358194
100
AcDbArc
 50
86.7799796708
 51
86.8139727903
  0
ARC
  5
1B0
330
145
100
AcDbEntity
  8
DV2_Default
  6
Continuous
 62
     7
100
AcDbCircle
 10
46.1393304846
 20
1029.0229271504
 30
0.0
 40
282.5785068610199
100
AcDbArc
 50
271.9078457413
 51
273.2141358685
  0
ARC
  5
1B1
330
145
100
AcDbEntity
  8
DV2_Default
  6
Continuous
 62
     7
100
AcDbCircle
 10
46.1393304846
 20
1029.0229271504
 30
0.0
 40
282.5785068610199
100
AcDbArc
 50
266.7839347873
 51
268.0903931678
  0
LINE
  5
1B2
330
145
100
AcDbEntity
  8
DV2_Default
  6
Continuous
 62
     7
100
AcDbLine
 10
61.9646452673
 20
747.0211495687
 30
0.0
 11
61.9831403844
 21
746.8889281694
 31
0.0
  0
ARC
  5
1B3
330
145
100
AcDbEntity
  8
DV2_Default
  6
Continuous
 62
     7
100
AcDbCircle
 10
61.4814052002
 20
746.8832730451
 30
0.0
 40
0.502966085612863
100
AcDbArc
 50
15.9242407228
 51
52.3787922887
  0
LINE
  5
1B4
330
145
100
AcDbEntity
  8
DV2_Default
  6
Continuous
 62
     7
100
AcDbLine
 10
61.7239175321
 20
747.3244433255
 30
0.0
 11
61.7887164778
 21
747.2820187439
 31
0.0
  0
ARC
  5
1B5
330
145
100
AcDbEntity
  8
DV2_Default
  6
Continuous
 62
     7
100
AcDbCircle
 10
30.7768450705
 20
746.8961138348
 30
0.0
 40
0.4906254949667428
100
AcDbArc
 50
118.4480948917
 51
180.7769744703
  0
ARC
  5
1B6
330
145
100
AcDbEntity
  8
DV2_Default
  6
Continuous
 62
     7
100
AcDbCircle
 10
46.1293937237
 20
571.2310927311
 30
0.0
 40
178.2135984812824
100
AcDbArc
 50
93.5305521075
 51
93.5311278364
  0
ARC
  5
1B7
330
145
100
AcDbEntity
  8
DV2_Default
  6
Continuous
 62
     7
100
AcDbCircle
 10
46.1373057981
 20
927.6214689773
 30
0.0
 40
178.8527356322532
100
AcDbArc
 50
266.478967263
 51
266.9693480732
  0
ARC
  5
1B8
330
145
100
AcDbEntity
  8
DV2_Default
  6
Continuous
 62
     7
100
AcDbCircle
 10
46.1373057981
 20
927.6214689773
 30
0.0
 40
178.8527356322532
100
AcDbArc
 50
273.0286724017
 51
273.5184887375
  0
SPLINE
  5
1B9
330
145
100
AcDbEntity
  8
DV2_Default
  6
Continuous
 62
     7
100
AcDbSpline
210
0.0
220
0.0
230
1.0
 70
    12
 71
     3
 72
    11
 73
     7
 74
     0
 42
0.0000000259935081
 43
0.0000000001
 40
0.0
 40
0.0
 40
0.0
 40
0.0
 40
0.2499996269579
 40
0.4999989034105
 40
0.7499981798631
 40
1.0
 40
1.0
 40
1.0
 40
1.0
 10
57.11360975471518
 20
749.1058623917985
 30
0.0
 41
1.0
 10
57.10064131562518
 20
749.1282758377691
 30
0.0
 41
1.0
 10
57.07267183500517
 20
749.1873831136367
 30
0.0
 41
1.0
 10
57.01839376053518
 20
749.2593575473876
 30
0.0
 41
1.0
 10
56.93798052758518
 20
749.3035151126686
 30
0.0
 41
1.0
 10
56.86709731617518
 20
749.3252522697428
 30
0.0
 41
1.0
 10
56.83132228429518
 20
749.3361499004687
 30
0.0
 41
1.0
  0
SPLINE
  5
1BA
330
145
100
AcDbEntity
  8
DV2_Default
  6
Continuous
 62
     7
100
AcDbSpline
210
0.0
220
0.0
230
1.0
 70
     8
 71
     3
 72
    11
 73
     7
 74
     0
 42
0.0000000259264022
 43
0.0000000001
 40
0.0
 40
0.0
 40
0.0
 40
0.0
 40
0.2497342112323854
 40
0.4999009272450723
 40
0.7500676432577591
 40
1.0
 40
1.0
 40
1.0
 40
1.0
 10
35.43702426262518
 20
749.3359455434443
 30
0.0
 10
35.40133698307093
 20
749.3250727794311
 30
0.0
 10
35.32924898701259
 20
749.3031758788375
 30
0.0
 10
35.24958938966702
 20
749.2584736158974
 30
0.0
 10
35.19159585147329
 20
749.1890171623545
 30
0.0
 10
35.16494469192441
 20
749.1293639627633
 30
0.0
 10
35.15307555092517
 20
749.1063499284785
 30
0.0
  0
ARC
  5
1BB
330
145
100
AcDbEntity
  8
DV2_Default
  6
Continuous
 62
     7
100
AcDbCircle
 10
45.9811031726
 20
713.8647439891
 30
0.0
 40
37.0051853092254
100
AcDbArc
 50
104.4181575644
 51
106.5549736569
  0
ARC
  5
1BC
330
145
100
AcDbEntity
  8
DV2_Default
  6
Continuous
 62
     7
100
AcDbCircle
 10
22.5083218773
 20
715.6574974395
 30
0.0
 40
1.025273592143731
100
AcDbArc
 50
282.0762636201
 51
353.1676724758
  0
ARC
  5
1BD
330
145
100
AcDbEntity
  8
DV2_Default
  6
Continuous
 62
     7
100
AcDbCircle
 10
46.1401555249
 20
1101.8651124723
 30
0.0
 40
387.9176586834511
100
AcDbArc
 50
266.5391352131
 51
273.459307793
  0
ARC
  5
1BE
330
145
100
AcDbEntity
  8
DV2_Default
  6
Continuous
 62
     7
100
AcDbCircle
 10
69.7593042158
 20
715.6590796974
 30
0.0
 40
1.026993755475193
100
AcDbArc
 50
209.3102029377
 51
258.0676136262
  0
ARC
  5
1BF
330
145
100
AcDbEntity
  8
DV2_Default
  6
Continuous
 62
     7
100
AcDbCircle
 10
69.7593042158
 20
715.6590796974
 30
0.0
 40
1.026993755475193
100
AcDbArc
 50
186.9027923552
 51
209.3102029377
  0
ARC
  5
1C0
330
145
100
AcDbEntity
  8
DV2_Default
  6
Continuous
 62
     7
100
AcDbCircle
 10
46.1352388711
 20
1153.8021397357
 30
0.0
 40
443.8597122994007
100
AcDbArc
 50
266.7948238016
 51
273.2104553399
  0
ARC
  5
1C1
330
145
100
AcDbEntity
  8
DV2_Default
  6
Continuous
 62
     7
100
AcDbCircle
 10
45.9829202127
 20
735.4906088597
 30
0.0
 40
4.918456011403921
100
AcDbArc
 50
164.7559272311
 51
271.7663692677
  0
ARC
  5
1C2
330
145
100
AcDbEntity
  8
DV2_Default
  6
Continuous
 62
     7
100
AcDbCircle
 10
46.2893585774
 20
735.4906096886
 30
0.0
 40
4.918557292423318
100
AcDbArc
 50
268.1960853964
 51
15.1989652425
  0
ARC
  5
1C3
330
145
100
AcDbEntity
  8
DV2_Default
  6
Continuous
 62
     7
100
AcDbCircle
 10
46.2356637132
 20
735.5899627254
 30
0.0
 40
4.721495905618523
100
AcDbArc
 50
268.7723369289
 51
2.247808606
  0
ARC
  5
1C4
330
145
100
AcDbEntity
  8
DV2_Default
  6
Continuous
 62
     7
100
AcDbCircle
 10
46.0313955419
 20
735.5909809911
 30
0.0
 40
4.720520973471973
100
AcDbArc
 50
177.7649759364
 51
270.140826429
  0
ARC
  5
1C5
330
145
100
AcDbEntity
  8
DV2_Default
  6
Continuous
 62
     7
100
AcDbCircle
 10
45.9552837467
 20
751.1782760189
 30
0.0
 40
5.657638555862427
100
AcDbArc
 50
88.1846248036
 51
270.7045573628
  0
ARC
  5
1C6
330
145
100
AcDbEntity
  8
DV2_Default
  6
Continuous
 62
     7
100
AcDbCircle
 10
46.0233398261
 20
752.026325741
 30
0.0
 40
3.626114055781077
100
AcDbArc
 50
88.2430906196
 51
271.7568655546
  0
ARC
  5
1C7
330
145
100
AcDbEntity
  8
DV2_Default
  6
Continuous
 62
     7
100
AcDbCircle
 10
46.2455763845
 20
752.026325656
 30
0.0
 40
3.626110774418104
100
AcDbArc
 50
268.2447817901
 51
91.7551743841
  0
ARC
  5
1C8
330
145
100
AcDbEntity
  8
DV2_Default
  6
Continuous
 62
     7
100
AcDbCircle
 10
46.3136270251
 20
751.1764742369
 30
0.0
 40
5.659435853725419
100
AcDbArc
 50
268.1863468535
 51
91.81365306
  0
ARC
  5
1C9
330
145
100
AcDbEntity
  8
DV2_Default
  6
Continuous
 62
     7
100
AcDbCircle
 10
511.0246232287
 20
760.5107971052
 30
0.0
 40
444.5584990419291
100
AcDbArc
 50
182.1293151202
 51
185.8060740618
  0
ARC
  5
1CA
330
145
100
AcDbEntity
  8
DV2_Default
  6
Continuous
 62
     7
100
AcDbCircle
 10
-417.992223742
 20
760.3681908494
 30
0.0
 40
443.787249671499
100
AcDbArc
 50
354.202193693
 51
357.8854114301
  0
ARC
  5
1CB
330
145
100
AcDbEntity
  8
DV2_Default
  6
Continuous
 62
     7
100
AcDbCircle
 10
46.134509408
 20
642.2934944633
 30
0.0
 40
104.3475870335
100
AcDbArc
 50
79.0244602091
 51
81.127377332
  0
ARC
  5
1CC
330
145
100
AcDbEntity
  8
DV2_Default
  6
Continuous
 62
     7
100
AcDbCircle
 10
46.134509408
 20
642.2934944633
 30
0.0
 40
104.3475870335
100
AcDbArc
 50
98.8944199038
 51
100.9676804018
  0
SPLINE
  5
1CD
330
145
100
AcDbEntity
  8
DV2_Default
  6
Continuous
 62
     7
100
AcDbSpline
210
0.0
220
0.0
230
1.0
 70
     8
 71
     3
 72
    15
 73
    11
 74
     0
 42
0.0000000175724144
 43
0.0000000001
 40
0.0
 40
0.0
 40
0.0
 40
0.0
 40
0.0681174548125736
 40
0.2797447314592356
 40
0.4453718719104791
 40
0.578358180626632
 40
0.6942149028271484
 40
0.8077581560851299
 40
0.930890716809592
 40
1.0
 40
1.0
 40
1.0
 40
1.0
 10
62.27122710283352
 20
745.3764263729179
 30
0.0
 10
62.27135618040749
 20
745.3763919835845
 30
0.0
 10
62.27041567748266
 20
745.3766840248626
 30
0.0
 10
62.25828605819444
 20
745.3805628322663
 30
0.0
 10
62.21833469295236
 20
745.3991958019841
 30
0.0
 10
62.16141717974334
 20
745.4363102749303
 30
0.0
 10
62.09375749086229
 20
745.5001261322243
 30
0.0
 10
62.02668278654115
 20
745.5987284408075
 30
0.0
 10
61.98693547991349
 20
745.7179154259356
 30
0.0
 10
61.98419257568124
 20
745.791671017386
 30
0.0
 10
61.9833055449181
 20
745.823140074922
 30
0.0
  0
SPLINE
  5
1CE
330
145
100
AcDbEntity
  8
DV2_Default
  6
Continuous
 62
     7
100
AcDbSpline
210
0.0
220
0.0
230
1.0
 70
     8
 71
     3
 72
    14
 73
    10
 74
     0
 42
0.0000000175291061
 43
0.0000000001
 40
0.0
 40
0.0
 40
0.0
 40
0.0
 40
0.0697646597063867
 40
0.2099417489439956
 40
0.3371082892036181
 40
0.4676662235700253
 40
0.6230754090487027
 40
0.8248321668682173
 40
1.0
 40
1.0
 40
1.0
 40
1.0
 10
30.28517592375122
 20
745.8308701881106
 30
0.0
 10
30.28421263187377
 20
745.7989072115521
 30
0.0
 10
30.28112266549835
 20
745.7178489663651
 30
0.0
 10
30.2331896914158
 20
745.5868479991973
 30
0.0
 10
30.15422028549963
 20
745.4849739921324
 30
0.0
 10
30.08208718268212
 20
745.42596954482
 30
0.0
 10
30.02754101822095
 20
745.3956543933417
 30
0.0
 10
30.00048590340741
 20
745.3853230521852
 30
0.0
 10
29.99674427742337
 20
745.3841238841067
 30
0.0
 10
29.99722561228889
 20
745.3842842361705
 30
0.0
  0
LINE
  5
1CF
330
145
100
AcDbEntity
  8
DV2_Default
  6
Continuous
 62
     7
100
AcDbLine
 10
30.2879461484
 20
746.889458864
 30
0.0
 11
30.2879461484
 21
745.8189956827
 31
0.0
  0
LINE
  5
1D0
330
145
100
AcDbEntity
  8
DV2_Default
  6
Continuous
 62
     7
100
AcDbLine
 10
61.9810801765
 20
745.818988362
 30
0.0
 11
61.9810801765
 21
746.8889382934
 31
0.0
  0
ARC
  5
1D1
330
145
100
AcDbEntity
  8
DV2_Default
  6
Continuous
 62
     7
100
AcDbCircle
 10
61.4792820648
 20
746.9047388316
 30
0.0
 40
0.4951812418627594
100
AcDbArc
 50
15.3633951376
 51
65.8341339891
  0
ARC
  5
1D2
330
145
100
AcDbEntity
  8
DV2_Default
  6
Continuous
 62
     7
100
AcDbCircle
 10
42.614185174
 20
724.7978479438
 30
0.0
 40
25.56721131851201
100
AcDbArc
 50
109.2401902191
 51
118.1692157086
  0
ARC
  5
1D3
330
145
100
AcDbEntity
  8
DV2_Default
  6
Continuous
 62
     7
100
AcDbCircle
 10
49.6199598936
 20
724.7197950047
 30
0.0
 40
25.65211554944312
100
AcDbArc
 50
61.8443368508
 51
70.6549049864
  0
ARC
  5
1D4
330
145
100
AcDbEntity
  8
DV2_Default
  6
Continuous
 62
     7
100
AcDbCircle
 10
49.3055345081
 20
649.0449897862
 30
0.0
 40
100.2687959529478
100
AcDbArc
 50
84.9552845303
 51
85.5170135255
  0
ARC
  5
1D5
330
145
100
AcDbEntity
  8
DV2_Default
  6
Continuous
 62
     7
100
AcDbCircle
 10
42.9417677145
 20
649.1679039368
 30
0.0
 40
100.1466130797473
100
AcDbArc
 50
94.4502628956
 51
95.0388141291
  0
SPLINE
  5
1D6
330
145
100
AcDbEntity
  8
DV2_Default
  6
Continuous
 62
     7
100
AcDbSpline
210
0.0
220
0.0
230
1.0
 70
     8
 71
     3
 72
    13
 73
     9
 74
     0
 42
0.0000000275611632
 43
0.0000000001
 40
0.0
 40
0.0
 40
0.0
 40
0.0
 40
0.2692385344699036
 40
0.4824767871447971
 40
0.6503476602308879
 40
0.794464596908504
 40
0.935592208439315
 40
1.0
 40
1.0
 40
1.0
 40
1.0
 10
57.37362238393917
 20
748.8890458468487
 30
0.0
 10
57.37368757655372
 20
748.8890163798376
 30
0.0
 10
57.36739061338148
 20
748.8905565359286
 30
0.0
 10
57.33333337716686
 20
748.9032450451136
 30
0.0
 10
57.27886934638887
 20
748.9320315757852
 30
0.0
 10
57.21011376454869
 20
748.9834596494487
 30
0.0
 10
57.14691165000877
 20
749.0534373294812
 30
0.0
 10
57.11747884545007
 20
749.1022797081359
 30
0.0
 10
57.10662249438599
 20
749.1204272729542
 30
0.0
  0
SPLINE
  5
1D7
330
145
100
AcDbEntity
  8
DV2_Default
  6
Continuous
 62
     7
100
AcDbSpline
210
0.0
220
0.0
230
1.0
 70
     8
 71
     3
 72
    13
 73
     9
 74
     0
 42
0.0000000275202069
 43
0.0000000001
 40
0.0
 40
0.0
 40
0.0
 40
0.0
 40
0.1058621023953599
 40
0.2604633212673813
 40
0.4232196566120309
 40
0.6242121235953748
 40
0.8911908968152352
 40
1.0
 40
1.0
 40
1.0
 40
1.0
 10
35.16123480034638
 20
749.1204280673205
 30
0.0
 10
35.1425529376617
 20
749.0907136226443
 30
0.0
 10
35.1037924543674
 20
749.0292734323311
 30
0.0
 10
35.02636594182835
 20
748.9570688003124
 30
0.0
 10
34.95781677321081
 20
748.9140815350225
 30
0.0
 10
34.91021484019275
 20
748.893565848492
 30
0.0
 10
34.89541870175545
 20
748.8893687926139
 30
0.0
 10
34.89406279917677
 20
748.8890058088904
 30
0.0
 10
34.89428143990855
 20
748.8890567715705
 30
0.0
  0
ARC
  5
1D8
330
145
100
AcDbEntity
  8
DV2_Default
  6
Continuous
 62
     7
100
AcDbCircle
 10
46.2766904516
 20
713.848620309
 30
0.0
 40
37.03606306928812
100
AcDbArc
 50
73.547751661
 51
75.5799926335
  0
ARC
  5
1D9
330
145
100
AcDbEntity
  8
DV2_Default
  6
Continuous
 62
     7
100
AcDbCircle
 10
43.9420125209
 20
895.0080870539
 30
0.0
 40
146.408179886284
100
AcDbArc
 50
266.2747601847
 51
267.1490409664
  0
ARC
  5
1DA
330
145
100
AcDbEntity
  8
DV2_Default
  6
Continuous
 62
     7
100
AcDbCircle
 10
48.369235588
 20
894.32971522
 30
0.0
 40
145.7305373327971
100
AcDbArc
 50
272.8473894857
 51
273.7255906262
  0
SPLINE
  5
1DB
330
145
100
AcDbEntity
  8
DV2_Default
  6
Continuous
 62
     7
100
AcDbSpline
210
0.0
220
0.0
230
1.0
 70
     8
 71
     3
 72
    21
 73
    17
 74
     0
 42
0.0000000025618486
 43
0.0000000001
 40
0.0
 40
0.0
 40
0.0
 40
0.0
 40
0.1103104583628632
 40
0.2091740074905915
 40
0.2905562899575125
 40
0.3628409043967031
 40
0.4308803982114708
 40
0.4980858052611537
 40
0.5667528677744877
 40
0.6375829883597437
 40
0.7103113146852753
 40
0.7830381502637463
 40
0.85452778256207
 40
0.9245293267790532
 40
0.9935750302365327
 40
1.0
 40
1.0
 40
1.0
 40
1.0
 10
22.98902559522899
 20
714.7505345941195
 30
0.0
 10
22.9125022650178
 20
714.7356251768293
 30
0.0
 10
22.78799963819596
 20
714.710388534783
 30
0.0
 10
22.56073747977583
 20
714.6523599046934
 30
0.0
 10
22.33528404321608
 20
714.582405193235
 30
0.0
 10
22.1073739103208
 20
714.4970874956257
 30
0.0
 10
21.87126854589491
 20
714.3903469657158
 30
0.0
 10
21.62422438994127
 20
714.2546786193018
 30
0.0
 10
21.36929715012552
 20
714.0824415176419
 30
0.0
 10
21.11577890528231
 20
713.8676553679719
 30
0.0
 10
20.87933251122722
 20
713.6094643827146
 30
0.0
 10
20.67798167938869
 20
713.3137221802097
 30
0.0
 10
20.5236678342965
 20
712.989245062253
 30
0.0
 10
20.43232245716485
 20
712.652123876416
 30
0.0
 10
20.39479500011698
 20
712.3993729672766
 30
0.0
 10
20.40430145949862
 20
712.2799958342677
 30
0.0
 10
20.40525525612173
 20
712.2681885156528
 30
0.0
  0
SPLINE
  5
1DC
330
145
100
AcDbEntity
  8
DV2_Default
  6
Continuous
 62
     7
100
AcDbSpline
210
0.0
220
0.0
230
1.0
 70
     8
 71
     3
 72
    20
 73
    16
 74
     0
 42
0.0000000025704333
 43
0.0000000001
 40
0.0
 40
0.0
 40
0.0
 40
0.0
 40
0.039421343352937
 40
0.1078392577338767
 40
0.1780614773892257
 40
0.2512428344603088
 40
0.3284136032287095
 40
0.4104170543517008
 40
0.4839703565577189
 40
0.5565342040154753
 40
0.6291271239331294
 40
0.7050066330672121
 40
0.7891481976755967
 40
0.888996440126671
 40
1.0
 40
1.0
 40
1.0
 40
1.0
 10
71.85931437909434
 20
712.2768689407144
 30
0.0
 10
71.86033928480506
 20
712.349326140455
 30
0.0
 10
71.86148358924073
 20
712.5179166907465
 30
0.0
 10
71.79921866877184
 20
712.8183723930774
 30
0.0
 10
71.67795348675556
 20
713.1477496830973
 30
0.0
 10
71.49640132282059
 20
713.4658409177046
 30
0.0
 10
71.26018196368256
 20
713.7618660659633
 30
0.0
 10
70.99006027968007
 20
714.0133307694227
 30
0.0
 10
70.71066811239224
 20
714.214429590238
 30
0.0
 10
70.4442501197472
 20
714.3674374322225
 30
0.0
 10
70.19036587002698
 20
714.4855481020271
 30
0.0
 10
69.94935893469066
 20
714.577273429122
 30
0.0
 10
69.71658688713724
 20
714.6501017653013
 30
0.0
 10
69.48575418869703
 20
714.7093335529049
 30
0.0
 10
69.36060349301508
 20
714.734736851435
 30
0.0
 10
69.28384132563164
 20
714.7497026004572
 30
0.0
  0
ARC
  5
1DD
330
145
100
AcDbEntity
  8
DV2_Default
  6
Continuous
 62
     7
100
AcDbCircle
 10
22.6487383589
 20
712.315086924
 30
0.0
 40
2.24394582378249
100
AcDbArc
 50
181.1965272581
 51
226.9088784756
  0
ARC
  5
1DE
330
145
100
AcDbEntity
  8
DV2_Default
  6
Continuous
 62
     7
100
AcDbCircle
 10
69.6437685932
 20
712.2982929211
 30
0.0
 40
2.215647507109896
100
AcDbArc
 50
312.9443096825
 51
359.4457572655
  0
ARC
  5
1DF
330
145
100
AcDbEntity
  8
DV2_Default
  6
Continuous
 62
     7
100
AcDbCircle
 10
46.3105915024
 20
735.1022676648
 30
0.0
 40
6.1378782217245
100
AcDbArc
 50
268.332210894
 51
33.3378855247
  0
ARC
  5
1E0
330
145
100
AcDbEntity
  8
DV2_Default
  6
Continuous
 62
     7
100
AcDbCircle
 10
45.9590677757
 20
735.102366445
 30
0.0
 40
6.137929421772308
100
AcDbArc
 50
146.6819131326
 51
271.6717255732
  0
SPLINE
  5
1E1
330
145
100
AcDbEntity
  8
DV2_Default
  6
Continuous
 62
     7
100
AcDbSpline
210
0.0
220
0.0
230
1.0
 70
     8
 71
     3
 72
    62
 73
    58
 74
     0
 42
0.0000000003463079
 43
0.0000000001
 40
0.0
 40
0.0
 40
0.0
 40
0.0
 40
0.0101609414281215
 40
0.0143651505326772
 40
0.02134795393136
 40
0.0286382449602913
 40
0.0365040905982783
 40
0.0447687539010944
 40
0.0533684640808425
 40
0.0622547198544732
 40
0.0713961838627487
 40
0.0807721354891339
 40
0.0903690226655134
 40
0.100178155964413
 40
0.1101942139146466
 40
0.120414270385776
 40
0.1308371630057658
 40
0.1414630832922282
 40
0.1522933093073467
 40
0.1633300281097765
 40
0.1745762130540535
 40
0.1860355330056317
 40
0.1977119123716938
 40
0.2095871842999499
 40
0.2215810534165256
 40
0.2337670882191833
 40
0.2461458973807634
 40
0.2587193849453707
 40
0.2714885349415649
 40
0.2844527474542891
 40
0.2976090306219951
 40
0.3109511986534986
 40
0.3244692647318583
 40
0.3381370179027527
 40
0.3516727501921562
 40
0.365264958951833
 40
0.3789123048295245
 40
0.3926373731763315
 40
0.4064921115384222
 40
0.4205631220522847
 40
0.4349761700567203
 40
0.4499039770117296
 40
0.4661269214048636
 40
0.4837329937296796
 40
0.5028799631612392
 40
0.5242118998835359
 40
0.5487447007316671
 40
0.5783199081341088
 40
0.6250666366039451
 40
0.6796385556738397
 40
0.7184438211883738
 40
0.7603129416824258
 40
0.802762817102292
 40
0.8521931727218871
 40
0.8959140909889001
 40
0.941051779328814
 40
1.0
 40
1.0
 40
1.0
 40
1.0
 10
46.13448192685185
 20
758.1418622034519
 30
0.0
 10
45.87350604137539
 20
758.1366970713989
 30
0.0
 10
45.56570309754157
 20
758.1294990828458
 30
0.0
 10
45.06411626857562
 20
758.0808218609658
 30
0.0
 10
44.63870396200605
 20
758.0215144837036
 30
0.0
 10
44.1317338888169
 20
757.9218501774698
 30
0.0
 10
43.60402756753827
 20
757.7856847686318
 30
0.0
 10
43.05771105013726
 20
757.6080743304248
 30
0.0
 10
42.50342936245401
 20
757.3876581039871
 30
0.0
 10
41.94832177268491
 20
757.1233425846855
 30
0.0
 10
41.39869943781055
 20
756.8147501318821
 30
0.0
 10
40.86006567463428
 20
756.4620221885184
 30
0.0
 10
40.33738718822287
 20
756.0657760566899
 30
0.0
 10
39.83520935782574
 20
755.6270609544382
 30
0.0
 10
39.35773028934464
 20
755.1473277375452
 30
0.0
 10
38.90883583872299
 20
754.6284019097116
 30
0.0
 10
38.49211371063878
 20
754.0724576502091
 30
0.0
 10
38.11085430721173
 20
753.481991552903
 30
0.0
 10
37.76804407345514
 20
752.8597932578879
 30
0.0
 10
37.4663566503387
 20
752.2089216571596
 30
0.0
 10
37.20813810244485
 20
751.5326533214464
 30
0.0
 10
36.99541375313983
 20
750.8345399442994
 30
0.0
 10
36.82992586522083
 20
750.1185285050525
 30
0.0
 10
36.71337989462652
 20
749.3914654576757
 30
0.0
 10
36.64601792078464
 20
748.6590202832305
 30
0.0
 10
36.6272902558625
 20
747.9261734109449
 30
0.0
 10
36.65620980214833
 20
747.1965145395847
 30
0.0
 10
36.73122572896217
 20
746.4751506904347
 30
0.0
 10
36.8500505829332
 20
745.7672247073176
 30
0.0
 10
37.00959573394749
 20
745.0778997310458
 30
0.0
 10
37.20593603217934
 20
744.4122579172889
 30
0.0
 10
37.43420829790471
 20
743.775353197146
 30
0.0
 10
37.68879251349193
 20
743.1717097937532
 30
0.0
 10
37.96069368102588
 20
742.6106977303541
 30
0.0
 10
38.24094429373888
 20
742.0970544819736
 30
0.0
 10
38.52129339140269
 20
741.6327284941624
 30
0.0
 10
38.79575189869791
 20
741.2160065397279
 30
0.0
 10
39.05794842842528
 20
740.8461912130032
 30
0.0
 10
39.30278664877125
 20
740.5213676471567
 30
0.0
 10
39.52667487882149
 20
740.2385951132819
 30
0.0
 10
39.72704091034378
 20
739.99479980532
 30
0.0
 10
39.90592427140436
 20
739.7825788120296
 30
0.0
 10
40.06647126549709
 20
739.5948711702781
 30
0.0
 10
40.20678676929754
 20
739.4312502764491
 30
0.0
 10
40.32613542978904
 20
739.2904785955092
 30
0.0
 10
40.42584740595844
 20
739.1695824401947
 30
0.0
 10
40.50892892935403
 20
739.0639172905319
 30
0.0
 10
40.5889458728765
 20
738.9546348496615
 30
0.0
 10
40.6932834919391
 20
738.7953000541662
 30
0.0
 10
40.80397326312747
 20
738.5913704593822
 30
0.0
 10
40.90733772766374
 20
738.3574535736593
 30
0.0
 10
41.00871182125385
 20
738.0773050111999
 30
0.0
 10
41.10934203110098
 20
737.7223743196215
 30
0.0
 10
41.19060843772869
 20
737.3306640288662
 30
0.0
 10
41.24855763030583
 20
736.8890083999325
 30
0.0
 10
41.28616352331417
 20
736.3587005859987
 30
0.0
 10
41.27816637748321
 20
736.012925522738
 30
0.0
 10
41.27181518872683
 20
735.7778129144915
 30
0.0
  0
SPLINE
  5
1E2
330
145
100
AcDbEntity
  8
DV2_Default
  6
Continuous
 62
     7
100
AcDbSpline
210
0.0
220
0.0
230
1.0
 70
     8
 71
     3
 72
    61
 73
    57
 74
     0
 42
0.0000000003462925
 43
0.0000000001
 40
0.0
 40
0.0
 40
0.0
 40
0.0
 40
0.0202285507865828
 40
0.0772805582155671
 40
0.1230248195075094
 40
0.1681138972857411
 40
0.2145590311581904
 40
0.2569521227427521
 40
0.293749733251964
 40
0.3323395238215712
 40
0.3778320409369523
 40
0.4349101240902305
 40
0.4648593753720117
 40
0.4883093449861566
 40
0.508743584111954
 40
0.5270387127331774
 40
0.5438204164620155
 40
0.5595147100841922
 40
0.5737020674730707
 40
0.5886112824933658
 40
0.6030001547387228
 40
0.6170891122975974
 40
0.6310215831246295
 40
0.6448926130023673
 40
0.6587570147693669
 40
0.6726358875087597
 40
0.6865183621930143
 40
0.7005088297766624
 40
0.7144576341726148
 40
0.7282622238547224
 40
0.7419064605805692
 40
0.7553812277092387
 40
0.7686828635582874
 40
0.7818120915984991
 40
0.7947729482060074
 40
0.8075705437324139
 40
0.8202312128067105
 40
0.8327605804318474
 40
0.8438291823875327
 40
0.8547342851615114
 40
0.8654810789617986
 40
0.8760754688095338
 40
0.8865231257892167
 40
0.8968294005801581
 40
0.9069991291793321
 40
0.9170362235594481
 40
0.9269428227545344
 40
0.9367175006685424
 40
0.9463512799429561
 40
0.9558179063737774
 40
0.9650463657860624
 40
0.9738225053120686
 40
0.9815170008274854
 40
0.9872004836667069
 40
0.9936020516764309
 40
1.0
 40
1.0
 40
1.0
 40
1.0
 10
50.99524939091191
 20
735.7778118330058
 30
0.0
 10
50.9920872769917
 20
735.8577953508519
 30
0.0
 10
50.98244504842542
 20
736.1178145701037
 30
0.0
 10
50.99422238434794
 20
736.5761051479417
 30
0.0
 10
51.04164697094762
 20
737.0795346287447
 30
0.0
 10
51.10922091052072
 20
737.4955386894576
 30
0.0
 10
51.19921759786651
 20
737.8737794515858
 30
0.0
 10
51.29858544405251
 20
738.1893180216964
 30
0.0
 10
51.39429666446141
 20
738.4351567147824
 30
0.0
 10
51.48597759878285
 20
738.6312387512429
 30
0.0
 10
51.59882328978342
 20
738.8334792622645
 30
0.0
 10
51.70104507545817
 20
738.9854216883036
 30
0.0
 10
51.79849144924334
 20
739.1136787765805
 30
0.0
 10
51.89701401742609
 20
739.2354591484158
 30
0.0
 10
52.01046810247846
 20
739.3705131355028
 30
0.0
 10
52.14389646028012
 20
739.5265422124041
 30
0.0
 10
52.29788173315524
 20
739.7061024775627
 30
0.0
 10
52.46979405526925
 20
739.9086292732109
 30
0.0
 10
52.66404883684302
 20
740.1423932605646
 30
0.0
 10
52.88349753179546
 20
740.4152212307396
 30
0.0
 10
53.13046169475668
 20
740.7370387693146
 30
0.0
 10
53.39459348228155
 20
741.1021716445148
 30
0.0
 10
53.67193884579709
 20
741.514009521523
 30
0.0
 10
53.95724847102431
 20
741.9751918887414
 30
0.0
 10
54.24394572150516
 20
742.48715125129
 30
0.0
 10
54.52436204373396
 20
743.0498133691719
 30
0.0
 10
54.79069780910373
 20
743.6627919608909
 30
0.0
 10
55.03377823395325
 20
744.3215543471948
 30
0.0
 10
55.24532559261576
 20
745.0214405873768
 30
0.0
 10
55.41726564798405
 20
745.7535565693854
 30
0.0
 10
55.54366989401134
 20
746.5103490379147
 30
0.0
 10
55.6201019449702
 20
747.285436677122
 30
0.0
 10
55.64317693429692
 20
748.0724763258763
 30
0.0
 10
55.61044811758858
 20
748.8652591658023
 30
0.0
 10
55.52032678203447
 20
749.6576644861867
 30
0.0
 10
55.3718208648189
 20
750.4443789614604
 30
0.0
 10
55.16477832308667
 20
751.21917518577
 30
0.0
 10
54.90872382020771
 20
751.9504242024491
 30
0.0
 10
54.61201001238505
 20
752.6337613772222
 30
0.0
 10
54.28334777506087
 20
753.2666338485432
 30
0.0
 10
53.91351080519721
 20
753.8714292412128
 30
0.0
 10
53.50463166339277
 20
754.4451518131831
 30
0.0
 10
53.05908205971096
 20
754.9850005581623
 30
0.0
 10
52.57947449127288
 20
755.4883744206473
 30
0.0
 10
52.06866382221759
 20
755.952884141835
 30
0.0
 10
51.52976497574249
 20
756.3763618216487
 30
0.0
 10
50.96620498832406
 20
756.7568636175371
 30
0.0
 10
50.38186224522319
 20
757.0926607598257
 30
0.0
 10
49.78139083786722
 20
757.3822100752084
 30
0.0
 10
49.17121221597698
 20
757.6240506569789
 30
0.0
 10
48.56243045987056
 20
757.8164874422831
 30
0.0
 10
47.98086502716644
 20
757.9570379564602
 30
0.0
 10
47.47108962459382
 20
758.0463428616223
 30
0.0
 10
47.01502772926137
 20
758.1020524664801
 30
0.0
 10
46.5759566776145
 20
758.1354421203076
 30
0.0
 10
46.29885926892918
 20
758.1398857481738
 30
0.0
 10
46.13451192774381
 20
758.1419329530843
 30
0.0
  0
ENDBLK
  5
1E4
330
145
100
AcDbEntity
  8
0
100
AcDbBlockEnd
  0
BLOCK
  5
27A
330
1E5
100
AcDbEntity
  8
0
100
AcDbBlockBegin
  2
SE2
 70
     0
 10
0.0
 20
0.0
 30
0.0
  3
SE2
  1

  0
ARC
  5
1E8
330
1E5
100
AcDbEntity
  8
DV3_Default
  6
Continuous
 62
     7
100
AcDbCircle
 10
46.1345119277
 20
451.35
 30
0.0
 40
27.04654695144
100
AcDbArc
 50
315.333718816
 51
0.0
  0
ARC
  5
1E9
330
1E5
100
AcDbEntity
  8
DV3_Default
  6
Continuous
 62
     7
100
AcDbCircle
 10
46.1345119277
 20
451.35
 30
0.0
 40
27.04654695144
100
AcDbArc
 50
97.1052734245
 51
224.7348714796
  0
ARC
  5
1EA
330
1E5
100
AcDbEntity
  8
DV3_Default
  6
Continuous
 62
     7
100
AcDbCircle
 10
46.1345119277
 20
451.35
 30
0.0
 40
27.04654695144
100
AcDbArc
 50
0.0
 51
82.61049486
  0
ARC
  5
1EB
330
1E5
100
AcDbEntity
  8
DV3_Default
  6
Continuous
 62
     7
100
AcDbCircle
 10
46.1345119277
 20
451.35
 30
0.0
 40
27.40901244894
100
AcDbArc
 50
0.0
 51
81.6387490954
  0
ARC
  5
1EC
330
1E5
100
AcDbEntity
  8
DV3_Default
  6
Continuous
 62
     7
100
AcDbCircle
 10
46.1345119277
 20
451.35
 30
0.0
 40
27.40901244894
100
AcDbArc
 50
98.077019189
 51
225.570100891
  0
ARC
  5
1ED
330
1E5
100
AcDbEntity
  8
DV3_Default
  6
Continuous
 62
     7
100
AcDbCircle
 10
46.1345119277
 20
451.35
 30
0.0
 40
27.40901244894
100
AcDbArc
 50
314.4028297091
 51
0.0
  0
ARC
  5
1EE
330
1E5
100
AcDbEntity
  8
DV3_Default
  6
Continuous
 62
     7
100
AcDbCircle
 10
46.1345119277
 20
451.35
 30
0.0
 40
30.53418032962
100
AcDbArc
 50
0.0
 51
77.7271849951
  0
ARC
  5
1EF
330
1E5
100
AcDbEntity
  8
DV3_Default
  6
Continuous
 62
     7
100
AcDbCircle
 10
46.1345119277
 20
451.35
 30
0.0
 40
30.53418032962
100
AcDbArc
 50
101.9885832894
 51
231.8569453042
  0
ARC
  5
1F0
330
1E5
100
AcDbEntity
  8
DV3_Default
  6
Continuous
 62
     7
100
AcDbCircle
 10
46.1345119277
 20
451.35
 30
0.0
 40
30.53418032962
100
AcDbArc
 50
308.094373493
 51
0.0
  0
ARC
  5
1F1
330
1E5
100
AcDbEntity
  8
DV3_Default
  6
Continuous
 62
     7
100
AcDbCircle
 10
46.1345119277
 20
451.35
 30
0.0
 40
30.54091693036
100
AcDbArc
 50
0.0
 51
77.7236598684
  0
ARC
  5
1F2
330
1E5
100
AcDbEntity
  8
DV3_Default
  6
Continuous
 62
     7
100
AcDbCircle
 10
46.1345119277
 20
451.35
 30
0.0
 40
30.54091693036
100
AcDbArc
 50
101.9921084161
 51
231.8762926828
  0
ARC
  5
1F3
330
1E5
100
AcDbEntity
  8
DV3_Default
  6
Continuous
 62
     7
100
AcDbCircle
 10
46.1345119277
 20
451.35
 30
0.0
 40
30.54091693036
100
AcDbArc
 50
308.099989355
 51
0.0
  0
SPLINE
  5
1F4
330
1E5
100
AcDbEntity
  8
DV3_Default
  6
Continuous
 62
     7
100
AcDbSpline
210
0.0
220
0.0
230
1.0
 70
     8
 71
     3
 72
    20
 73
    16
 74
     0
 42
0.0000000002126884
 43
0.0000000001
 40
0.0
 40
0.0
 40
0.0
 40
0.0
 40
0.0792514072430441
 40
0.2169024752559936
 40
0.3797725980835835
 40
0.4682542066708291
 40
0.5588270191601711
 40
0.6471146779486744
 40
0.6892803880595023
 40
0.7301935761203856
 40
0.8102144353463218
 40
0.8939253363907668
 40
0.9539588542161116
 40
0.9850697993235815
 40
1.0
 40
1.0
 40
1.0
 40
1.0
 10
65.47348329067738
 20
434.1085030696519
 30
0.0
 10
65.40359577906688
 20
433.2422145541008
 30
0.0
 10
65.20800685470054
 20
430.7711111768535
 30
0.0
 10
64.84582508849046
 20
425.9735771267316
 30
0.0
 10
64.45292634969262
 20
420.4549167288162
 30
0.0
 10
64.09724719368019
 20
415.2197860288335
 30
0.0
 10
63.81376830208171
 20
410.9286020776937
 30
0.0
 10
63.57646411543212
 20
407.2287120803869
 30
0.0
 10
63.3915393227153
 20
404.2818518318666
 30
0.0
 10
63.21515101859651
 20
401.4314196957752
 30
0.0
 10
62.9934514096182
 20
397.7741398080194
 30
0.0
 10
62.75184453422053
 20
393.6643616260005
 30
0.0
 10
62.56523998492077
 20
390.3795623655453
 30
0.0
 10
62.4532747008704
 20
388.3615940257513
 30
0.0
 10
62.40500250878387
 20
387.480168596646
 30
0.0
 10
62.38938701205124
 20
387.1937621576156
 30
0.0
  0
SPLINE
  5
1F5
330
1E5
100
AcDbEntity
  8
DV3_Default
  6
Continuous
 62
     7
100
AcDbSpline
210
0.0
220
0.0
230
1.0
 70
     8
 71
     3
 72
    15
 73
    11
 74
     0
 42
0.0000000010948688
 43
0.0000000001
 40
0.0
 40
0.0
 40
0.0
 40
0.0
 40
0.1287320553121687
 40
0.2987018615760925
 40
0.4346514987187675
 40
0.6328150026917381
 40
0.7648206480607143
 40
0.8558156720477559
 40
0.9202053743939868
 40
1.0
 40
1.0
 40
1.0
 40
1.0
 10
61.48367525481897
 20
332.1388592602861
 30
0.0
 10
61.53420356494948
 20
331.6139690951081
 30
0.0
 10
61.66032021769915
 20
330.4442849983963
 30
0.0
 10
61.87271383949253
 20
328.8951329911912
 30
0.0
 10
62.14847694310036
 20
327.2723204200361
 30
0.0
 10
62.42963040666602
 20
325.9470698395568
 30
0.0
 10
62.6844524907563
 20
324.873181042207
 30
0.0
 10
62.83916364232218
 20
324.1853892740963
 30
0.0
 10
62.94335544746375
 20
323.6422300568068
 30
0.0
 10
62.97131922217469
 20
323.3193015537535
 30
0.0
 10
62.98679457030521
 20
323.1405861507895
 30
0.0
  0
ARC
  5
1F6
330
1E5
100
AcDbEntity
  8
DV3_Default
  6
Continuous
 62
     7
100
AcDbCircle
 10
46.4077313354
 20
322.5116225077
 30
0.0
 40
16.59098951270991
100
AcDbArc
 50
2.1726009542
 51
2.9596996591
  0
ARC
  5
1F7
330
1E5
100
AcDbEntity
  8
DV3_Default
  6
Continuous
 62
     7
100
AcDbCircle
 10
46.4077313354
 20
322.5116225077
 30
0.0
 40
16.59098951270991
100
AcDbArc
 50
5.3940064968
 51
5.9990832808
  0
SPLINE
  5
1F8
330
1E5
100
AcDbEntity
  8
DV3_Default
  6
Continuous
 62
     7
100
AcDbSpline
210
0.0
220
0.0
230
1.0
 70
     8
 71
     3
 72
    18
 73
    14
 74
     0
 42
0.0000000010649414
 43
0.0000000001
 40
0.0
 40
0.0
 40
0.0
 40
0.0
 40
0.0520080095266113
 40
0.1270358636434637
 40
0.1848326883865282
 40
0.237801293938729
 40
0.3129685519082693
 40
0.4064787421956838
 40
0.523574392203463
 40
0.6712458050909076
 40
0.8586581444961597
 40
0.9709310533996254
 40
1.0
 40
1.0
 40
1.0
 40
1.0
 10
29.2822328132452
 20
323.1405862130896
 30
0.0
 10
29.29116459873906
 20
323.2593172723882
 30
0.0
 10
29.31299111413281
 20
323.5493320521757
 30
0.0
 10
29.38913958372444
 20
323.9812590212819
 30
0.0
 10
29.48381320917812
 20
324.4285427740585
 30
0.0
 10
29.58980949747959
 20
324.8897050191659
 30
0.0
 10
29.7237073234601
 20
325.4605101375753
 30
0.0
 10
29.90071120393324
 20
326.2373574411936
 30
0.0
 10
30.11894580587211
 20
327.2856854687165
 30
0.0
 10
30.37574427862619
 20
328.7470764364802
 30
0.0
 10
30.59988136441213
 20
330.3688805803317
 30
0.0
 10
30.74203691250153
 20
331.6817364296968
 30
0.0
 10
30.79821835155417
 20
332.2719777548823
 30
0.0
 10
30.80956501566912
 20
332.3944721308305
 30
0.0
  0
SPLINE
  5
1F9
330
1E5
100
AcDbEntity
  8
DV3_Default
  6
Continuous
 62
     7
100
AcDbSpline
210
0.0
220
0.0
230
1.0
 70
     8
 71
     3
 72
    15
 73
    11
 74
     0
 42
0.0000000003285095
 43
0.0000000001
 40
0.0
 40
0.0
 40
0.0
 40
0.0
 40
0.0269121457198121
 40
0.1484483954686966
 40
0.3511025983272946
 40
0.5147686900012273
 40
0.6455278195937068
 40
0.8439604101058058
 40
0.9385548904400781
 40
1.0
 40
1.0
 40
1.0
 40
1.0
 10
28.91066984943428
 20
403.7433603498745
 30
0.0
 10
28.89033230978473
 20
404.0708368022442
 30
0.0
 10
28.77819701259181
 20
405.8706722584624
 30
0.0
 10
28.51379173961094
 20
410.0415588314223
 30
0.0
 10
28.15100644074556
 20
415.5513079466233
 30
0.0
 10
27.79160946478553
 20
420.7904459665941
 30
0.0
 10
27.44490465919921
 20
425.6540217007803
 30
0.0
 10
27.15844788094764
 20
429.4935467937368
 30
0.0
 10
26.93067360609789
 20
432.4212467423047
 30
0.0
 10
26.83331431586874
 20
433.6404984231027
 30
0.0
 10
26.79543816238909
 20
434.1098794612839
 30
0.0
  0
ARC
  5
1FA
330
1E5
100
AcDbEntity
  8
DV3_Default
  6
Continuous
 62
     7
100
AcDbCircle
 10
45.8841906368
 20
322.4874475929
 30
0.0
 40
16.61480043916574
100
AcDbArc
 50
174.0570105194
 51
174.4126111675
  0
ARC
  5
1FB
330
1E5
100
AcDbEntity
  8
DV3_Default
  6
Continuous
 62
     7
100
AcDbCircle
 10
45.8841906368
 20
322.4874475929
 30
0.0
 40
16.61480043916574
100
AcDbArc
 50
176.9569545432
 51
177.7470851096
  0
SPLINE
  5
1FC
330
1E5
100
AcDbEntity
  8
DV3_Default
  6
Continuous
 62
     7
100
AcDbSpline
210
0.0
220
0.0
230
1.0
 70
     8
 71
     3
 72
     9
 73
     5
 74
     0
 42
0.0000007086279649
 43
0.0000000001
 40
0.0
 40
0.0
 40
0.0
 40
0.0
 40
0.8412465472915532
 40
0.9999999999999999
 40
0.9999999999999999
 40
0.9999999999999999
 40
0.9999999999999999
 10
29.2822328132452
 20
323.1405862130896
 30
0.0
 10
29.28256530303044
 20
323.1366802795308
 30
0.0
 10
29.28296519819686
 20
323.1320374309716
 30
0.0
 10
29.28507071190715
 20
323.1277642983081
 30
0.0
 10
29.28544542141082
 20
323.1270939380874
 30
0.0
  0
SPLINE
  5
1FD
330
1E5
100
AcDbEntity
  8
DV3_Default
  6
Continuous
 62
     7
100
AcDbSpline
210
0.0
220
0.0
230
1.0
 70
     8
 71
     3
 72
     8
 73
     4
 74
     0
 42
0.0000008012698465
 43
0.0000000001
 40
0.0
 40
0.0
 40
0.0
 40
0.0
 40
1.0
 40
1.0
 40
1.0
 40
1.0
 10
62.98335953618724
 20
323.1287247385072
 30
0.0
 10
62.9854632531553
 20
323.1328540293422
 30
0.0
 10
62.98612905856255
 20
323.1367200933866
 30
0.0
 10
62.98679457030521
 20
323.1405861507895
 30
0.0
  0
ELLIPSE
  5
1FE
330
1E5
100
AcDbEntity
  8
DV3_Default
  6
Continuous
 62
     7
100
AcDbEllipse
 10
62.6868843861
 20
323.1338035502
 30
0.0
 11
0.2996304044226641
 21
0.01488693213927417
 31
0.0
210
0.0
220
0.0
230
1.0
 40
0.9464860394
 41
5.68795129891822
 42
6.109992597941714
  0
ARC
  5
1FF
330
1E5
100
AcDbEntity
  8
DV3_Default
  6
Continuous
 62
     7
100
AcDbCircle
 10
29.5759707787
 20
323.1435090413
 30
0.0
 40
0.2937525068824273
100
AcDbArc
 50
188.6313695984
 51
212.8817378296
  0
ARC
  5
200
330
1E5
100
AcDbEntity
  8
DV3_Default
  6
Continuous
 62
     7
100
AcDbCircle
 10
29.5759707787
 20
323.1435090413
 30
0.0
 40
0.2937525068824273
100
AcDbArc
 50
180.5701006082
 51
188.6313695984
  0
SPLINE
  5
201
330
1E5
100
AcDbEntity
  8
DV3_Default
  6
Continuous
 62
     7
100
AcDbSpline
210
0.0
220
0.0
230
1.0
 70
     8
 71
     3
 72
    35
 73
    31
 74
     0
 42
0.0000000004619926
 43
0.0000000001
 40
0.0
 40
0.0
 40
0.0
 40
0.0
 40
0.0331849237706474
 40
0.0715654480511457
 40
0.1000379492923811
 40
0.1188240493771381
 40
0.1388314646671338
 40
0.1773599012653373
 40
0.2200122191197662
 40
0.265313649173433
 40
0.2979533390647244
 40
0.3229902020793295
 40
0.3456141822069148
 40
0.3809054669826825
 40
0.4171508413224176
 40
0.4451668481094068
 40
0.4783603505723611
 40
0.5177784087888678
 40
0.5566539904071829
 40
0.5901101296028287
 40
0.6236798436889786
 40
0.665850471904479
 40
0.7202631630799847
 40
0.7803977283010477
 40
0.8368345484372904
 40
0.8801956953635391
 40
0.9120634167463311
 40
0.9493157148987652
 40
0.9893943031493112
 40
1.0
 40
1.0
 40
1.0
 40
1.0
 10
62.97381953419398
 20
323.3681551115688
 30
0.0
 10
62.96201034402729
 20
323.7470968695104
 30
0.0
 10
62.9197928372315
 20
324.4391493187134
 30
0.0
 10
62.77572942966715
 20
325.6001074634305
 30
0.0
 10
62.59725107320475
 20
326.5876159339653
 30
0.0
 10
62.47182942486136
 20
327.1732938972493
 30
0.0
 10
62.35086530719443
 20
327.7022595210106
 30
0.0
 10
62.21558010873819
 20
328.2455540962737
 30
0.0
 10
62.08144246794993
 20
328.7707078264803
 30
0.0
 10
61.99311363096434
 20
329.1292715634124
 30
0.0
 10
61.92746884363122
 20
329.4173187624965
 30
0.0
 10
61.87584666925425
 20
329.6620296770093
 30
0.0
 10
61.83002016051783
 20
329.8948938166435
 30
0.0
 10
61.77431588703985
 20
330.200465459947
 30
0.0
 10
61.7144444852669
 20
330.5666541527327
 30
0.0
 10
61.65255786117422
 20
330.9833206789573
 30
0.0
 10
61.58753541389683
 20
331.4670917364503
 30
0.0
 10
61.51663290771192
 20
332.0607997489129
 30
0.0
 10
61.44734816990298
 20
332.7239827510369
 30
0.0
 10
61.38406240123504
 20
333.4139906670631
 30
0.0
 10
61.32152053296993
 20
334.1869853577103
 30
0.0
 10
61.25164066014285
 20
335.185592973737
 30
0.0
 10
61.1770873064231
 20
336.4801256720951
 30
0.0
 10
61.10852950767676
 20
338.0088132140503
 30
0.0
 10
61.05738739329666
 20
339.5399348811704
 30
0.0
 10
61.02480404422606
 20
340.8613582848179
 30
0.0
 10
61.00286995539346
 20
342.0340112420506
 30
0.0
 10
60.98684006123674
 20
343.2039575685109
 30
0.0
 10
60.97852025639965
 20
344.1724132082308
 30
0.0
 10
60.97541457972105
 20
344.739865528601
 30
0.0
 10
60.97483801531202
 20
344.8589978125301
 30
0.0
  0
SPLINE
  5
202
330
1E5
100
AcDbEntity
  8
DV3_Default
  6
Continuous
 62
     7
100
AcDbSpline
210
0.0
220
0.0
230
1.0
 70
     8
 71
     3
 72
    37
 73
    33
 74
     0
 42
0.0000000001274603
 43
0.0000000001
 40
0.0
 40
0.0
 40
0.0
 40
0.0
 40
0.0160927129574724
 40
0.0652951667168327
 40
0.1116649428128533
 40
0.1429744977785498
 40
0.1723234075688604
 40
0.1945842154475347
 40
0.2121915141247303
 40
0.2259143473998999
 40
0.2384517602021483
 40
0.2625798631151637
 40
0.2975918970465238
 40
0.3594158045214162
 40
0.4267261399144709
 40
0.4984418092598024
 40
0.5746570288287434
 40
0.629450352499975
 40
0.6787230628995713
 40
0.7243544823653331
 40
0.7652833007053659
 40
0.7961573776412244
 40
0.8235148373317231
 40
0.8450374006960074
 40
0.8586696845136979
 40
0.8725834440295528
 40
0.8912732309864322
 40
0.915048495528484
 40
0.941602779910876
 40
0.9666268044790204
 40
0.9941216782352044
 40
1.0
 40
1.0
 40
1.0
 40
1.0
 10
61.08948152393761
 20
355.8037026202167
 30
0.0
 10
61.1006920841541
 20
356.2964525441834
 30
0.0
 10
61.14898074830234
 20
358.3025604086325
 30
0.0
 10
61.249631557097
 20
361.7702928661557
 30
0.0
 10
61.38866849687345
 20
365.7328369947792
 30
0.0
 10
61.51977087812352
 20
369.0690478325203
 30
0.0
 10
61.62840009948504
 20
371.6438048994931
 30
0.0
 10
61.72337054251352
 20
373.7822854599844
 30
0.0
 10
61.79917147896566
 20
375.4301612897372
 30
0.0
 10
61.86253152108205
 20
376.7731415324441
 30
0.0
 10
61.9364776551344
 20
378.3094649687893
 30
0.0
 10
62.04379860303261
 20
380.4818192547984
 30
0.0
 10
62.23005485587771
 20
384.1098764640406
 30
0.0
 10
62.49144214511252
 20
388.9340814008119
 30
0.0
 10
62.81972767621161
 20
394.6592740095423
 30
0.0
 10
63.17639846729098
 20
400.5826259181339
 30
0.0
 10
63.51229408121049
 20
405.9282465053661
 30
0.0
 10
63.80847650112405
 20
410.493163209872
 30
0.0
 10
64.05102293943527
 20
414.1461573281919
 30
0.0
 10
64.26732135772933
 20
417.3409078475252
 30
0.0
 10
64.45097395235616
 20
420.0051022883306
 30
0.0
 10
64.60348084843234
 20
422.1838725003517
 30
0.0
 10
64.72432668024778
 20
423.8883940982275
 30
0.0
 10
64.81786431001454
 20
425.1932073431029
 30
0.0
 10
64.89058522799563
 20
426.1993434619214
 30
0.0
 10
64.95850292435674
 20
427.1328379940409
 30
0.0
 10
65.04048108144048
 20
428.250627011834
 30
0.0
 10
65.13948398206932
 20
429.5859026981848
 30
0.0
 10
65.24584350779217
 20
431.0002196010905
 30
0.0
 10
65.35554475566217
 20
432.4357354753354
 30
0.0
 10
65.43511433805422
 20
433.4582337903587
 30
0.0
 10
65.48005315631427
 20
434.0283781742301
 30
0.0
 10
65.4879518575342
 20
434.128356567817
 30
0.0
  0
SPLINE
  5
203
330
1E5
100
AcDbEntity
  8
DV3_Default
  6
Continuous
 62
     7
100
AcDbSpline
210
0.0
220
0.0
230
1.0
 70
     8
 71
     3
 72
    42
 73
    38
 74
     0
 42
0.0000000001142106
 43
0.0000000001
 40
0.0
 40
0.0
 40
0.0
 40
0.0
 40
0.008780612557409
 40
0.0323710549457658
 40
0.058434135075492
 40
0.0830027635767516
 40
0.1013785955340085
 40
0.1157982680248008
 40
0.1268501760131419
 40
0.1366944709769583
 40
0.1474676145591479
 40
0.1607992440414784
 40
0.1764716285292215
 40
0.2147237615495494
 40
0.2586853574590601
 40
0.3035329617809947
 40
0.3519546815530378
 40
0.4060709006425218
 40
0.4599617532965912
 40
0.5115893532696627
 40
0.5604008908021421
 40
0.6065547173254385
 40
0.6464782692802724
 40
0.6690929236403835
 40
0.6882094424308921
 40
0.7020819662936922
 40
0.7152151871031017
 40
0.7322734792939684
 40
0.7527534752056593
 40
0.7769262484010804
 40
0.80232985696251
 40
0.8323085589788357
 40
0.8806132979506067
 40
0.9183720732644156
 40
0.9528991881873337
 40
0.9852911301908381
 40
1.0
 40
1.0
 40
1.0
 40
1.0
 10
26.78112970097452
 20
434.1276262786718
 30
0.0
 10
26.79413723890563
 20
433.9629816086216
 30
0.0
 10
26.84225976369918
 20
433.351525221156
 30
0.0
 10
26.93022515741603
 20
432.2186219029067
 30
0.0
 10
27.04407165577811
 20
430.7247659507614
 30
0.0
 10
27.1518975942696
 20
429.2856497610579
 30
0.0
 10
27.24288953562724
 20
428.0553026718479
 30
0.0
 10
27.31325673469632
 20
427.095048752977
 30
0.0
 10
27.37042352247792
 20
426.309545053341
 30
0.0
 10
27.42208021059588
 20
425.5958174546168
 30
0.0
 10
27.47780487538287
 20
424.8217365229981
 30
0.0
 10
27.54356976450024
 20
423.9025769150824
 30
0.0
 10
27.65567074359261
 20
422.3243500957659
 30
0.0
 10
27.82136824650306
 20
419.9609645376698
 30
0.0
 10
28.04101880735567
 20
416.7667528261105
 30
0.0
 10
28.28301426454708
 20
413.1758396719037
 30
0.0
 10
28.54759833154925
 20
409.164625202599
 30
0.0
 10
28.83190484994266
 20
404.7415575062969
 30
0.0
 10
29.1235898129181
 20
400.0625822754764
 30
0.0
 10
29.40540323508825
 20
395.3857051432836
 30
0.0
 10
29.67058219826401
 20
390.8145549431719
 30
0.0
 10
29.91035180086672
 20
386.5016540115324
 30
0.0
 10
30.09887744176456
 20
382.9500527467978
 30
0.0
 10
30.23675984620914
 20
380.2456569430531
 30
0.0
 10
30.32867315499145
 20
378.3884331114952
 30
0.0
 10
30.40340767449221
 20
376.8389459895896
 30
0.0
 10
30.47355374228317
 20
375.3514544613346
 30
0.0
 10
30.55242188631881
 20
373.63310511477
 30
0.0
 10
30.6454619440932
 20
371.5300705604292
 30
0.0
 10
30.74644222856688
 20
369.1316221347607
 30
0.0
 10
30.85442703956812
 20
366.3981292851651
 30
0.0
 10
30.98373740614041
 20
362.8297982703766
 30
0.0
 10
31.10759553218505
 20
358.8445389736122
 30
0.0
 10
31.20657909986384
 20
354.7575150191564
 30
0.0
 10
31.26677124713002
 20
351.2782819525296
 30
0.0
 10
31.29195981931116
 20
348.6410305854565
 30
0.0
 10
31.29686353749123
 20
347.1601456193148
 30
0.0
 10
31.29742084321625
 20
346.7021551894694
 30
0.0
  0
SPLINE
  5
204
330
1E5
100
AcDbEntity
  8
DV3_Default
  6
Continuous
 62
     7
100
AcDbSpline
210
0.0
220
0.0
230
1.0
 70
     8
 71
     3
 72
    30
 73
    26
 74
     0
 42
0.0000000007525031
 43
0.0000000001
 40
0.0
 40
0.0
 40
0.0
 40
0.0
 40
0.0092073779450235
 40
0.0713258521211007
 40
0.134099834103513
 40
0.1832162895331964
 40
0.231466530614172
 40
0.2876027633009562
 40
0.3423422911152441
 40
0.3876613854486931
 40
0.4229262659288925
 40
0.4612307236603528
 40
0.5033861532393553
 40
0.5375960438229228
 40
0.5651145825759368
 40
0.5996375502059762
 40
0.6555123222697975
 40
0.7417162781605994
 40
0.7899145960432569
 40
0.8221900015222403
 40
0.8451686544330851
 40
0.8719417897624657
 40
0.9099785992669601
 40
0.9601552185538402
 40
1.0
 40
1.0
 40
1.0
 40
1.0
 10
31.09017900195225
 20
336.5072239700355
 30
0.0
 10
31.08726972418331
 20
336.4499564679249
 30
0.0
 10
31.06450919813594
 20
336.0083594930254
 30
0.0
 10
31.01849084426114
 20
335.207963318068
 30
0.0
 10
30.9514770435514
 20
334.2372861772515
 30
0.0
 10
30.8852726651126
 20
333.4161537136251
 30
0.0
 10
30.81894914831933
 20
332.6949726123667
 30
0.0
 10
30.74751782114721
 20
332.0168856561255
 30
0.0
 10
30.67566791102346
 20
331.4212611100004
 30
0.0
 10
30.61237812689079
 20
330.9553690369216
 30
0.0
 10
30.55818177130953
 20
330.5915120533435
 30
0.0
 10
30.50717064719258
 20
330.2761289523495
 30
0.0
 10
30.45844065352484
 20
329.9990358803312
 30
0.0
 10
30.41514104595457
 20
329.7726948978748
 30
0.0
 10
30.37566096033527
 20
329.5769724201923
 30
0.0
 10
30.3182175279948
 20
329.3126442950313
 30
0.0
 10
30.24008368967024
 20
328.9781291490327
 30
0.0
 10
30.11401331803796
 20
328.483128625575
 30
0.0
 10
29.9632319989032
 20
327.8863345338289
 30
0.0
 10
29.85134202347762
 20
327.4133207768602
 30
0.0
 10
29.75526372989349
 20
326.9812904043046
 30
0.0
 10
29.62568121297466
 20
326.3511717939452
 30
0.0
 10
29.46470453595467
 20
325.3903473216231
 30
0.0
 10
29.33950563911864
 20
324.3259313062612
 30
0.0
 10
29.30560854238076
 20
323.698409581826
 30
0.0
 10
29.29532738033598
 20
323.3693310926349
 30
0.0
  0
ARC
  5
205
330
1E5
100
AcDbEntity
  8
DV3_Default
  6
Continuous
 62
     7
100
AcDbCircle
 10
40.4311024342
 20
323.0929724792
 30
0.0
 40
11.14276298703641
100
AcDbArc
 50
174.2527406768
 51
174.6518007984
  0
ARC
  5
206
330
1E5
100
AcDbEntity
  8
DV3_Default
  6
Continuous
 62
     7
100
AcDbCircle
 10
40.4311024342
 20
323.0929724792
 30
0.0
 40
11.14276298703641
100
AcDbArc
 50
176.4367116845
 51
178.5982662097
  0
ARC
  5
207
330
1E5
100
AcDbEntity
  8
DV3_Default
  6
Continuous
 62
     7
100
AcDbCircle
 10
40.4311024342
 20
323.0929724792
 30
0.0
 40
11.14276298703641
100
AcDbArc
 50
178.9738256181
 51
179.036614796
  0
ARC
  5
208
330
1E5
100
AcDbEntity
  8
DV3_Default
  6
Continuous
 62
     7
100
AcDbCircle
 10
51.4662983922
 20
323.0838718836
 30
0.0
 40
11.5143641937511
100
AcDbArc
 50
1.4163499938
 51
3.4749266929
  0
ARC
  5
209
330
1E5
100
AcDbEntity
  8
DV3_Default
  6
Continuous
 62
     7
100
AcDbCircle
 10
51.4662983922
 20
323.0838718836
 30
0.0
 40
11.5143641937511
100
AcDbArc
 50
5.2071134842
 51
5.7986019005
  0
ARC
  5
20A
330
1E5
100
AcDbEntity
  8
DV3_Default
  6
Continuous
 62
     7
100
AcDbCircle
 10
62.6868843879
 20
323.1338035514
 30
0.0
 40
0.2999999999999947
100
AcDbArc
 50
328.3649467399
 51
1.1613390282
  0
ARC
  5
20B
330
1E5
100
AcDbEntity
  8
DV3_Default
  6
Continuous
 62
     7
100
AcDbCircle
 10
60.0443750162
 20
323.0613514115
 30
0.0
 40
2.94031907268612
100
AcDbArc
 50
0.7432815558
 51
5.2268248441
  0
ARC
  5
20C
330
1E5
100
AcDbEntity
  8
DV3_Default
  6
Continuous
 62
     7
100
AcDbCircle
 10
29.5821394676
 20
323.1338035514
 30
0.0
 40
0.2999999999999994
100
AcDbArc
 50
179.2325783044
 51
212.6840393944
  0
ARC
  5
20D
330
1E5
100
AcDbEntity
  8
DV3_Default
  6
Continuous
 62
     7
100
AcDbCircle
 10
32.1802091324
 20
323.0648868497
 30
0.0
 40
2.895769922245683
100
AcDbArc
 50
174.8275735246
 51
179.3245026152
  0
SPLINE
  5
20E
330
1E5
100
AcDbEntity
  8
DV3_Default
  6
Continuous
 62
     7
100
AcDbSpline
210
0.0
220
0.0
230
1.0
 70
     8
 71
     3
 72
    14
 73
    10
 74
     0
 42
0.0000000023690948
 43
0.0000000001
 40
0.0
 40
0.0
 40
0.0
 40
0.0
 40
0.0000365827551134
 40
0.0561200317838798
 40
0.1122034808126462
 40
0.3365372769277107
 40
0.5608710730427764
 40
0.7852048691578409
 40
1.0
 40
1.0
 40
1.0
 40
1.0
 10
29.2804623929149
 20
322.6486818040458
 30
0.0
 10
29.28045549454239
 20
322.6489189114168
 30
0.0
 10
29.28396054708261
 20
322.716967558749
 30
0.0
 10
29.29396586485087
 20
322.8532025462671
 30
0.0
 10
29.34244712629657
 20
323.2633664502481
 30
0.0
 10
29.47008246512804
 20
323.8924748221995
 30
0.0
 10
29.67930065126265
 20
324.7901741171564
 30
0.0
 10
29.89722845562987
 20
325.7468667658323
 30
0.0
 10
30.03643404788747
 20
326.4342214928793
 30
0.0
 10
30.10278283882741
 20
326.7848314878066
 30
0.0
  0
SPLINE
  5
20F
330
1E5
100
AcDbEntity
  8
DV3_Default
  6
Continuous
 62
     7
100
AcDbSpline
210
0.0
220
0.0
230
1.0
 70
     8
 71
     3
 72
    16
 73
    12
 74
     0
 42
0.0000000004909628
 43
0.0000000001
 40
0.0
 40
0.0
 40
0.0
 40
0.0
 40
0.0877940363724325
 40
0.1720073265512171
 40
0.2562206167333296
 40
0.4246471970908999
 40
0.5930737774484693
 40
0.6772870676272535
 40
0.7615003578060389
 40
0.9299269381636082
 40
0.9999999999999999
 40
0.9999999999999999
 40
0.9999999999999999
 40
0.9999999999999999
 10
30.10278283882741
 20
326.7848314878066
 30
0.0
 10
30.17502449061161
 20
327.1665814007555
 30
0.0
 10
30.31251498695765
 20
327.9479531670695
 30
0.0
 10
30.50154423919982
 20
329.2201293449122
 30
0.0
 10
30.72431161738897
 20
331.0182192128266
 30
0.0
 10
30.95406238303017
 20
333.5168193315602
 30
0.0
 10
31.12062796663993
 20
336.3992392169738
 30
0.0
 10
31.21664784597811
 20
338.9538364993038
 30
0.0
 10
31.28683192652522
 20
341.6133095217021
 30
0.0
 10
31.32034268750047
 20
344.3275787904198
 30
0.0
 10
31.32360007964195
 20
346.4537547667989
 30
0.0
 10
31.32274334673961
 20
347.0881901378124
 30
0.0
  0
SPLINE
  5
210
330
1E5
100
AcDbEntity
  8
DV3_Default
  6
Continuous
 62
     7
100
AcDbSpline
210
0.0
220
0.0
230
1.0
 70
     8
 71
     3
 72
    21
 73
    17
 74
     0
 42
0.0000000001764568
 43
0.0000000001
 40
0.0
 40
0.0
 40
0.0
 40
0.0
 40
0.0494487423706162
 40
0.091788267714543
 40
0.1341277930584699
 40
0.2188068437463226
 40
0.2611463690902492
 40
0.3034858944341761
 40
0.3881649451237025
 40
0.4728439958115556
 40
0.5575230464994089
 40
0.5998625718433356
 40
0.6422020971872625
 40
0.8115601985646421
 40
0.9809182999403484
 40
0.9999999999999999
 40
0.9999999999999999
 40
0.9999999999999999
 40
0.9999999999999999
 10
31.32274334673961
 20
347.0881901378124
 30
0.0
 10
31.32154084904402
 20
347.9786742893581
 30
0.0
 10
31.31267597737893
 20
349.6672661970784
 30
0.0
 10
31.28232823938948
 20
352.222706693763
 30
0.0
 10
31.22589399017126
 20
355.4763132909217
 30
0.0
 10
31.14434212500844
 20
358.7910837182595
 30
0.0
 10
31.04126075175739
 20
362.1622772153586
 30
0.0
 10
30.92544028472765
 20
365.5520016397741
 30
0.0
 10
30.76260458169161
 20
369.7386532667715
 30
0.0
 10
30.54363651097691
 20
374.7160614932109
 30
0.0
 10
30.34648913512385
 20
378.8208731616553
 30
0.0
 10
30.18117896549495
 20
382.089848621846
 30
0.0
 10
29.92871444701869
 20
386.9332499968336
 30
0.0
 10
29.53895760559127
 20
393.9346686184941
 30
0.0
 10
29.16587366272853
 20
400.1811131884448
 30
0.0
 10
28.96877361364157
 20
403.3790368073064
 30
0.0
 10
28.94880950108774
 20
403.7019188721158
 30
0.0
  0
SPLINE
  5
211
330
1E5
100
AcDbEntity
  8
DV3_Default
  6
Continuous
 62
     7
100
AcDbSpline
210
0.0
220
0.0
230
1.0
 70
     8
 71
     3
 72
    11
 73
     7
 74
     0
 42
0.0000000009702581
 43
0.0000000001
 40
0.0
 40
0.0
 40
0.0
 40
0.0
 40
0.3108971030120166
 40
0.5115642892058351
 40
0.7122314754075834
 40
1.0
 40
1.0
 40
1.0
 40
1.0
 10
28.94880950108774
 20
403.7019188721158
 30
0.0
 10
28.88017867222654
 20
404.8118937669444
 30
0.0
 10
28.76714414733027
 20
406.6199301522773
 30
0.0
 10
28.60964785152822
 20
409.0947190303401
 30
0.0
 10
28.45861379273084
 20
411.4349999020256
 30
0.0
 10
28.35256123130881
 20
413.0506047819508
 30
0.0
 10
28.29043257256421
 20
413.9873952067529
 30
0.0
  0
SPLINE
  5
212
330
1E5
100
AcDbEntity
  8
DV3_Default
  6
Continuous
 62
     7
100
AcDbSpline
210
0.0
220
0.0
230
1.0
 70
     8
 71
     3
 72
    11
 73
     7
 74
     0
 42
0.0000000006144176
 43
0.0000000001
 40
0.0
 40
0.0
 40
0.0
 40
0.0
 40
0.2767843612308741
 40
0.7082585519463355
 40
0.923995647308327
 40
1.0
 40
1.0
 40
1.0
 40
1.0
 10
28.29043257256421
 20
413.9873952067529
 30
0.0
 10
28.17926662725253
 20
415.6635812895742
 30
0.0
 10
27.89770328208462
 20
419.829324876016
 30
0.0
 10
27.54036173803508
 20
424.8482764092478
 30
0.0
 10
27.26864482705753
 20
428.4642808049798
 30
0.0
 10
27.16082627600131
 20
429.8623468308826
 30
0.0
 10
27.13292467211448
 20
430.2216524722629
 30
0.0
  0
SPLINE
  5
213
330
1E5
100
AcDbEntity
  8
DV3_Default
  6
Continuous
 62
     7
100
AcDbSpline
210
0.0
220
0.0
230
1.0
 70
     8
 71
     3
 72
    10
 73
     6
 74
     0
 42
0.000000002585395
 43
0.0000000001
 40
0.0
 40
0.0
 40
0.0
 40
0.0
 40
0.1109312570381653
 40
0.4864622752768989
 40
1.0
 40
1.0
 40
1.0
 40
1.0
 10
27.13292467211448
 20
430.2216524722629
 30
0.0
 10
27.12122715591681
 20
430.3722883847004
 30
0.0
 10
27.07007483627485
 20
431.0290752865416
 30
0.0
 10
26.96641552103912
 20
432.342691523883
 30
0.0
 10
26.876593208573
 20
433.4539724399627
 30
0.0
 10
26.82548686566415
 20
434.0772915386787
 30
0.0
  0
SPLINE
  5
214
330
1E5
100
AcDbEntity
  8
DV3_Default
  6
Continuous
 62
     7
100
AcDbSpline
210
0.0
220
0.0
230
1.0
 70
     8
 71
     3
 72
    10
 73
     6
 74
     0
 42
0.0000001819909181
 43
0.0000000001
 40
0.0
 40
0.0
 40
0.0
 40
0.0
 40
0.1062794931942055
 40
0.6571457145688874
 40
1.0
 40
1.0
 40
1.0
 40
1.0
 10
29.29834438098775
 20
322.6979787332734
 30
0.0
 10
29.29698115419981
 20
322.6962248657227
 30
0.0
 10
29.28900368444578
 20
322.6852711154672
 30
0.0
 10
29.28094703588342
 20
322.6674947826877
 30
0.0
 10
29.28059817136398
 20
322.653290191086
 30
0.0
 10
29.2804932508152
 20
322.6478413109896
 30
0.0
  0
LINE
  5
215
330
1E5
100
AcDbEntity
  8
DV3_Default
  6
Continuous
 62
     7
100
AcDbLine
 10
46.1347461243
 20
306.5893456827
 30
0.0
 11
46.1347469338
 21
306.5665554321
 31
0.0
  0
ARC
  5
216
330
1E5
100
AcDbEntity
  8
DV3_Default
  6
Continuous
 62
     7
100
AcDbCircle
 10
45.8338795334
 20
323.1475393062
 30
0.0
 40
16.56092677079701
100
AcDbArc
 50
203.6696056732
 51
271.0409570025
  0
ARC
  5
217
330
1E5
100
AcDbEntity
  8
DV3_Default
  6
Continuous
 62
     7
100
AcDbCircle
 10
45.8338795334
 20
323.1475393062
 30
0.0
 40
16.56092677079701
100
AcDbArc
 50
181.7290658118
 51
203.6696056732
  0
ARC
  5
218
330
1E5
100
AcDbEntity
  8
DV3_Default
  6
Continuous
 62
     7
100
AcDbCircle
 10
45.8051336301
 20
442.7896722293
 30
0.0
 40
19.67694947258391
100
AcDbArc
 50
217.2443848574
 51
254.588473145
  0
ARC
  5
219
330
1E5
100
AcDbEntity
  8
DV3_Default
  6
Continuous
 62
     7
100
AcDbCircle
 10
46.4637932281
 20
442.7897924876
 30
0.0
 40
19.67706823418814
100
AcDbArc
 50
285.428968021
 51
322.7781581977
  0
SPLINE
  5
21A
330
1E5
100
AcDbEntity
  8
DV3_Default
  6
Continuous
 62
     7
100
AcDbSpline
210
0.0
220
0.0
230
1.0
 70
     8
 71
     3
 72
    34
 73
    30
 74
     0
 42
0.0000000000895133
 43
0.0000000001
 40
0.0
 40
0.0
 40
0.0
 40
0.0
 40
0.0290132432491634
 40
0.0290132432491634
 40
0.1677256370707117
 40
0.1677256370707117
 40
0.2370818339814858
 40
0.2370818339814858
 40
0.3064380308922598
 40
0.3064380308922598
 40
0.4451504247138082
 40
0.4451504247138082
 40
0.5145066216245822
 40
0.5145066216245822
 40
0.5838628185353562
 40
0.5838628185353562
 40
0.6532190154461301
 40
0.6532190154461301
 40
0.722575212356904
 40
0.722575212356904
 40
0.791931409267678
 40
0.791931409267678
 40
0.861287606178452
 40
0.861287606178452
 40
0.930643803089226
 40
0.930643803089226
 40
0.9653219015446131
 40
0.9653219015446131
 40
1.0
 40
1.0
 40
1.0
 40
1.0
 10
65.4434257909865
 20
434.0760033413898
 30
0.0
 10
65.381485355945
 20
433.3206458553901
 30
0.0
 10
65.31843233689344
 20
432.538386886947
 30
0.0
 10
64.94811297317123
 20
427.8641378266336
 30
0.0
 10
64.62332553553703
 20
423.4479859136533
 30
0.0
 10
64.12086203111919
 20
416.140448838452
 30
0.0
 10
63.95034811279771
 20
413.5862482906067
 30
0.0
 10
63.60323048100472
 20
408.2363526705009
 30
0.0
 10
63.42802813836014
 20
405.4625369632839
 30
0.0
 10
62.9056837319612
 20
396.9541765792763
 30
0.0
 10
62.55803645787611
 20
391.0017737951395
 30
0.0
 10
62.05745785395572
 20
381.5426357023578
 30
0.0
 10
61.893932990888
 20
378.2895663324379
 30
0.0
 10
61.59220387930873
 20
371.7667984058377
 30
0.0
 10
61.45238421465487
 20
368.471280971444
 30
0.0
 10
61.21065773480726
 20
361.8063530170894
 30
0.0
 10
61.11044074352804
 20
358.4773018605126
 30
0.0
 10
60.97516511897423
 20
352.0125006141442
 30
0.0
 10
60.93962815734145
 20
348.8128351990575
 30
0.0
 10
60.95413216774647
 20
342.9068514475111
 30
0.0
 10
61.00228041086035
 20
340.1848366314126
 30
0.0
 10
61.19973592643675
 20
335.199956901488
 30
0.0
 10
61.34651224305851
 20
333.0296601817234
 30
0.0
 10
61.74309703492209
 20
329.2259151276086
 30
0.0
 10
61.99637819964554
 20
327.6019887966992
 30
0.0
 10
62.41588997826592
 20
325.5350248313243
 30
0.0
 10
62.56519138621622
 20
324.9037844719932
 30
0.0
 10
62.83425824070923
 20
323.7261808390598
 30
0.0
 10
62.96096902412072
 20
323.1835196695475
 30
0.0
 10
62.9885487408552
 20
322.6478861071897
 30
0.0
  0
ARC
  5
21B
330
1E5
100
AcDbEntity
  8
DV3_Default
  6
Continuous
 62
     7
100
AcDbCircle
 10
46.4404290928
 20
323.1420188093
 30
0.0
 40
16.55549549287062
100
AcDbArc
 50
268.9420153049
 51
358.2896359934
  0
SPLINE
  5
21C
330
1E5
100
AcDbEntity
  8
DV3_Default
  6
Continuous
 62
     7
100
AcDbSpline
210
0.0
220
0.0
230
1.0
 70
     8
 71
     3
 72
    12
 73
     8
 74
     0
 42
0.0000000023501722
 43
0.0000000001
 40
0.0
 40
0.0
 40
0.0
 40
0.0
 40
0.1806349866223333
 40
0.3867024515391266
 40
0.6069544754044879
 40
0.8417444094685228
 40
1.0
 40
1.0
 40
1.0
 40
1.0
 10
30.11950069772743
 20
326.8595710329804
 30
0.0
 10
30.05662574977112
 20
326.5372688225711
 30
0.0
 10
29.94352373842863
 20
325.9574103656738
 30
0.0
 10
29.7361121332658
 20
325.0424908103303
 30
0.0
 10
29.53030246755817
 20
324.1464413959857
 30
0.0
 10
29.34390766484905
 20
323.3476743669939
 30
0.0
 10
29.32141644799156
 20
322.9014947477991
 30
0.0
 10
29.31083205389876
 20
322.6904054123788
 30
0.0
  0
ARC
  5
21D
330
1E5
100
AcDbEntity
  8
DV3_Default
  6
Continuous
 62
     7
100
AcDbCircle
 10
-739.207682135
 20
339.8306005083
 30
0.0
 40
770.5777209519074
100
AcDbArc
 50
0.542260716
 51
3.416213877
  0
ARC
  5
21E
330
1E5
100
AcDbEntity
  8
DV3_Default
  6
Continuous
 62
     7
100
AcDbCircle
 10
46.0020100327
 20
323.4355259794
 30
0.0
 40
16.86250974869997
100
AcDbArc
 50
204.389122966
 51
270.4519377256
  0
ARC
  5
21F
330
1E5
100
AcDbEntity
  8
DV3_Default
  6
Continuous
 62
     7
100
AcDbCircle
 10
589.6019556798
 20
351.506970356
 30
0.0
 40
528.4182985028783
100
AcDbArc
 50
176.4319618872
 51
178.2058559867
  0
ARC
  5
220
330
1E5
100
AcDbEntity
  8
DV3_Default
  6
Continuous
 62
     7
100
AcDbCircle
 10
46.2512594808
 20
323.459700286
 30
0.0
 40
16.88762072372999
100
AcDbArc
 50
269.6040338519
 51
296.9884749009
  0
ARC
  5
221
330
1E5
100
AcDbEntity
  8
DV3_Default
  6
Continuous
 62
     7
100
AcDbCircle
 10
46.2512594808
 20
323.459700286
 30
0.0
 40
16.88762072372999
100
AcDbArc
 50
320.1064390955
 51
334.6493061292
  0
ARC
  5
222
330
1E5
100
AcDbEntity
  8
DV3_Default
  6
Continuous
 62
     7
100
AcDbCircle
 10
2307.7060660924
 20
264.5991586374
 30
0.0
 40
2248.704099930368
100
AcDbArc
 50
176.415935998
 51
176.8748745349
  0
ARC
  5
223
330
1E5
100
AcDbEntity
  8
DV3_Default
  6
Continuous
 62
     7
100
AcDbCircle
 10
1069.3549611462
 20
329.5816341658
 30
0.0
 40
1008.655383292465
100
AcDbArc
 50
177.7021573508
 51
178.4774799252
  0
ARC
  5
224
330
1E5
100
AcDbEntity
  8
DV3_Default
  6
Continuous
 62
     7
100
AcDbCircle
 10
1069.3549611462
 20
329.5816341658
 30
0.0
 40
1008.655383292465
100
AcDbArc
 50
176.7257656264
 51
176.9512117819
  0
SPLINE
  5
225
330
1E5
100
AcDbEntity
  8
DV3_Default
  6
Continuous
 62
     7
100
AcDbSpline
210
0.0
220
0.0
230
1.0
 70
     8
 71
     3
 72
    46
 73
    42
 74
     0
 42
0.0000000002194929
 43
0.0000000001
 40
0.0
 40
0.0
 40
0.0
 40
0.0
 40
0.0299283880983854
 40
0.0596358827898677
 40
0.089122479893228
 40
0.1183881752766525
 40
0.1474329648576343
 40
0.1762568446028674
 40
0.2048598105281509
 40
0.233241858698285
 40
0.2614029852269758
 40
0.289343186276743
 40
0.3170624580588244
 40
0.3445607968330825
 40
0.3718381989079209
 40
0.398894660640191
 40
0.4257301784351094
 40
0.4523447487461755
 40
0.4787383680750855
 40
0.5049110329716547
 40
0.5308627400337425
 40
0.5565934859071706
 40
0.5821032672856533
 40
0.6073920809107234
 40
0.6324599235716625
 40
0.6573067921054296
 40
0.6819326833966022
 40
0.7063375943773024
 40
0.7305215220271417
 40
0.754484463373156
 40
0.7782264154897491
 40
0.801747375498635
 40
0.8250473405687836
 40
0.8481263079163675
 40
0.8709842748047117
 40
0.8936212385442438
 40
0.9160371964924481
 40
0.9382321460538211
 40
0.960206084679825
 40
0.981959009868852
 40
1.0
 40
1.0
 40
1.0
 40
1.0
 10
46.13451184766548
 20
301.3037099176896
 30
0.0
 10
45.67060504903291
 20
301.3120317272237
 30
0.0
 10
44.74621552219466
 20
301.3297682697684
 30
0.0
 10
43.37125547278698
 20
301.4718377360513
 30
0.0
 10
42.01921015882194
 20
301.6953981847223
 30
0.0
 10
40.69590122039094
 20
302.0057120384478
 30
0.0
 10
39.4067939356893
 20
302.3972511597611
 30
0.0
 10
38.15698435801941
 20
302.8669694917705
 30
0.0
 10
36.95118764448438
 20
303.4108296834954
 30
0.0
 10
35.79372990403762
 20
304.0247661218544
 30
0.0
 10
34.68854278165998
 20
304.7044720720733
 30
0.0
 10
33.63916080397414
 20
305.4454974594911
 30
0.0
 10
32.64872128443923
 20
306.2432632967318
 30
0.0
 10
31.71996663602198
 20
307.093096911753
 30
0.0
 10
30.8552489180795
 20
307.9902602137618
 30
0.0
 10
30.0565364441114
 20
308.9299781944288
 30
0.0
 10
29.32542227353902
 20
309.9074656264022
 30
0.0
 10
28.66313441008736
 20
310.9179523884825
 30
0.0
 10
28.0705475298467
 20
311.9567072146168
 30
0.0
 10
27.54819606400618
 20
313.0190598513532
 30
0.0
 10
27.09628846433251
 20
314.1004215778501
 30
0.0
 10
26.7147224836235
 20
315.1963040685897
 30
0.0
 10
26.40310130846293
 20
316.3023365888626
 30
0.0
 10
26.16075038752626
 20
317.4142815260728
 30
0.0
 10
25.98673480531343
 20
318.5280482708568
 30
0.0
 10
25.87987705840768
 20
319.6397054722567
 30
0.0
 10
25.83877509906586
 20
320.7454917003732
 30
0.0
 10
25.86182051903693
 20
321.8418245581623
 30
0.0
 10
25.94721675488296
 20
322.9253082913139
 30
0.0
 10
26.09299720465139
 20
323.9927399514978
 30
0.0
 10
26.29704315443438
 20
325.0411141737071
 30
0.0
 10
26.55710142207428
 20
326.067626633
 30
0.0
 10
26.87080163396233
 20
327.0696762496939
 30
0.0
 10
27.23567305946649
 20
328.0448662150188
 30
0.0
 10
27.64916093595748
 20
328.9910039114541
 30
0.0
 10
28.10864222562872
 20
329.9060998034932
 30
0.0
 10
28.61144075327855
 20
330.7883653754477
 30
0.0
 10
29.15484168190954
 20
331.6362101931762
 30
0.0
 10
29.73610529035953
 20
332.4482381663429
 30
0.0
 10
30.31950799193788
 20
333.1817853733413
 30
0.0
 10
30.71723929744241
 20
333.6372856160421
 30
0.0
 10
30.90189603526014
 20
333.8401035149455
 30
0.0
  0
SPLINE
  5
226
330
1E5
100
AcDbEntity
  8
DV3_Default
  6
Continuous
 62
     7
100
AcDbSpline
210
0.0
220
0.0
230
1.0
 70
     8
 71
     3
 72
    10
 73
     6
 74
     0
 42
0.0000001078675505
 43
0.0000000001
 40
0.0
 40
0.0
 40
0.0
 40
0.0
 40
0.5072949732341173
 40
0.8887613236992478
 40
0.9999999999999999
 40
0.9999999999999999
 40
0.9999999999999999
 40
0.9999999999999999
 10
46.13451209031501
 20
301.3028752329968
 30
0.0
 10
46.13451892465696
 20
301.2793876354579
 30
0.0
 10
46.1345310463654
 20
301.240756991582
 30
0.0
 10
46.13451509349486
 20
301.2133500059476
 30
0.0
 10
46.13448912191473
 20
301.210177022384
 30
0.0
 10
46.13448206669126
 20
301.2101733328426
 30
0.0
  0
SPLINE
  5
227
330
1E5
100
AcDbEntity
  8
DV3_Default
  6
Continuous
 62
     7
100
AcDbSpline
210
0.0
220
0.0
230
1.0
 70
     8
 71
     3
 72
    31
 73
    27
 74
     0
 42
0.0000000002193229
 43
0.0000000001
 40
0.0
 40
0.0
 40
0.0
 40
0.0
 40
0.0154568374984712
 40
0.0515809981278407
 40
0.0883127986012163
 40
0.1256522159994399
 40
0.1635992268611978
 40
0.2021538071825003
 40
0.2413159324160988
 40
0.2810855774708813
 40
0.3214627167112168
 40
0.3624473239562635
 40
0.4040393724792369
 40
0.4462388350066361
 40
0.4890456837174343
 40
0.5324598902422281
 40
0.5764814256623418
 40
0.6211102605089037
 40
0.6663463647618741
 40
0.7121897078490367
 40
0.7586402586449535
 40
0.8056979854698795
 40
0.8533628560886373
 40
0.9016348377094568
 40
0.9505138969827758
 40
0.9999999999999999
 40
0.9999999999999999
 40
0.9999999999999999
 40
0.9999999999999999
 10
61.36679451596028
 20
333.8404661186031
 30
0.0
 10
61.52499461994957
 20
333.6667163956502
 30
0.0
 10
62.04229590530998
 20
333.0778655811761
 30
0.0
 10
62.86534767710369
 20
332.0201539337651
 30
0.0
 10
63.77485880084739
 20
330.6221778774345
 30
0.0
 10
64.57139088496638
 20
329.130422693897
 30
0.0
 10
65.24266304845558
 20
327.5525941889574
 30
0.0
 10
65.77677815199362
 20
325.8979125281945
 30
0.0
 10
66.16241357928526
 20
324.1771360177574
 30
0.0
 10
66.3890243393868
 20
322.4025643226614
 30
0.0
 10
66.44705651373647
 20
320.5880185093592
 30
0.0
 10
66.32816860100614
 20
318.7487953998232
 30
0.0
 10
66.0254578251291
 20
316.9015938764423
 30
0.0
 10
65.53368797574554
 20
315.0644110430393
 30
0.0
 10
64.84951485638315
 20
313.256406352529
 30
0.0
 10
63.97170493606935
 20
311.4977326434104
 30
0.0
 10
62.90134234917874
 20
309.8093318912548
 30
0.0
 10
61.64201897977181
 20
308.2127002816239
 30
0.0
 10
60.20000202471288
 20
306.729604216348
 30
0.0
 10
58.58437314491852
 20
305.3818198069245
 30
0.0
 10
56.80713321079008
 20
304.1906258911884
 30
0.0
 10
54.88326634388554
 20
303.177088724188
 30
0.0
 10
52.83075800145601
 20
302.3592024442411
 30
0.0
 10
50.67055844140089
 20
301.7608802785179
 30
0.0
 10
48.42649720632303
 20
301.3757832010589
 30
0.0
 10
46.90164379077656
 20
301.3274475598133
 30
0.0
 10
46.13451184766548
 20
301.3037099176896
 30
0.0
  0
SPLINE
  5
228
330
1E5
100
AcDbEntity
  8
DV3_Default
  6
Continuous
 62
     7
100
AcDbSpline
210
0.0
220
0.0
230
1.0
 70
     8
 71
     3
 72
    24
 73
    20
 74
     0
 42
0.0000000002453053
 43
0.0000000001
 40
0.0
 40
0.0
 40
0.0
 40
0.0
 40
0.0896286213902587
 40
0.0896286213902587
 40
0.1792572427805175
 40
0.1792572427805175
 40
0.358514485561035
 40
0.358514485561035
 40
0.5377717283415525
 40
0.5377717283415525
 40
0.6274003497318112
 40
0.6274003497318112
 40
0.7170289711220703
 40
0.7170289711220703
 40
0.806657592512329
 40
0.806657592512329
 40
0.8962862139025878
 40
0.8962862139025878
 40
1.0
 40
1.0
 40
1.0
 40
1.0
 10
46.1345119277352
 20
303.0314682441085
 30
0.0
 10
44.88381564492018
 20
303.0314680131507
 30
0.0
 10
43.65090178313473
 20
303.1500096184374
 30
0.0
 10
41.21969175939775
 20
303.6178626267662
 30
0.0
 10
40.01439760233422
 20
303.9721962981156
 30
0.0
 10
36.59162937400106
 20
305.3451254768003
 30
0.0
 10
34.48200219943744
 20
306.7099535738653
 30
0.0
 10
30.99658210370455
 20
310.0804392044172
 30
0.0
 10
29.58541284157538
 20
312.1212663827949
 30
0.0
 10
28.16909185089086
 20
315.4260597212202
 30
0.0
 10
27.80364364696779
 20
316.5902722640166
 30
0.0
 10
27.32210037271036
 20
318.9369266711923
 30
0.0
 10
27.20156137742149
 20
320.1221657419653
 30
0.0
 10
27.20156897989918
 20
322.5165290740947
 30
0.0
 10
27.32571029726561
 20
323.7259492295411
 30
0.0
 10
27.8081737502298
 20
326.0635707074384
 30
0.0
 10
28.16564269735516
 20
327.2054810107877
 30
0.0
 10
29.19648849073326
 20
329.6086442613976
 30
0.0
 10
29.89638773956906
 20
330.8251270209374
 30
0.0
 10
30.72853742203534
 20
331.9501023659757
 30
0.0
  0
SPLINE
  5
229
330
1E5
100
AcDbEntity
  8
DV3_Default
  6
Continuous
 62
     7
100
AcDbSpline
210
0.0
220
0.0
230
1.0
 70
     8
 71
     3
 72
    26
 73
    22
 74
     0
 42
0.0000000002453934
 43
0.0000000001
 40
0.0
 40
0.0
 40
0.0
 40
0.0
 40
0.0138809767979499
 40
0.0138809767979499
 40
0.103528160725409
 40
0.103528160725409
 40
0.2828225285803272
 40
0.2828225285803272
 40
0.3724697125077864
 40
0.3724697125077864
 40
0.4621168964352455
 40
0.4621168964352455
 40
0.5517640803627045
 40
0.5517640803627045
 40
0.6414112642901637
 40
0.6414112642901637
 40
0.8207056321450819
 40
0.8207056321450819
 40
0.9103528160725409
 40
0.9103528160725409
 40
1.0
 40
1.0
 40
1.0
 40
1.0
 10
61.54789089065297
 20
331.9391610112119
 30
0.0
 10
61.6593782676285
 20
331.7883108844176
 30
0.0
 10
61.76828822865096
 20
331.636076577934
 30
0.0
 10
62.56036569366921
 20
330.4915558919721
 30
0.0
 10
63.14394139536535
 20
329.4406055911901
 30
0.0
 10
64.57790441109654
 20
326.1023231847641
 30
0.0
 10
65.06665645094321
 20
323.727329138783
 30
0.0
 10
65.06784720254392
 20
320.1240283808455
 30
0.0
 10
64.94691304761874
 20
318.9382366333134
 30
0.0
 10
64.46696122652327
 20
316.5966924561709
 30
0.0
 10
64.10182130380832
 20
315.4310455234478
 30
0.0
 10
63.1564082735031
 20
313.223933278087
 30
0.0
 10
62.57630184769218
 20
312.1727160851078
 30
0.0
 10
61.19836958158655
 20
310.1763823565844
 30
0.0
 10
60.4028238632449
 20
309.2397203602164
 30
0.0
 10
57.78865572849884
 20
306.7111101339099
 30
0.0
 10
55.67693388610739
 20
305.3453585397942
 30
0.0
 10
52.25905968422587
 20
303.9737704608827
 30
0.0
 10
51.05763133276499
 20
303.6197928705843
 30
0.0
 10
48.61985217415027
 20
303.1500135348159
 30
0.0
 10
47.38520821055022
 20
303.0314684750662
 30
0.0
 10
46.1345119277352
 20
303.0314682441085
 30
0.0
  0
ARC
  5
22A
330
1E5
100
AcDbEntity
  8
DV3_Default
  6
Continuous
 62
     7
100
AcDbCircle
 10
45.8545403389
 20
322.3150261504
 30
0.0
 40
16.57499886977031
100
AcDbArc
 50
178.7726112121
 51
178.9936056538
  0
SPLINE
  5
22B
330
1E5
100
AcDbEntity
  8
DV3_Default
  6
Continuous
 62
     7
100
AcDbSpline
210
0.0
220
0.0
230
1.0
 70
     8
 71
     3
 72
    52
 73
    48
 74
     0
 42
0.0000000002187663
 43
0.0000000001
 40
0.0
 40
0.0
 40
0.0
 40
0.0
 40
0.0212177625535303
 40
0.0445641659269499
 40
0.0680241495793657
 40
0.0915889530133241
 40
0.1152508806583747
 40
0.1390031749323151
 40
0.1628398299803128
 40
0.1867556780384889
 40
0.2107462471714975
 40
0.2348077002361487
 40
0.2589367950254841
 40
0.2831308559505135
 40
0.3073877565505242
 40
0.3317059125880885
 40
0.3560842859334021
 40
0.380522399918254
 40
0.4050203674387045
 40
0.4295789337981334
 40
0.4541995372606046
 40
0.4788843915669489
 40
0.5036365965058156
 40
0.5258883861553488
 40
0.5481379044968482
 40
0.5703829396040578
 40
0.592622787523048
 40
0.6148565841147855
 40
0.6370832596858198
 40
0.6593014739130547
 40
0.6815095231924635
 40
0.7037052058487719
 40
0.7258856210634703
 40
0.7480468600209789
 40
0.7701835150108924
 40
0.7922878670887507
 40
0.814348475582886
 40
0.8363475819285401
 40
0.8582559732807138
 40
0.8800218424921467
 40
0.9015435103260947
 40
0.9225902954115773
 40
0.9425034967018944
 40
0.9593393025646813
 40
0.9726959291457756
 40
0.9883377395907388
 40
0.9999999999999999
 40
0.9999999999999999
 40
0.9999999999999999
 40
0.9999999999999999
 10
30.91916536984645
 20
333.8701250501846
 30
0.0
 10
30.70044455260216
 20
333.6312336165341
 30
0.0
 10
30.25369532517896
 20
333.1186627841564
 30
0.0
 10
29.61398671551785
 20
332.3035172592515
 30
0.0
 10
28.99999670780633
 20
331.427104242643
 30
0.0
 10
28.43328235246441
 20
330.5158809091332
 30
0.0
 10
27.91634959870875
 20
329.5724377514671
 30
0.0
 10
27.4515072185968
 20
328.5995139929204
 30
0.0
 10
27.04086267365429
 20
327.5999830731188
 30
0.0
 10
26.68631912726476
 20
326.5768391531158
 30
0.0
 10
26.3895726295075
 20
325.5331824908235
 30
0.0
 10
26.15211061364625
 20
324.4722073252047
 30
0.0
 10
25.97521043213187
 20
323.3971888015321
 30
0.0
 10
25.85993850986878
 20
322.3114698576805
 30
0.0
 10
25.80715024170935
 20
321.2184482182006
 30
0.0
 10
25.81749070632639
 20
320.121563535155
 30
0.0
 10
25.89139627952141
 20
319.0242846995731
 30
0.0
 10
26.02909719734728
 20
317.9300974225624
 30
0.0
 10
26.23062128010252
 20
316.8424919225984
 30
0.0
 10
26.49579849933534
 20
315.7649515575003
 30
0.0
 10
26.82426817152735
 20
314.7009395037405
 30
0.0
 10
27.21548287512996
 20
313.6538946021689
 30
0.0
 10
27.65303472004967
 20
312.6627530542791
 30
0.0
 10
28.12844706742974
 20
311.7288488012441
 30
0.0
 10
28.63358018766471
 20
310.8525512513061
 30
0.0
 10
29.1842145522084
 20
310.0024923040996
 30
0.0
 10
29.77885468432059
 20
309.1809097031757
 30
0.0
 10
30.41589273663434
 20
308.3899495983798
 30
0.0
 10
31.093600280522
 20
307.6316765502297
 30
0.0
 10
31.81012891437923
 20
306.9080697299688
 30
0.0
 10
32.5635105702568
 20
306.2210174068401
 30
0.0
 10
33.35165577835971
 20
305.5723122658018
 30
0.0
 10
34.17234889769443
 20
304.9636469408032
 30
0.0
 10
35.02323807598869
 20
304.3966100438205
 30
0.0
 10
35.90181593431457
 20
303.8726828311644
 30
0.0
 10
36.80538357361245
 20
303.3932368769382
 30
0.0
 10
37.73098154716423
 20
302.959533613638
 30
0.0
 10
38.67525636546416
 20
302.5727274385363
 30
0.0
 10
39.63416779980732
 20
302.2338781739448
 30
0.0
 10
40.60234607706141
 20
301.9439849750267
 30
0.0
 10
41.57118506605293
 20
301.7041064299304
 30
0.0
 10
42.52290999940088
 20
301.5157898052139
 30
0.0
 10
43.41017445180581
 20
301.3817832363645
 30
0.0
 10
44.18530390736195
 20
301.2969428398481
 30
0.0
 10
44.89170023924493
 20
301.2434241507601
 30
0.0
 10
45.53739665574493
 20
301.214954427645
 30
0.0
 10
45.93213142229006
 20
301.2114735080729
 30
0.0
 10
46.13147961630207
 20
301.2101346709287
 30
0.0
  0
SPLINE
  5
22C
330
1E5
100
AcDbEntity
  8
DV3_Default
  6
Continuous
 62
     7
100
AcDbSpline
210
0.0
220
0.0
230
1.0
 70
     8
 71
     3
 72
    54
 73
    50
 74
     0
 42
0.0000000002187859
 43
0.0000000001
 40
0.0
 40
0.0
 40
0.0
 40
0.0
 40
0.0235340873787623
 40
0.0332918864981901
 40
0.0494665075004656
 40
0.0663028946088263
 40
0.0843930499271459
 40
0.1032958493345345
 40
0.1228327435401958
 40
0.1428614479703548
 40
0.163280921427081
 40
0.1840164546377043
 40
0.2050118048299227
 40
0.2262238286498708
 40
0.2476188786485415
 40
0.2691703262275956
 40
0.2908568265357579
 40
0.3126610806278481
 40
0.3345689373076913
 40
0.3565687312362961
 40
0.3786507882846961
 40
0.4008070512457611
 40
0.423030793546568
 40
0.4453163982882766
 40
0.4676591865146223
 40
0.4900552831342457
 40
0.5125015120891542
 40
0.5349953146204509
 40
0.5575346860974645
 40
0.5801181280937895
 40
0.6027446132708022
 40
0.6254135613408376
 40
0.6481248249207615
 40
0.670878684547361
 40
0.6936758525291601
 40
0.7165174856786525
 40
0.7394052073485544
 40
0.7623411396057511
 40
0.7853279468483682
 40
0.808368892757006
 40
0.8314679132266726
 40
0.8546297089262958
 40
0.8778598625260845
 40
0.9011649876031363
 40
0.9245529190859221
 40
0.9480328835170889
 40
0.9716159396009975
 40
0.9953153845178613
 40
1.0
 40
1.0
 40
1.0
 40
1.0
 10
46.13754256570748
 20
301.210134699499
 30
0.0
 10
46.53977071936373
 20
301.2154829130974
 30
0.0
 10
47.01413333032104
 20
301.2229142948273
 30
0.0
 10
47.78972601238049
 20
301.2727218489372
 30
0.0
 10
48.44884602953212
 20
301.3333951177466
 30
0.0
 10
49.23693794780169
 20
301.4353343226198
 30
0.0
 10
50.06088668900011
 20
301.5745642735367
 30
0.0
 10
50.9193307010616
 20
301.7561800752841
 30
0.0
 10
51.79771146642878
 20
301.9816480175068
 30
0.0
 10
52.68713635454545
 20
302.2522447505276
 30
0.0
 10
53.58012234157826
 20
302.568615932117
 30
0.0
 10
54.47053186999686
 20
302.9309999690686
 30
0.0
 10
55.35310615883202
 20
303.3392902109215
 30
0.0
 10
56.22323686730317
 20
303.7930930959361
 30
0.0
 10
57.0767996340081
 20
304.2917668089295
 30
0.0
 10
57.91004700906421
 20
304.8344506075124
 30
0.0
 10
58.7195350514474
 20
305.4200872053365
 30
0.0
 10
59.5020735370142
 20
306.047440690408
 30
0.0
 10
60.25469167215537
 20
306.7151113469899
 30
0.0
 10
60.97461448428749
 20
307.4215483578064
 30
0.0
 10
61.65924655825776
 20
308.1650610278344
 30
0.0
 10
62.30616090179571
 20
308.9438289744213
 30
0.0
 10
62.91309140579526
 20
309.7559115904859
 30
0.0
 10
63.47792782892761
 20
310.599256995501
 30
0.0
 10
63.99871254487098
 20
311.4717106245807
 30
0.0
 10
64.47363850224673
 20
312.3710235607998
 30
0.0
 10
64.90104799381879
 20
313.2948606834536
 30
0.0
 10
65.27943193421738
 20
314.2408086812359
 30
0.0
 10
65.6074294183238
 20
315.206383961991
 30
0.0
 10
65.88382738427627
 20
316.1890404772778
 30
0.0
 10
66.10756024227746
 20
317.1861774700554
 30
0.0
 10
66.27770935668991
 20
318.1951471455098
 30
0.0
 10
66.39350228729349
 20
319.2132622586274
 30
0.0
 10
66.45431170766355
 20
320.2378036064084
 30
0.0
 10
66.45965392559536
 20
321.2660274075865
 30
0.0
 10
66.4091869329199
 20
322.29517254795
 30
0.0
 10
66.30270791010287
 20
323.322467664495
 30
0.0
 10
66.14015010436584
 20
324.3451380365347
 30
0.0
 10
65.92157898801194
 20
325.3604122461342
 30
0.0
 10
65.6471875845596
 20
326.3655285637772
 30
0.0
 10
65.31729082244131
 20
327.35774100701
 30
0.0
 10
64.93231873356619
 20
328.3343250117107
 30
0.0
 10
64.49280825891385
 20
329.2925826395017
 30
0.0
 10
63.99939331691112
 20
330.2298472483366
 30
0.0
 10
63.45279331757468
 20
331.1434864822417
 30
0.0
 10
62.85379801480637
 20
332.0309063342459
 30
0.0
 10
62.20324912767581
 20
332.8895533396249
 30
0.0
 10
61.69081891727256
 20
333.4941531908885
 30
0.0
 10
61.40006299888275
 20
333.8152751948786
 30
0.0
 10
61.3517822497254
 20
333.8680233815891
 30
0.0
  0
LINE
  5
22D
330
1E5
100
AcDbEntity
  8
DV3_Default
  6
Continuous
 62
     7
100
AcDbLine
 10
48.2027443286
 20
476.7041792109
 30
0.0
 11
48.2043676583
 21
477.6050096808
 31
0.0
  0
LINE
  5
22E
330
1E5
100
AcDbEntity
  8
DV3_Default
  6
Continuous
 62
     7
100
AcDbLine
 10
44.204374153
 20
477.6122178167
 30
0.0
 11
44.2027556451
 21
476.7140631738
 31
0.0
  0
CIRCLE
  5
22F
330
1E5
100
AcDbEntity
  8
DV3_Default
  6
Continuous
 62
     7
100
AcDbCircle
 10
46.2169287036
 20
484.5772823663
 30
0.0
 40
7.25
  0
SPLINE
  5
230
330
1E5
100
AcDbEntity
  8
DV3_Default
  6
Continuous
 62
     7
100
AcDbSpline
210
0.0
220
0.0
230
1.0
 70
     8
 71
     3
 72
    10
 73
     6
 74
     0
 42
0.0000000036188146
 43
0.0000000001
 40
0.0
 40
0.0
 40
0.0
 40
0.0
 40
0.7871623788161405
 40
0.7871623788161405
 40
1.0
 40
1.0
 40
1.0
 40
1.0
 10
46.13451192538035
 20
471.4419219170452
 30
0.0
 10
46.98489324831561
 20
471.4418222289817
 30
0.0
 10
47.83066548113623
 20
471.340038747267
 30
0.0
 10
48.59568684266227
 20
471.1739294515656
 30
0.0
 10
48.74022076645301
 20
471.1375443456639
 30
0.0
 10
48.86440018643157
 20
471.1019175905825
 30
0.0
  0
ARC
  5
231
330
1E5
100
AcDbEntity
  8
DV3_Default
  6
Continuous
 62
     7
100
AcDbCircle
 10
-29.3917154012
 20
471.5267547725
 30
0.0
 40
75.52643971532754
100
AcDbArc
 50
359.9356440443
 51
0.192237698
  0
SPLINE
  5
232
330
1E5
100
AcDbEntity
  8
DV3_Default
  6
Continuous
 62
     7
100
AcDbSpline
210
0.0
220
0.0
230
1.0
 70
     8
 71
     3
 72
    11
 73
     7
 74
     0
 42
0.0000000053863855
 43
0.0000000001
 40
0.0
 40
0.0
 40
0.0
 40
0.0
 40
0.1889058991007204
 40
0.3776957203713481
 40
0.7324378655457857
 40
0.9999999999999999
 40
0.9999999999999999
 40
0.9999999999999999
 40
0.9999999999999999
 10
46.13429920496374
 20
471.780159155655
 30
0.0
 10
46.25651893966577
 20
471.7792388908633
 30
0.0
 10
46.50088330882214
 20
471.7773755869241
 30
0.0
 10
46.96971747666859
 20
471.7581874979746
 30
0.0
 10
47.47455668602824
 20
471.7190856109763
 30
0.0
 10
47.83579020528163
 20
471.6750636245155
 30
0.0
 10
47.98478292832866
 20
471.6541458144657
 30
0.0
  0
SPLINE
  5
233
330
1E5
100
AcDbEntity
  8
DV3_Default
  6
Continuous
 62
     7
100
AcDbSpline
210
0.0
220
0.0
230
1.0
 70
     8
 71
     3
 72
    18
 73
    14
 74
     0
 42
0.0000000032851158
 43
0.0000000001
 40
0.0
 40
0.0
 40
0.0
 40
0.0
 40
0.0172417759127469
 40
0.1374208763794323
 40
0.2593361280719481
 40
0.3491768063326844
 40
0.4553829559473418
 40
0.5574629155687673
 40
0.6585083052415651
 40
0.7666024972027022
 40
0.8433266085464963
 40
0.9795801488266317
 40
1.0
 40
1.0
 40
1.0
 40
1.0
 10
47.98478292832866
 20
471.6541458144657
 30
0.0
 10
48.01743998244889
 20
471.64956093246
 30
0.0
 10
48.27530376014003
 20
471.6122562446237
 30
0.0
 10
48.72364173136445
 20
471.531152151997
 30
0.0
 10
49.18181898740756
 20
471.4171823830686
 30
0.0
 10
49.50329518579715
 20
471.3125457996915
 30
0.0
 10
49.69278691158154
 20
471.2257689926448
 30
0.0
 10
49.75728685456895
 20
471.1561533047465
 30
0.0
 10
49.69026405832137
 20
471.1101774885128
 30
0.0
 10
49.50730773459595
 20
471.0909885537995
 30
0.0
 10
49.19008129609661
 20
471.0893014391083
 30
0.0
 10
48.87252306862259
 20
471.1012594826205
 30
0.0
 10
48.62457602443399
 20
471.112254904644
 30
0.0
 10
48.59169279691844
 20
471.1137289579229
 30
0.0
  0
SPLINE
  5
234
330
1E5
100
AcDbEntity
  8
DV3_Default
  6
Continuous
 62
     7
100
AcDbSpline
210
0.0
220
0.0
230
1.0
 70
     8
 71
     3
 72
    12
 73
     8
 74
     0
 42
0.000000004067916
 43
0.0000000001
 40
0.0
 40
0.0
 40
0.0
 40
0.0
 40
0.2318644952365252
 40
0.4776477830945116
 40
0.732274883267995
 40
0.8660883164642086
 40
1.0
 40
1.0
 40
1.0
 40
1.0
 10
48.59169279691844
 20
471.1137289579229
 30
0.0
 10
48.43875632887603
 20
471.1205846262748
 30
0.0
 10
48.09842245857087
 20
471.1365334607366
 30
0.0
 10
47.5121757671334
 20
471.1605690104382
 30
0.0
 10
46.96251657090421
 20
471.1756879443187
 30
0.0
 10
46.49673774244076
 20
471.1825973691112
 30
0.0
 10
46.25541661964329
 20
471.1832798478111
 30
0.0
 10
46.13471177916271
 20
471.1836086789219
 30
0.0
  0
ARC
  5
235
330
1E5
100
AcDbEntity
  8
DV3_Default
  6
Continuous
 62
     7
100
AcDbCircle
 10
46.1332400177
 20
450.1883927509
 30
0.0
 40
20.63658648807696
100
AcDbArc
 50
0.0211335718
 51
179.9742282391
  0
SPLINE
  5
236
330
1E5
100
AcDbEntity
  8
DV3_Default
  6
Continuous
 62
     7
100
AcDbSpline
210
0.0
220
0.0
230
1.0
 70
     8
 71
     3
 72
    12
 73
     8
 74
     0
 42
0.0000000041083823
 43
0.0000000001
 40
0.0
 40
0.0
 40
0.0
 40
0.0
 40
0.1340387514942274
 40
0.2680268141226506
 40
0.5261910687294777
 40
0.7745871733994674
 40
1.0
 40
1.0
 40
1.0
 40
1.0
 10
46.13471177916271
 20
471.1836086789219
 30
0.0
 10
46.01537119785429
 20
471.1832892003738
 30
0.0
 10
45.77673516510094
 20
471.1826253162847
 30
0.0
 10
45.31314997436155
 20
471.1758242399584
 30
0.0
 10
44.76440299390934
 20
471.1608295067474
 30
0.0
 10
44.18493745642478
 20
471.137150454776
 30
0.0
 10
43.85003988527604
 20
471.1215057199474
 30
0.0
 10
43.70191881769741
 20
471.1148330754738
 30
0.0
  0
SPLINE
  5
237
330
1E5
100
AcDbEntity
  8
DV3_Default
  6
Continuous
 62
     7
100
AcDbSpline
210
0.0
220
0.0
230
1.0
 70
     8
 71
     3
 72
    18
 73
    14
 74
     0
 42
0.0000000032564634
 43
0.0000000001
 40
0.0
 40
0.0
 40
0.0
 40
0.0
 40
0.0242429679285191
 40
0.1583894346162525
 40
0.2359976086251633
 40
0.3432729995004055
 40
0.4437923834560824
 40
0.5453760579421371
 40
0.6512019841071394
 40
0.73981597167798
 40
0.8620551189700548
 40
0.9823917742896522
 40
1.0
 40
1.0
 40
1.0
 40
1.0
 10
43.70191881769741
 20
471.1148330754738
 30
0.0
 10
43.66233059267547
 20
471.1130496819618
 30
0.0
 10
43.40891366310606
 20
471.1017575176357
 30
0.0
 10
43.08479391800109
 20
471.0894543964084
 30
0.0
 10
42.76570648925339
 20
471.0907750454761
 30
0.0
 10
42.58055205329662
 20
471.1097553036165
 30
0.0
 10
42.51174779832458
 20
471.1553636097396
 30
0.0
 10
42.57453135286774
 20
471.2247350534608
 30
0.0
 10
42.76219818174888
 20
471.311172433006
 30
0.0
 10
43.08230587911134
 20
471.4158050191102
 30
0.0
 10
43.54049786926938
 20
471.5302006257667
 30
0.0
 10
43.99245441409093
 20
471.6120920729819
 30
0.0
 10
44.25275008341936
 20
471.6497313842913
 30
0.0
 10
44.28629583648241
 20
471.6544349181618
 30
0.0
  0
SPLINE
  5
238
330
1E5
100
AcDbEntity
  8
DV3_Default
  6
Continuous
 62
     7
100
AcDbSpline
210
0.0
220
0.0
230
1.0
 70
     8
 71
     3
 72
    11
 73
     7
 74
     0
 42
0.0000000053936575
 43
0.0000000001
 40
0.0
 40
0.0
 40
0.0
 40
0.0
 40
0.2635537529477733
 40
0.618328851108828
 40
0.8090676350388517
 40
1.0
 40
1.0
 40
1.0
 40
1.0
 10
44.28629583648241
 20
471.6544349181618
 30
0.0
 10
44.43290279861267
 20
471.6749910467046
 30
0.0
 10
44.791192645617
 20
471.7186920852066
 30
0.0
 10
45.29374820143811
 20
471.7578559640024
 30
0.0
 10
45.76436450508265
 20
471.7773141271538
 30
0.0
 10
46.01094595088197
 20
471.7792182676522
 30
0.0
 10
46.13429920496374
 20
471.780159155655
 30
0.0
  0
ARC
  5
239
330
1E5
100
AcDbEntity
  8
DV3_Default
  6
Continuous
 62
     7
100
AcDbCircle
 10
46.1332407245
 20
450.205854366
 30
0.0
 40
20.63658672813886
100
AcDbArc
 50
180.0227089739
 51
359.972652837
  0
ARC
  5
23A
330
1E5
100
AcDbEntity
  8
DV3_Default
  6
Continuous
 62
     7
100
AcDbCircle
 10
46.1345155915
 20
445.4721298775
 30
0.0
 40
16.31542779836002
100
AcDbArc
 50
251.822453545
 51
253.6827441106
  0
ARC
  5
23B
330
1E5
100
AcDbEntity
  8
DV3_Default
  6
Continuous
 62
     7
100
AcDbCircle
 10
46.1345155915
 20
445.4721298775
 30
0.0
 40
16.31542779836002
100
AcDbArc
 50
286.5332653476
 51
288.1775409428
  0
SPLINE
  5
23C
330
1E5
100
AcDbEntity
  8
DV3_Default
  6
Continuous
 62
     7
100
AcDbSpline
210
0.0
220
0.0
230
1.0
 70
     8
 71
     3
 72
    11
 73
     7
 74
     0
 42
0.0000000037306155
 43
0.0000000001
 40
0.0
 40
0.0
 40
0.0
 40
0.0
 40
0.0452553718181589
 40
0.3429498059207426
 40
0.6743232717004005
 40
1.0
 40
1.0
 40
1.0
 40
1.0
 10
45.40334689843784
 20
429.5264212978494
 30
0.0
 10
45.35661222914842
 20
429.5279271271289
 30
0.0
 10
45.00358680435802
 20
429.5404365658433
 30
0.0
 10
44.32918392882834
 20
429.5794123331345
 30
0.0
 10
43.47127993459551
 20
429.6625279847676
 30
0.0
 10
42.96408614355548
 20
429.728070120916
 30
0.0
 10
42.73465825835374
 20
429.760128143385
 30
0.0
  0
SPLINE
  5
23D
330
1E5
100
AcDbEntity
  8
DV3_Default
  6
Continuous
 62
     7
100
AcDbSpline
210
0.0
220
0.0
230
1.0
 70
     8
 71
     3
 72
    14
 73
    10
 74
     0
 42
0.0000000056952741
 43
0.0000000001
 40
0.0
 40
0.0
 40
0.0
 40
0.0
 40
0.0265690461790142
 40
0.1455329827713454
 40
0.2680498840641147
 40
0.5185184763504805
 40
0.7667928790101722
 40
0.8850112150009395
 40
1.0
 40
1.0
 40
1.0
 40
1.0
 10
42.73465825835374
 20
429.760128143385
 30
0.0
 10
42.70363792926209
 20
429.7644626226317
 30
0.0
 10
42.53592286537244
 20
429.7881619517351
 30
0.0
 10
42.24942075630489
 20
429.8310407025616
 30
0.0
 10
41.79198734505822
 20
429.9036125923508
 30
0.0
 10
41.34866791115032
 20
429.9761164766847
 30
0.0
 10
41.10486581488789
 20
430.0039119960554
 30
0.0
 10
41.02775784806792
 20
429.9958982059679
 30
0.0
 10
41.03910987830721
 20
429.9791696500582
 30
0.0
 10
41.0447121259277
 20
429.9709336358027
 30
0.0
  0
SPLINE
  5
23E
330
1E5
100
AcDbEntity
  8
DV3_Default
  6
Continuous
 62
     7
100
AcDbSpline
210
0.0
220
0.0
230
1.0
 70
     8
 71
     3
 72
    12
 73
     8
 74
     0
 42
0.0000000067340346
 43
0.0000000001
 40
0.0
 40
0.0
 40
0.0
 40
0.0
 40
0.1061735598365054
 40
0.2164155209254664
 40
0.3781411951796438
 40
0.7254011788026935
 40
1.0
 40
1.0
 40
1.0
 40
1.0
 10
51.22431756584322
 20
429.9709331461302
 30
0.0
 10
51.22981152535858
 20
429.9781200420481
 30
0.0
 10
51.24100406191736
 20
429.9927930469366
 30
0.0
 10
51.19805730417536
 20
430.001992412376
 30
0.0
 10
51.03627557898175
 20
429.9929685448265
 30
0.0
 10
50.60723083660113
 20
429.9252781193964
 30
0.0
 10
50.07230881561022
 20
429.8387179185661
 30
0.0
 10
49.799972845966
 20
429.7983816275361
 30
0.0
  0
SPLINE
  5
23F
330
1E5
100
AcDbEntity
  8
DV3_Default
  6
Continuous
 62
     7
100
AcDbSpline
210
0.0
220
0.0
230
1.0
 70
     8
 71
     3
 72
    14
 73
    10
 74
     0
 42
0.0000000033635844
 43
0.0000000001
 40
0.0
 40
0.0
 40
0.0
 40
0.0
 40
0.0018395472540655
 40
0.15864165172544
 40
0.3030245051935885
 40
0.5511639103592744
 40
0.7648418503057227
 40
0.9821460046386735
 40
1.0
 40
1.0
 40
1.0
 40
1.0
 10
49.799972845966
 20
429.7983816275361
 30
0.0
 10
49.79861048085509
 20
429.7981798445853
 30
0.0
 10
49.68104281615221
 20
429.7807736212514
 30
0.0
 10
49.44363443708607
 20
429.7467820038813
 30
0.0
 10
48.96952383353641
 20
429.685063954016
 30
0.0
 10
48.38451802129688
 20
429.6203981919346
 30
0.0
 10
47.65666655905426
 20
429.561244752745
 30
0.0
 10
47.13909458560188
 20
429.5353679042714
 30
0.0
 10
46.86246914550212
 20
429.5263669067638
 30
0.0
 10
46.8414376888248
 20
429.5257115175546
 30
0.0
  0
ARC
  5
240
330
1E5
100
AcDbEntity
  8
DV3_Default
  6
Continuous
 62
     7
100
AcDbCircle
 10
46.13365891
 20
450.1751208359
 30
0.0
 40
16.27645288937786
100
AcDbArc
 50
180.0507591155
 51
359.9488938766
  0
ARC
  5
241
330
1E5
100
AcDbEntity
  8
DV3_Default
  6
Continuous
 62
     7
100
AcDbCircle
 10
46.1343802372
 20
450.1401909277
 30
0.0
 40
15.84778233296786
100
AcDbArc
 50
0.0247634412
 51
179.9746626195
  0
ARC
  5
242
330
1E5
100
AcDbEntity
  8
DV3_Default
  6
Continuous
 62
     7
100
AcDbCircle
 10
46.1336588469
 20
450.1542761565
 30
0.0
 40
16.27644770719347
100
AcDbArc
 50
0.0222705759
 51
179.9773824161
  0
ARC
  5
243
330
1E5
100
AcDbEntity
  8
DV3_Default
  6
Continuous
 62
     7
100
AcDbCircle
 10
46.1345802312
 20
450.1069302007
 30
0.0
 40
15.84831932795553
100
AcDbArc
 50
0.0390502973
 51
179.960410984
  0
ARC
  5
244
330
1E5
100
AcDbEntity
  8
DV3_Default
  6
Continuous
 62
     7
100
AcDbCircle
 10
46.1345803173
 20
450.1252458233
 30
0.0
 40
15.84831734224426
100
AcDbArc
 50
180.0266267113
 51
359.97283457
  0
ARC
  5
245
330
1E5
100
AcDbEntity
  8
DV3_Default
  6
Continuous
 62
     7
100
AcDbCircle
 10
46.1336307257
 20
450.1116729153
 30
0.0
 40
15.59050228478349
100
AcDbArc
 50
180.021288038
 51
359.9782267904
  0
ARC
  5
246
330
1E5
100
AcDbEntity
  8
DV3_Default
  6
Continuous
 62
     7
100
AcDbCircle
 10
46.1338081563
 20
450.0982359954
 30
0.0
 40
15.59032553837663
100
AcDbArc
 50
0.0276083747
 51
178.8940017791
  0
ARC
  5
247
330
1E5
100
AcDbEntity
  8
DV3_Default
  6
Continuous
 62
     7
100
AcDbCircle
 10
46.1339113469
 20
450.0600083388
 30
0.0
 40
11.64214492839396
100
AcDbArc
 50
0.0149166236
 51
179.9850310335
  0
ARC
  5
248
330
1E5
100
AcDbEntity
  8
DV3_Default
  6
Continuous
 62
     7
100
AcDbCircle
 10
46.1333426512
 20
450.0539767617
 30
0.0
 40
10.98026755420294
100
AcDbArc
 50
0.0164154464
 51
179.9835244108
  0
ARC
  5
249
330
1E5
100
AcDbEntity
  8
DV3_Default
  6
Continuous
 62
     7
100
AcDbCircle
 10
46.1339113492
 20
450.0651097807
 30
0.0
 40
11.64214471562689
100
AcDbArc
 50
180.0101373259
 51
359.9898103312
  0
ARC
  5
24A
330
1E5
100
AcDbEntity
  8
DV3_Default
  6
Continuous
 62
     7
100
AcDbCircle
 10
46.1333426545
 20
450.060370795
 30
0.0
 40
10.98026758062148
100
AcDbArc
 50
180.0168889098
 51
359.9830509474
  0
ARC
  5
24B
330
1E5
100
AcDbEntity
  8
DV3_Default
  6
Continuous
 62
     7
100
AcDbCircle
 10
46.1341732877
 20
450.0546502975
 30
0.0
 40
10.69714969292557
100
AcDbArc
 50
180.0202459227
 51
359.9793263687
  0
ARC
  5
24C
330
1E5
100
AcDbEntity
  8
DV3_Default
  6
Continuous
 62
     7
100
AcDbCircle
 10
46.134173257
 20
450.0464196678
 30
0.0
 40
10.69714992026282
100
AcDbArc
 50
0.0234110423
 51
179.9761612491
  0
ARC
  5
24D
330
1E5
100
AcDbEntity
  8
DV3_Default
  6
Continuous
 62
     7
100
AcDbCircle
 10
46.1348946722
 20
451.006735075
 30
0.0
 40
23.41207233455277
100
AcDbArc
 50
180.0128246663
 51
260.166864826
  0
ARC
  5
24E
330
1E5
100
AcDbEntity
  8
DV3_Default
  6
Continuous
 62
     7
100
AcDbCircle
 10
46.1348946722
 20
451.006735075
 30
0.0
 40
23.41207233455277
100
AcDbArc
 50
279.8281761048
 51
359.9816617361
  0
ARC
  5
24F
330
1E5
100
AcDbEntity
  8
DV3_Default
  6
Continuous
 62
     7
100
AcDbCircle
 10
46.1348940667
 20
450.9941519245
 30
0.0
 40
23.41207229408824
100
AcDbArc
 50
0.0124561661
 51
179.9820302362
  0
SPLINE
  5
250
330
1E5
100
AcDbEntity
  8
DV3_Default
  6
Continuous
 62
     7
100
AcDbSpline
210
0.0
220
0.0
230
1.0
 70
     8
 71
     3
 72
    10
 73
     6
 74
     0
 42
0.0000000980196844
 43
0.0000000001
 40
0.0
 40
0.0
 40
0.0
 40
0.0
 40
0.0962589221336717
 40
0.5992720866608039
 40
1.0
 40
1.0
 40
1.0
 40
1.0
 10
50.09531455439254
 20
428.5155220525315
 30
0.0
 10
50.09549943123391
 20
428.5134879959077
 30
0.0
 10
50.09567049377554
 20
428.5004034232447
 30
0.0
 10
50.08329059841932
 20
428.4731227953968
 30
0.0
 10
50.05993460806648
 20
428.4432825332355
 30
0.0
 10
50.04723152084671
 20
428.4290995041412
 30
0.0
  0
SPLINE
  5
251
330
1E5
100
AcDbEntity
  8
DV3_Default
  6
Continuous
 62
     7
100
AcDbSpline
210
0.0
220
0.0
230
1.0
 70
     8
 71
     3
 72
    18
 73
    14
 74
     0
 42
0.0000000023994307
 43
0.0000000001
 40
0.0
 40
0.0
 40
0.0
 40
0.0
 40
0.066429769224142
 40
0.1745957089264524
 40
0.2752692238686881
 40
0.3651025297225887
 40
0.4450197013892387
 40
0.5846458662868175
 40
0.7001623667991064
 40
0.7994938089864119
 40
0.9001970252347222
 40
0.9504468186312797
 40
1.0
 40
1.0
 40
1.0
 40
1.0
 10
50.04723152084671
 20
428.4290995041412
 30
0.0
 10
50.02816808713207
 20
428.4078151320564
 30
0.0
 10
49.96417319989463
 20
428.3462416081263
 30
0.0
 10
49.80739338476545
 20
428.2283282832891
 30
0.0
 10
49.57270812224903
 20
428.0823610652975
 30
0.0
 10
49.30928841282028
 20
427.9417183379941
 30
0.0
 10
48.95699877257664
 20
427.7785088208821
 30
0.0
 10
48.50260220590598
 20
427.6058395004541
 30
0.0
 10
47.93105989893301
 20
427.4464664772268
 30
0.0
 10
47.35633885964656
 20
427.334634317505
 30
0.0
 10
46.85845625869128
 20
427.2768923309773
 30
0.0
 10
46.4457363151075
 20
427.2524165451113
 30
0.0
 10
46.23776952965346
 20
427.2500683495789
 30
0.0
 10
46.1345119288834
 20
427.2488999546932
 30
0.0
  0
ARC
  5
252
330
1E5
100
AcDbEntity
  8
DV3_Default
  6
Continuous
 62
     7
100
AcDbCircle
 10
51.5800122066
 20
428.5216111562
 30
0.0
 40
1.492331366649722
100
AcDbArc
 50
103.7890760386
 51
129.3123227554
  0
SPLINE
  5
253
330
1E5
100
AcDbEntity
  8
DV3_Default
  6
Continuous
 62
     7
100
AcDbSpline
210
0.0
220
0.0
230
1.0
 70
    12
 71
     3
 72
     8
 73
     4
 74
     0
 42
0.0000000149319926
 43
0.0000000001
 40
0.0
 40
0.0
 40
0.0
 40
0.0
 40
1.0
 40
1.0
 40
1.0
 40
1.0
 10
41.0447121259277
 20
429.9709336358027
 30
0.0
 41
1.018655675315773
 10
41.26118624547738
 20
429.9178413359226
 30
0.0
 41
0.9983422817982529
 10
41.46097579453527
 20
429.8182961073121
 30
0.0
 41
0.9946176990266095
 10
41.63402612178191
 20
429.6766995737796
 30
0.0
 41
1.007481927000843
  0
SPLINE
  5
254
330
1E5
100
AcDbEntity
  8
DV3_Default
  6
Continuous
 62
     7
100
AcDbSpline
210
0.0
220
0.0
230
1.0
 70
     8
 71
     3
 72
    17
 73
    13
 74
     0
 42
0.0000000023979204
 43
0.0000000001
 40
0.0
 40
0.0
 40
0.0
 40
0.0
 40
0.0562261049631476
 40
0.1132103384245417
 40
0.2341624041058628
 40
0.3693273005754968
 40
0.519928907588402
 40
0.5997758860434287
 40
0.6814405537903846
 40
0.763943486235302
 40
0.8462418653742131
 40
1.0
 40
1.0
 40
1.0
 40
1.0
 10
46.1345119288834
 20
427.2488999546932
 30
0.0
 10
46.01722093251402
 20
427.2504099400496
 30
0.0
 10
45.78105743867373
 20
427.253445252818
 30
0.0
 10
45.3001983263609
 20
427.2857229327108
 30
0.0
 10
44.68604253806107
 20
427.3687377925593
 30
0.0
 10
43.98391669620332
 20
427.5351405806587
 30
0.0
 10
43.45819146342703
 20
427.7188895450383
 30
0.0
 10
43.08156270501247
 20
427.8831124692342
 30
0.0
 10
42.82538274273357
 20
428.0114508893717
 30
0.0
 10
42.60636311321129
 20
428.1367285600128
 30
0.0
 10
42.37587004122332
 20
428.287422301097
 30
0.0
 10
42.26503174658573
 20
428.3808879988542
 30
0.0
 10
42.22054129114385
 20
428.4303630836976
 30
0.0
  0
SPLINE
  5
255
330
1E5
100
AcDbEntity
  8
DV3_Default
  6
Continuous
 62
     7
100
AcDbSpline
210
0.0
220
0.0
230
1.0
 70
     8
 71
     3
 72
    10
 73
     6
 74
     0
 42
0.000000099825215
 43
0.0000000001
 40
0.0
 40
0.0
 40
0.0
 40
0.0
 40
0.0515344782687745
 40
0.7385186155410174
 40
1.0
 40
1.0
 40
1.0
 40
1.0
 10
42.22054129114385
 20
428.4303630836976
 30
0.0
 10
42.21891446323693
 20
428.4321721784332
 30
0.0
 10
42.19613194269767
 20
428.4578790167768
 30
0.0
 10
42.17561479065645
 20
428.4883972082086
 30
0.0
 10
42.17445690968418
 20
428.5095011341517
 30
0.0
 10
42.17497752358056
 20
428.5149595406883
 30
0.0
  0
SPLINE
  5
256
330
1E5
100
AcDbEntity
  8
DV3_Default
  6
Continuous
 62
     7
100
AcDbSpline
210
0.0
220
0.0
230
1.0
 70
     8
 71
     3
 72
    17
 73
    13
 74
     0
 42
0.0000000015962335
 43
0.0000000001
 40
0.0
 40
0.0
 40
0.0
 40
0.0
 40
0.092058194182307
 40
0.1806612871965612
 40
0.2658136615795961
 40
0.3475192340682337
 40
0.4257814480208302
 40
0.5006032694268174
 40
0.5719871786852305
 40
0.7150949886338188
 40
0.8588501090245579
 40
1.0
 40
1.0
 40
1.0
 40
1.0
 10
46.13450917741546
 20
424.4407711702916
 30
0.0
 10
45.87657090415303
 20
424.4386803985899
 30
0.0
 10
45.37037515947549
 20
424.4347886369396
 30
0.0
 10
44.63718693631588
 20
424.4008233852855
 30
0.0
 10
43.95315679666358
 20
424.3496712755456
 30
0.0
 10
43.324356290712
 20
424.282361446695
 30
0.0
 10
42.75450907286385
 20
424.2022989816215
 30
0.0
 10
42.24543220197295
 20
424.1123355959933
 30
0.0
 10
41.63937664485568
 20
423.9802742578718
 30
0.0
 10
40.9930076881814
 20
423.794628334085
 30
0.0
 10
40.41556626889012
 20
423.5413396687287
 30
0.0
 10
40.1725845888546
 20
423.3544325359975
 30
0.0
 10
40.08923651145273
 20
423.2599475668868
 30
0.0
  0
SPLINE
  5
257
330
1E5
100
AcDbEntity
  8
DV3_Default
  6
Continuous
 62
     7
100
AcDbSpline
210
0.0
220
0.0
230
1.0
 70
     8
 71
     3
 72
    16
 73
    12
 74
     0
 42
0.0000000015955997
 43
0.0000000001
 40
0.0
 40
0.0
 40
0.0
 40
0.0
 40
0.087956689820534
 40
0.1653735297703777
 40
0.2322512502534559
 40
0.2885900450562116
 40
0.4313567848655122
 40
0.5741423141532003
 40
0.7174777568626974
 40
0.8618391315627544
 40
1.0
 40
1.0
 40
1.0
 40
1.0
 10
46.13450917741546
 20
424.4407711702916
 30
0.0
 10
46.38099224208862
 20
424.4391171978417
 30
0.0
 10
46.8444171354781
 20
424.4357734716602
 30
0.0
 10
47.48630360295803
 20
424.4083870109268
 30
0.0
 10
48.0284776949388
 20
424.3727433799976
 30
0.0
 10
48.72761383429684
 20
424.3106164315649
 30
0.0
 10
49.5785703189319
 20
424.2013208575951
 30
0.0
 10
50.51680666536467
 20
424.0149840330839
 30
0.0
 10
51.29040739621585
 20
423.7908528621532
 30
0.0
 10
51.86089033256017
 20
423.5384069913598
 30
0.0
 10
52.09997862687941
 20
423.3529522442856
 30
0.0
 10
52.1814167096557
 20
423.2604325083514
 30
0.0
  0
SPLINE
  5
258
330
1E5
100
AcDbEntity
  8
DV3_Default
  6
Continuous
 62
     7
100
AcDbSpline
210
0.0
220
0.0
230
1.0
 70
     8
 71
     3
 72
    18
 73
    14
 74
     0
 42
0.000000001435942
 43
0.0000000001
 40
0.0
 40
0.0
 40
0.0
 40
0.0
 40
0.0789625260228682
 40
0.1414311285559141
 40
0.1873947978968664
 40
0.2168464840563974
 40
0.2297816299269811
 40
0.3430591729353089
 40
0.4563486775558519
 40
0.5698462425275035
 40
0.6844163848922155
 40
0.9124983797722316
 40
1.0
 40
1.0
 40
1.0
 40
1.0
 10
46.13450798163919
 20
423.8602062674117
 30
0.0
 10
46.4151348583779
 20
423.8573018335806
 30
0.0
 10
46.91774241969227
 20
423.8520996456966
 30
0.0
 10
47.57251046855535
 20
423.8201332641517
 30
0.0
 10
48.04327382796419
 20
423.7870219302578
 30
0.0
 10
48.33850064300236
 20
423.761028444049
 30
0.0
 10
48.85129552328794
 20
423.7109102796589
 30
0.0
 10
49.60712505288624
 20
423.6140247564529
 30
0.0
 10
50.55013219507185
 20
423.4332607953945
 30
0.0
 10
51.32838918200017
 20
423.2044329219175
 30
0.0
 10
52.10496675193136
 20
422.8565174090849
 30
0.0
 10
52.42653105364302
 20
422.4906692665632
 30
0.0
 10
52.3487713607115
 20
422.2182958229489
 30
0.0
 10
52.30422949179811
 20
422.1435243159917
 30
0.0
  0
SPLINE
  5
259
330
1E5
100
AcDbEntity
  8
DV3_Default
  6
Continuous
 62
     7
100
AcDbSpline
210
0.0
220
0.0
230
1.0
 70
     8
 71
     3
 72
    18
 73
    14
 74
     0
 42
0.0000000014431658
 43
0.0000000001
 40
0.0
 40
0.0
 40
0.0
 40
0.0
 40
0.0842164975414023
 40
0.1980076897884816
 40
0.312295483076114
 40
0.5394950251662245
 40
0.6530554639917792
 40
0.7685073590792292
 40
0.782237066440893
 40
0.8122568787276433
 40
0.8585622857493487
 40
0.9211464097853221
 40
1.0
 40
1.0
 40
1.0
 40
1.0
 10
39.96702696277374
 20
422.1422907845508
 30
0.0
 10
39.92338706673882
 20
422.2147072193148
 30
0.0
 10
39.87116332726639
 20
422.3863142093766
 30
0.0
 10
39.9836624624461
 20
422.6515583790716
 30
0.0
 10
40.45405974539776
 20
423.024061007138
 30
0.0
 10
41.37449116871018
 20
423.3639408337111
 30
0.0
 10
42.630826167649
 20
423.6111828193058
 30
0.0
 10
43.39593554220331
 20
423.7085065805919
 30
0.0
 10
43.92001312287154
 20
423.7600788612969
 30
0.0
 10
44.22089774161241
 20
423.7866470720037
 30
0.0
 10
44.69524356137771
 20
423.8200491928931
 30
0.0
 10
45.35141934015789
 20
423.8520639234423
 30
0.0
 10
45.8541902623614
 20
423.8572575181928
 30
0.0
 10
46.13449240178117
 20
423.8602064286603
 30
0.0
  0
SPLINE
  5
25A
330
1E5
100
AcDbEntity
  8
DV3_Default
  6
Continuous
 62
     7
100
AcDbSpline
210
0.0
220
0.0
230
1.0
 70
     8
 71
     3
 72
    16
 73
    12
 74
     0
 42
0.0000000017087859
 43
0.0000000001
 40
0.0
 40
0.0
 40
0.0
 40
0.0
 40
0.1428856277107968
 40
0.2493589744927221
 40
0.3561418807932824
 40
0.4627248796983345
 40
0.5688432679880219
 40
0.6749413587247157
 40
0.7832127022498
 40
0.8744621405758566
 40
1.0
 40
1.0
 40
1.0
 40
1.0
 10
41.25856067078345
 20
420.7252011455935
 30
0.0
 10
41.13842012117473
 20
420.8293674942295
 30
0.0
 10
41.02520664670293
 20
421.0190083126992
 30
0.0
 10
41.1285316573552
 20
421.2841841689581
 30
0.0
 10
41.4133718708859
 20
421.5131568243985
 30
0.0
 10
41.8747971068901
 20
421.7280977000386
 30
0.0
 10
42.49819285862392
 20
421.917199226108
 30
0.0
 10
43.26752436294377
 20
422.0703672698664
 30
0.0
 10
44.10718334275528
 20
422.177418969826
 30
0.0
 10
45.06960107482274
 20
422.2574348715956
 30
0.0
 10
45.74397939502614
 20
422.269667926403
 30
0.0
 10
46.13450048018269
 20
422.2767633229172
 30
0.0
  0
SPLINE
  5
25B
330
1E5
100
AcDbEntity
  8
DV3_Default
  6
Continuous
 62
     7
100
AcDbSpline
210
0.0
220
0.0
230
1.0
 70
     8
 71
     3
 72
    18
 73
    14
 74
     0
 42
0.0000000017166939
 43
0.0000000001
 40
0.0
 40
0.0
 40
0.0
 40
0.0
 40
0.07965877366739
 40
0.1471662473988858
 40
0.202527800451231
 40
0.2457460445097008
 40
0.3666264930494442
 40
0.4865418737337411
 40
0.6683594038158608
 40
0.7600786409677313
 40
0.8516895063846017
 40
0.9585649439761212
 40
1.0
 40
1.0
 40
1.0
 40
1.0
 10
46.13450048018269
 20
422.2767633229172
 30
0.0
 10
46.38096612480941
 20
422.2736804327994
 30
0.0
 10
46.83630107871454
 20
422.2680060597308
 30
0.0
 10
47.45017794322293
 20
422.2344428900363
 30
0.0
 10
47.93817115709194
 20
422.1950015154332
 30
0.0
 10
48.56048746353317
 20
422.1294166857997
 30
0.0
 10
49.31287330278826
 20
422.0193855774232
 30
0.0
 10
50.24610662464146
 20
421.7948604768953
 30
0.0
 10
50.85005135407577
 20
421.5300333144815
 30
0.0
 10
51.14387802982601
 20
421.2687157255745
 30
0.0
 10
51.2282952674432
 20
421.0534041434879
 30
0.0
 10
51.15946337794133
 20
420.873040890964
 30
0.0
 10
51.05516798438782
 20
420.7642889956654
 30
0.0
 10
51.02136686803673
 20
420.734239049667
 30
0.0
  0
SPLINE
  5
25C
330
1E5
100
AcDbEntity
  8
DV3_Default
  6
Continuous
 62
     7
100
AcDbSpline
210
0.0
220
0.0
230
1.0
 70
    12
 71
     3
 72
     8
 73
     4
 74
     0
 42
0.0000000017588854
 43
0.0000000001
 40
0.0
 40
0.0
 40
0.0
 40
0.0
 40
1.0
 40
1.0
 40
1.0
 40
1.0
 10
46.13452563599071
 20
421.8292671236335
 30
0.0
 41
1.0
 10
48.57066465308206
 20
421.8290297737645
 30
0.0
 41
0.6663989632158572
 10
51.00491788260744
 20
421.4364773828335
 30
0.0
 41
0.4997954972524857
 10
50.99723927935475
 20
420.6529373384888
 30
0.0
 41
0.5001896021098855
  0
SPLINE
  5
25D
330
1E5
100
AcDbEntity
  8
DV3_Default
  6
Continuous
 62
     7
100
AcDbSpline
210
0.0
220
0.0
230
1.0
 70
    12
 71
     3
 72
     8
 73
     4
 74
     0
 42
0.0000000017591982
 43
0.0000000001
 40
0.0
 40
0.0
 40
0.0
 40
0.0
 40
1.0
 40
1.0
 40
1.0
 40
1.0
 10
41.2717855966714
 20
420.652911991382
 30
0.0
 41
0.5049089160494938
 10
41.2642306108201
 20
421.4352726812417
 30
0.0
 41
0.5029410626798756
 10
43.69271852518028
 20
421.8290336382816
 30
0.0
 41
0.667971423996711
 10
46.13452563599071
 20
421.8292671236335
 30
0.0
 41
1.0
  0
SPLINE
  5
25E
330
1E5
100
AcDbEntity
  8
DV3_Default
  6
Continuous
 62
     7
100
AcDbSpline
210
0.0
220
0.0
230
1.0
 70
     8
 71
     3
 72
    17
 73
    13
 74
     0
 42
0.0000000015204501
 43
0.0000000001
 40
0.0
 40
0.0
 40
0.0
 40
0.0
 40
0.0013345401202245
 40
0.1115273982279767
 40
0.2374850206015764
 40
0.3640472887959166
 40
0.4901982543848386
 40
0.6159463520124547
 40
0.7478451680005062
 40
0.8078710244947938
 40
0.8801414556155877
 40
1.0
 40
1.0
 40
1.0
 40
1.0
 10
40.41796939132161
 20
357.655379068746
 30
0.0
 10
40.41707381212185
 20
357.6564707955615
 30
0.0
 10
40.34267392977927
 20
357.7477269583275
 30
0.0
 10
40.26325726511524
 20
357.9456558343788
 30
0.0
 10
40.40657299451208
 20
358.2429122926709
 30
0.0
 10
40.8387968546135
 20
358.538612191619
 30
0.0
 10
41.52935020954624
 20
358.8101359614893
 30
0.0
 10
42.46282530722652
 20
359.0364321308617
 30
0.0
 10
43.39370176780305
 20
359.1755929593126
 30
0.0
 10
44.23128160709923
 20
359.2573644212185
 30
0.0
 10
45.06390475714849
 20
359.3179188579277
 30
0.0
 10
45.72320888215877
 20
359.3286373984843
 30
0.0
 10
46.13451192767479
 20
359.3353089128191
 30
0.0
  0
SPLINE
  5
25F
330
1E5
100
AcDbEntity
  8
DV3_Default
  6
Continuous
 62
     7
100
AcDbSpline
210
0.0
220
0.0
230
1.0
 70
     8
 71
     3
 72
    15
 73
    11
 74
     0
 42
0.0000000023319484
 43
0.0000000001
 40
0.0
 40
0.0
 40
0.0
 40
0.0
 40
0.1328780351454631
 40
0.2414339205192318
 40
0.3495126393586188
 40
0.5624690424478375
 40
0.6697875972695909
 40
0.77991857341486
 40
0.882356240017155
 40
1.0
 40
1.0
 40
1.0
 40
1.0
 10
42.51907482768261
 20
354.2849627232329
 30
0.0
 10
42.44357709112834
 20
354.3559778049164
 30
0.0
 10
42.37046486550324
 20
354.4892618293765
 30
0.0
 10
42.44397198769784
 20
354.6785483548883
 30
0.0
 10
42.72110522092402
 20
354.9021818489839
 30
0.0
 10
43.26421883488551
 20
355.1079208453981
 30
0.0
 10
44.01513060726428
 20
355.2569578497447
 30
0.0
 10
44.65444310799954
 20
355.3392014225769
 30
0.0
 10
45.36955208805123
 20
355.3968655220872
 30
0.0
 10
45.86805087375419
 20
355.4054431138046
 30
0.0
 10
46.13451303167808
 20
355.4101323958479
 30
0.0
  0
SPLINE
  5
260
330
1E5
100
AcDbEntity
  8
DV3_Default
  6
Continuous
 62
     7
100
AcDbSpline
210
0.0
220
0.0
230
1.0
 70
     8
 71
     3
 72
    16
 73
    12
 74
     0
 42
0.0000000023181966
 43
0.0000000001
 40
0.0
 40
0.0
 40
0.0
 40
0.0
 40
0.0940720681406573
 40
0.1765521865900524
 40
0.2474486975396317
 40
0.3691160477641154
 40
0.488607394786152
 40
0.6713946928633618
 40
0.8541836167614945
 40
0.9623559381977774
 40
1.0
 40
1.0
 40
1.0
 40
1.0
 10
46.13451303167808
 20
355.4101323958479
 30
0.0
 10
46.34818315857542
 20
355.4069548750539
 30
0.0
 10
46.74919399408794
 20
355.401187654936
 30
0.0
 10
47.29547034487407
 20
355.365993165145
 30
0.0
 10
47.87448783821052
 20
355.3090016747104
 30
0.0
 10
48.48010060970358
 20
355.2201404237005
 30
0.0
 10
49.16650476508655
 20
355.0546274939421
 30
0.0
 10
49.71413020643973
 20
354.8166076180385
 30
0.0
 10
49.90919248660437
 20
354.5598464411645
 30
0.0
 10
49.83983752188974
 20
354.3780993703692
 30
0.0
 10
49.76608365461026
 20
354.299534506359
 30
0.0
 10
49.74421240334583
 20
354.2794487828724
 30
0.0
  0
SPLINE
  5
261
330
1E5
100
AcDbEntity
  8
DV3_Default
  6
Continuous
 62
     7
100
AcDbSpline
210
0.0
220
0.0
230
1.0
 70
     8
 71
     3
 72
    20
 73
    16
 74
     0
 42
0.0000000015227671
 43
0.0000000001
 40
0.0
 40
0.0
 40
0.0
 40
0.0
 40
0.0709987131118114
 40
0.1314045405170985
 40
0.1812175640564071
 40
0.2204374039678086
 40
0.2490632252161464
 40
0.3168541187157721
 40
0.3846558655218038
 40
0.5035763775080402
 40
0.6886168151418162
 40
0.7927038944538027
 40
0.8851726577258178
 40
0.9960443100087013
 40
1.0
 40
1.0
 40
1.0
 40
1.0
 10
46.13451192767479
 20
359.3353089128191
 30
0.0
 10
46.37781500659074
 20
359.3326994011579
 30
0.0
 10
46.82812076411901
 20
359.3278790806474
 30
0.0
 10
47.43987494855259
 20
359.2991382435299
 30
0.0
 10
47.93281618563589
 20
359.2649650232247
 30
0.0
 10
48.3109531393397
 20
359.230786469634
 30
0.0
 10
48.73635553263624
 20
359.1857852872421
 30
0.0
 10
49.23171462290442
 20
359.1215160234385
 30
0.0
 10
49.94435142449312
 20
359.0020020458979
 30
0.0
 10
50.85325774849629
 20
358.7836196332377
 30
0.0
 10
51.55651151956849
 20
358.480245113072
 30
0.0
 10
51.89924695999886
 20
358.1779118650617
 30
0.0
 10
51.9949071284881
 20
357.9255514351731
 30
0.0
 10
51.92948140633665
 20
357.7527375841599
 30
0.0
 10
51.85380404658743
 20
357.6587279765305
 30
0.0
 10
51.85115036106307
 20
357.655491591117
 30
0.0
  0
SPLINE
  5
262
330
1E5
100
AcDbEntity
  8
DV3_Default
  6
Continuous
 62
     7
100
AcDbSpline
210
0.0
220
0.0
230
1.0
 70
    12
 71
     3
 72
    12
 73
     8
 74
     0
 42
0.0000000036202492
 43
0.0000000001
 40
0.0
 40
0.0
 40
0.0
 40
0.0
 40
0.1241197309429512
 40
0.3594679052464669
 40
0.5956128700828588
 40
0.8320965711028669
 40
1.0
 40
1.0
 40
1.0
 40
1.0
 10
43.40276146800991
 20
471.1010702070649
 30
0.0
 41
1.217507178350787
 10
43.47564918896455
 20
471.1220813463516
 30
0.0
 41
1.217507178350787
 10
43.70691963493364
 20
471.1837125801285
 30
0.0
 41
1.217507178350787
 10
44.17868015528747
 20
471.2833516171988
 30
0.0
 41
1.217507178350787
 10
44.84680413041072
 20
471.3793933982615
 30
0.0
 41
1.217507178350787
 10
45.51545666529147
 20
471.4319633674708
 30
0.0
 41
1.217507178350787
 10
45.9530584028714
 20
471.4418968876111
 30
0.0
 41
1.217507178350787
 10
46.13451192538035
 20
471.4419219170452
 30
0.0
 41
1.217507178350787
  0
ARC
  5
263
330
1E5
100
AcDbEntity
  8
DV3_Default
  6
Continuous
 62
     7
100
AcDbCircle
 10
46.1382312519
 20
451.0647875304
 30
0.0
 40
25.72368961779646
100
AcDbArc
 50
0.0002016338
 51
90.0083599761
  0
ARC
  5
264
330
1E5
100
AcDbEntity
  8
DV3_Default
  6
Continuous
 62
     7
100
AcDbCircle
 10
46.1298245694
 20
451.065678455
 30
0.0
 40
25.72279884033442
100
AcDbArc
 50
89.9896349537
 51
179.9986901868
  0
ARC
  5
265
330
1E5
100
AcDbEntity
  8
DV3_Default
  6
Continuous
 62
     7
100
AcDbCircle
 10
46.1391976297
 20
451.0653543813
 30
0.0
 40
25.72272324422116
100
AcDbArc
 50
280.0731437775
 51
359.9989390161
  0
ARC
  5
266
330
1E5
100
AcDbEntity
  8
DV3_Default
  6
Continuous
 62
     7
100
AcDbCircle
 10
46.1307175674
 20
451.0663231044
 30
0.0
 40
25.72369183167775
100
AcDbArc
 50
180.0001260952
 51
259.9253847371
  0
ARC
  5
267
330
1E5
100
AcDbEntity
  8
DV3_Default
  6
Continuous
 62
     7
100
AcDbCircle
 10
51.6838122505
 20
428.4101075715
 30
0.0
 40
1.636684732163594
100
AcDbArc
 50
129.6684956701
 51
179.9363462813
  0
SPLINE
  5
268
330
1E5
100
AcDbEntity
  8
DV3_Default
  6
Continuous
 62
     7
100
AcDbSpline
210
0.0
220
0.0
230
1.0
 70
     8
 71
     3
 72
     9
 73
     5
 74
     0
 42
0.0000000714448199
 43
0.0000000001
 40
0.0
 40
0.0
 40
0.0
 40
0.0
 40
0.3714677010994525
 40
1.0
 40
1.0
 40
1.0
 40
1.0
 10
41.53353253713322
 20
429.771931817851
 30
0.0
 10
41.53129887825081
 20
429.7689136098688
 30
0.0
 10
41.54109730476608
 20
429.7526878166166
 30
0.0
 10
41.59150259827999
 20
429.7107445348985
 30
0.0
 10
41.63186799691494
 20
429.678465519787
 30
0.0
  0
ARC
  5
269
330
1E5
100
AcDbEntity
  8
DV3_Default
  6
Continuous
 62
     7
100
AcDbCircle
 10
40.5879167716
 20
428.4128500117
 30
0.0
 40
1.632883970393629
100
AcDbArc
 50
0.0098637197
 51
50.3543391458
  0
ARC
  5
26A
330
1E5
100
AcDbEntity
  8
DV3_Default
  6
Continuous
 62
     7
100
AcDbCircle
 10
34.2825968479
 20
428.60387259
 30
0.0
 40
7.889653496400997
100
AcDbArc
 50
317.1011055596
 51
359.3110235006
  0
ARC
  5
26B
330
1E5
100
AcDbEntity
  8
DV3_Default
  6
Continuous
 62
     7
100
AcDbCircle
 10
57.9927448007
 20
428.6078221458
 30
0.0
 40
7.896970248430179
100
AcDbArc
 50
180.718757309
 51
222.8886839462
  0
ARC
  5
26C
330
1E5
100
AcDbEntity
  8
DV3_Default
  6
Continuous
 62
     7
100
AcDbCircle
 10
51.5054619596
 20
422.6206768851
 30
0.0
 40
0.9304289325189152
100
AcDbArc
 50
328.7337968668
 51
43.7732388142
  0
ARC
  5
26D
330
1E5
100
AcDbEntity
  8
DV3_Default
  6
Continuous
 62
     7
100
AcDbCircle
 10
40.7625354228
 20
422.6209595469
 30
0.0
 40
0.9294142729987194
100
AcDbArc
 50
136.1792414944
 51
211.307900914
  0
ARC
  5
26E
330
1E5
100
AcDbEntity
  8
DV3_Default
  6
Continuous
 62
     7
100
AcDbCircle
 10
43.9551934287
 20
424.4717111781
 30
0.0
 40
4.621862318558502
100
AcDbArc
 50
210.0996177448
 51
234.319735525
  0
ARC
  5
26F
330
1E5
100
AcDbEntity
  8
DV3_Default
  6
Continuous
 62
     7
100
AcDbCircle
 10
48.3084333081
 20
424.4767753006
 30
0.0
 40
4.629072745931235
100
AcDbArc
 50
305.7128002393
 51
329.88094105
  0
SPLINE
  5
270
330
1E5
100
AcDbEntity
  8
DV3_Default
  6
Continuous
 62
     7
100
AcDbSpline
210
0.0
220
0.0
230
1.0
 70
     8
 71
     3
 72
    10
 73
     6
 74
     0
 42
0.00000010687348
 43
0.0000000001
 40
0.0
 40
0.0
 40
0.0
 40
0.0
 40
0.2804488664623297
 40
0.7394267931084169
 40
1.0
 40
1.0
 40
1.0
 40
1.0
 10
50.99723670650873
 20
420.6526411442343
 30
0.0
 10
50.99835207606972
 20
420.6683523515049
 30
0.0
 10
51.00040054053012
 20
420.7022026870617
 30
0.0
 10
51.014317901557
 20
420.7368980484579
 30
0.0
 10
51.01773961547118
 20
420.7420695229325
 30
0.0
 10
51.01758030393174
 20
420.7417897489037
 30
0.0
  0
SPLINE
  5
271
330
1E5
100
AcDbEntity
  8
DV3_Default
  6
Continuous
 62
     7
100
AcDbSpline
210
0.0
220
0.0
230
1.0
 70
     8
 71
     3
 72
    10
 73
     6
 74
     0
 42
0.0000001056935663
 43
0.0000000001
 40
0.0
 40
0.0
 40
0.0
 40
0.0
 40
0.1054215983341983
 40
0.5076118044257573
 40
1.0
 40
1.0
 40
1.0
 40
1.0
 10
41.25135917297307
 20
420.7418534644007
 30
0.0
 10
41.25131639224347
 20
420.7419056075946
 30
0.0
 10
41.25229554251762
 20
420.7403680817566
 30
0.0
 10
41.26456716372586
 20
420.7189634046263
 30
0.0
 10
41.26848224008609
 20
420.678838881425
 30
0.0
 10
41.27179632610023
 20
420.6513027302582
 30
0.0
  0
SPLINE
  5
272
330
1E5
100
AcDbEntity
  8
DV3_Default
  6
Continuous
 62
     7
100
AcDbSpline
210
0.0
220
0.0
230
1.0
 70
     8
 71
     3
 72
    38
 73
    34
 74
     0
 42
0.0000000001560069
 43
0.0000000001
 40
0.0
 40
0.0
 40
0.0
 40
0.0
 40
0.0214667630789262
 40
0.0774643199656747
 40
0.1327505592569817
 40
0.1853990010156487
 40
0.2354601023131383
 40
0.2852400225644043
 40
0.3342588650143508
 40
0.3822649739827161
 40
0.4310746025309236
 40
0.482134838374102
 40
0.5367030315734493
 40
0.6021569001652208
 40
0.6421945520026192
 40
0.6767412801466673
 40
0.7066350241930222
 40
0.7333558668994975
 40
0.7576666847095926
 40
0.7801070327488098
 40
0.801061698086657
 40
0.8228993781963515
 40
0.8434515915362851
 40
0.8629265469972368
 40
0.8814555297184936
 40
0.899162495134334
 40
0.9161606531311666
 40
0.9325222338015582
 40
0.948232775848271
 40
0.9633096765117116
 40
0.9777893255794473
 40
0.9917198393748672
 40
1.0
 40
1.0
 40
1.0
 40
1.0
 10
41.26937160065503
 20
420.6527195636468
 30
0.0
 10
41.27431251178602
 20
420.1510459759509
 30
0.0
 10
41.28851479262504
 20
418.6081004404903
 30
0.0
 10
41.27209950166025
 20
415.7097727467275
 30
0.0
 10
41.19446855389106
 20
412.2535270774512
 30
0.0
 10
41.05593593742495
 20
408.894116863181
 30
0.0
 10
40.86166854564158
 20
405.6630224105379
 30
0.0
 10
40.61536157007708
 20
402.5112642358836
 30
0.0
 10
40.31529913966223
 20
399.4095468668144
 30
0.0
 10
39.96063996789962
 20
396.3345612859559
 30
0.0
 10
39.54965431465335
 20
393.2230075969553
 30
0.0
 10
39.07094369734168
 20
389.9804718837258
 30
0.0
 10
38.49550461108689
 20
386.3934436698626
 30
0.0
 10
37.93883554537258
 20
383.0362474942898
 30
0.0
 10
37.47704185909947
 20
380.0882646622292
 30
0.0
 10
37.16575026532499
 20
377.8789875319514
 30
0.0
 10
36.93473462007309
 20
375.9416308136736
 30
0.0
 10
36.77390085911432
 20
374.2133818190358
 30
0.0
 10
36.67409068174867
 20
372.637596269171
 30
0.0
 10
36.62971401838758
 20
371.1805367230667
 30
0.0
 10
36.63726471231305
 20
369.7737075569292
 30
0.0
 10
36.70016593082075
 20
368.4067572169931
 30
0.0
 10
36.82259608636565
 20
367.0742214195326
 30
0.0
 10
36.99904722840255
 20
365.8184706968864
 30
0.0
 10
37.22715957272122
 20
364.6324943707708
 30
0.0
 10
37.50484003723238
 20
363.5113197486165
 30
0.0
 10
37.83008980667226
 20
362.4514113631215
 30
0.0
 10
38.20047108159712
 20
361.4516539327307
 30
0.0
 10
38.61280707793961
 20
360.5139467041625
 30
0.0
 10
39.06487397887884
 20
359.637292480885
 30
0.0
 10
39.54968677035961
 20
358.8321667316566
 30
0.0
 10
40.01348851780332
 20
358.1582178156533
 30
0.0
 10
40.29901996065832
 20
357.8092590490604
 30
0.0
 10
40.42493397592775
 20
357.6563488874635
 30
0.0
  0
SPLINE
  5
273
330
1E5
100
AcDbEntity
  8
DV3_Default
  6
Continuous
 62
     7
100
AcDbSpline
210
0.0
220
0.0
230
1.0
 70
     8
 71
     3
 72
    14
 73
    10
 74
     0
 42
0.0000000028473582
 43
0.0000000001
 40
0.0
 40
0.0
 40
0.0
 40
0.0
 40
0.1884201551042708
 40
0.4373446010712874
 40
0.6237184162058708
 40
0.7615307666106209
 40
0.8639535820595237
 40
0.9424858388933468
 40
1.0
 40
1.0
 40
1.0
 40
1.0
 10
40.3959585281945
 20
357.6822083943032
 30
0.0
 10
40.55542966210101
 20
357.4863234731834
 30
0.0
 10
40.86672439902164
 20
357.1010848387556
 30
0.0
 10
41.33217091431499
 20
356.48190163953
 30
0.0
 10
41.7148033485986
 20
355.9140135410517
 30
0.0
 10
41.97016980647564
 20
355.4776359489949
 30
0.0
 10
42.1279464319298
 20
355.1529279884667
 30
0.0
 10
42.22045975730632
 20
354.9065204546753
 30
0.0
 10
42.24648440822351
 20
354.7924630906228
 30
0.0
 10
42.25899474064013
 20
354.7358720372744
 30
0.0
  0
ARC
  5
274
330
1E5
100
AcDbEntity
  8
DV3_Default
  6
Continuous
 62
     7
100
AcDbCircle
 10
43.0646320015
 20
354.8949689591
 30
0.0
 40
0.8188261212350305
100
AcDbArc
 50
190.9464676739
 51
229.3351954451
  0
ARC
  5
275
330
1E5
100
AcDbEntity
  8
DV3_Default
  6
Continuous
 62
     7
100
AcDbCircle
 10
46.3039014972
 20
358.0245319334
 30
0.0
 40
5.322516912209906
100
AcDbArc
 50
224.3916942376
 51
268.176248823
  0
ARC
  5
276
330
1E5
100
AcDbEntity
  8
DV3_Default
  6
Continuous
 62
     7
100
AcDbCircle
 10
45.9736343448
 20
358.0051558287
 30
0.0
 40
5.302885598843911
100
AcDbArc
 50
271.7384914092
 51
315.6935662016
  0
ARC
  5
277
330
1E5
100
AcDbEntity
  8
DV3_Default
  6
Continuous
 62
     7
100
AcDbCircle
 10
49.200084956
 20
354.8974678011
 30
0.0
 40
0.8235311709243988
100
AcDbArc
 50
310.774642894
 51
348.9397324942
  0
SPLINE
  5
278
330
1E5
100
AcDbEntity
  8
DV3_Default
  6
Continuous
 62
     7
100
AcDbSpline
210
0.0
220
0.0
230
1.0
 70
     8
 71
     3
 72
    14
 73
    10
 74
     0
 42
0.0000000028396494
 43
0.0000000001
 40
0.0
 40
0.0
 40
0.0
 40
0.0
 40
0.0476393953193649
 40
0.1208664823564077
 40
0.2119184994949254
 40
0.3319984354297104
 40
0.4925362621349548
 40
0.7068216807016026
 40
1.0
 40
1.0
 40
1.0
 40
1.0
 10
50.00832090756923
 20
354.7264340630354
 30
0.0
 10
50.01786741890195
 20
354.7726907666986
 30
0.0
 10
50.0392106365973
 20
354.8727839014638
 30
0.0
 10
50.11523662404189
 20
355.0902506297289
 30
0.0
 10
50.2487023553823
 20
355.3804058837821
 30
0.0
 10
50.46214202251073
 20
355.7634378573044
 30
0.0
 10
50.78274487253599
 20
356.2603724852647
 30
0.0
 10
51.26666719230386
 20
356.9293829510162
 30
0.0
 10
51.62463801202917
 20
357.3757483706559
 30
0.0
 10
51.87306710333851
 20
357.682210557153
 30
0.0
  0
SPLINE
  5
279
330
1E5
100
AcDbEntity
  8
DV3_Default
  6
Continuous
 62
     7
100
AcDbSpline
210
0.0
220
0.0
230
1.0
 70
     8
 71
     3
 72
    39
 73
    35
 74
     0
 42
0.0000000001560143
 43
0.0000000001
 40
0.0
 40
0.0
 40
0.0
 40
0.0
 40
0.0027821803619195
 40
0.0158293734833566
 40
0.0292241538244399
 40
0.0431186792384457
 40
0.0575494291202165
 40
0.0725487842824094
 40
0.0881393170292837
 40
0.1043363584671394
 40
0.1211689984321129
 40
0.1386682760626392
 40
0.1569212141727991
 40
0.1760208239736688
 40
0.1960668006328745
 40
0.2171863833295914
 40
0.2396150236409293
 40
0.2637125192640638
 40
0.2899021245826534
 40
0.3187921471805689
 40
0.3513090879638319
 40
0.3894424005012228
 40
0.437114632585639
 40
0.5060782528460539
 40
0.5588999282270185
 40
0.609211527170824
 40
0.657142320509322
 40
0.7040856649463724
 40
0.7550292399355449
 40
0.80623903643433
 40
0.8576799345014817
 40
0.9086307534994957
 40
0.9605320411804349
 40
1.0
 40
1.0
 40
1.0
 40
1.0
 10
51.84875864357605
 20
357.6558125723412
 30
0.0
 10
51.89139292325333
 20
357.7069143741788
 30
0.0
 10
52.09885528318738
 20
357.9562476723053
 30
0.0
 10
52.48629326711122
 20
358.4854609623272
 30
0.0
 10
52.95886253111988
 20
359.2161885747632
 30
0.0
 10
53.40342971355113
 20
360.0097768590296
 30
0.0
 10
53.81373798551262
 20
360.857012492198
 30
0.0
 10
54.18894844611218
 20
361.7607110768238
 30
0.0
 10
54.52612275559731
 20
362.7192195950278
 30
0.0
 10
54.82283287351345
 20
363.7320487963999
 30
0.0
 10
55.0764509235214
 20
364.7983920385466
 30
0.0
 10
55.28516706983584
 20
365.9188436293737
 30
0.0
 10
55.44752091890866
 20
367.0953886003688
 30
0.0
 10
55.56212141429241
 20
368.3315481885344
 30
0.0
 10
55.62727897920312
 20
369.6318415277054
 30
0.0
 10
55.64140032433853
 20
371.0035451715868
 30
0.0
 10
55.60307359115006
 20
372.4597420286729
 30
0.0
 10
55.50992510534873
 20
374.0199495296353
 30
0.0
 10
55.35820950726144
 20
375.7117200415292
 30
0.0
 10
55.1421613552593
 20
377.574507096691
 30
0.0
 10
54.85205274638907
 20
379.6809489803438
 30
0.0
 10
54.4677361012942
 20
382.1736593639136
 30
0.0
 10
53.93570422242874
 20
385.4228630457505
 30
0.0
 10
53.3535326523185
 20
388.9747954911513
 30
0.0
 10
52.80907332345672
 20
392.5864760952782
 30
0.0
 10
52.37982963582327
 20
395.7637142473787
 30
0.0
 10
52.0174171499126
 20
398.8238113101728
 30
0.0
 10
51.70795053078492
 20
401.9032801817748
 30
0.0
 10
51.44968905741911
 20
405.0588093211838
 30
0.0
 10
51.2435955925951
 20
408.3127553311946
 30
0.0
 10
51.09809350116182
 20
411.57692424494
 30
0.0
 10
51.01240891906951
 20
414.8343118627877
 30
0.0
 10
50.97940073076715
 20
417.924859029732
 30
0.0
 10
50.99309683516928
 20
419.7304132109881
 30
0.0
 10
51.00100108029285
 20
420.6527583297155
 30
0.0
  0
ENDBLK
  5
27B
330
1E5
100
AcDbEntity
  8
0
100
AcDbBlockEnd
  0
ENDSEC
  0
SECTION
  2
ENTITIES
  0
INSERT
  5
5F
330
1F
100
AcDbEntity
  8
Default
100
AcDbBlockReference
  2
SEANNOT_GROUP
 10
0.0
 20
0.0
 30
0.0
  0
INSERT
  5
66
330
1F
100
AcDbEntity
  8
Default
100
AcDbBlockReference
  2
SEANNOT_GROUP1
 10
0.0
 20
0.0
 30
0.0
  0
INSERT
  5
6C
330
1F
100
AcDbEntity
  8
Default
100
AcDbBlockReference
  2
SEANNOT_GROUP2
 10
0.0
 20
0.0
 30
0.0
  0
INSERT
  5
72
330
1F
100
AcDbEntity
  8
Default
100
AcDbBlockReference
  2
SEANNOT_GROUP3
 10
0.0
 20
0.0
 30
0.0
  0
INSERT
  5
78
330
1F
100
AcDbEntity
  8
Default
100
AcDbBlockReference
  2
SEANNOT_GROUP4
 10
0.0
 20
0.0
 30
0.0
  0
POINT
  5
7D
330
1F
100
AcDbEntity
  8
Default
  6
Continuous
 62
     7
100
AcDbPoint
 10
46.1343488614
 20
319.4983439818
 30
0.0
  0
INSERT
  5
7F
330
1F
100
AcDbEntity
  8
Default
100
AcDbBlockReference
  2
SEANNOT_GROUP5
 10
0.0
 20
0.0
 30
0.0
  0
INSERT
  5
85
330
1F
100
AcDbEntity
  8
Default
100
AcDbBlockReference
  2
SE
 10
0.0
 20
0.0
 30
0.0
  0
INSERT
  5
146
330
1F
100
AcDbEntity
  8
Default
100
AcDbBlockReference
  2
SE1
 10
0.0
 20
0.0
 30
0.0
  0
INSERT
  5
1E6
330
1F
100
AcDbEntity
  8
Default
100
AcDbBlockReference
  2
SE2
 10
0.0
 20
0.0
 30
0.0
  0
TEXT
  5
27D
330
1F
100
AcDbEntity
  8
Default
  6
Continuous
 62
     7
100
AcDbText
 10
5.9362635081
 20
53.4225120485
 30
0.0
 40
10.0
  1
Grohe AG^J
  7
SEACAD_seiso_ttf
 11
5.9362635081
 21
63.4225120485
 31
0.0
100
AcDbText
 73
     3
  0
TEXT
  5
27E
330
1F
100
AcDbEntity
  8
Default
  6
Continuous
 62
     7
100
AcDbText
 10
5.9362635081
 20
37.0588756849
 30
0.0
 40
10.0
  1
 
  7
SEACAD_seiso_ttf
 11
5.9362635081
 21
47.0588756849
 31
0.0
100
AcDbText
 73
     3
  0
TEXT
  5
27F
330
1F
100
AcDbEntity
  8
Default
  6
Continuous
 62
     7
100
AcDbText
 10
5.9362635081
 20
20.6952393213
 30
0.0
 40
10.0
  1
ecn:
  7
SEACAD_seiso_ttf
 11
5.9362635081
 21
30.6952393213
 31
0.0
100
AcDbText
 73
     3
  0
TEXT
  5
280
330
1F
100
AcDbEntity
  8
Default
  6
Continuous
 62
     7
100
AcDbText
 10
5.9362635081
 20
4.3316029576
 30
0.0
 40
10.0
  1
unit: mm
  7
SEACAD_seiso_ttf
 11
5.9362635081
 21
14.3316029576
 31
0.0
100
AcDbText
 73
     3
  0
LINE
  5
281
330
1F
100
AcDbEntity
  8
Default
  6
Continuous
 62
     7
100
AcDbLine
 10
0.0
 20
0.0
 30
0.0
 11
100.0
 21
0.0
 31
0.0
  0
LINE
  5
282
330
1F
100
AcDbEntity
  8
Default
  6
Continuous
 62
     7
100
AcDbLine
 10
0.0
 20
0.0
 30
0.0
 11
0.0
 21
100.0
 31
0.0
  0
TEXT
  5
283
330
1F
100
AcDbEntity
  8
Default
  6
Continuous
 62
     7
100
AcDbText
 10
24.3923665681
 20
-18.2375342018
 30
0.0
 40
10.0
  1
100 mm
  7
SEACAD_seiso_ttf
 11
24.3923665681
 21
-8.2375342018
 31
0.0
100
AcDbText
 73
     3
  0
TEXT
  5
284
330
1F
100
AcDbEntity
  8
Default
  6
Continuous
 62
     7
100
AcDbText
 10
-7.6150308803
 20
24.6231930421
 30
0.0
 40
10.0
  1
100 mm
 50
90.0
  7
SEACAD_seiso_ttf
 11
-17.6150308803
 21
24.6231930421
 31
0.0
100
AcDbText
 73
     3
  0
TEXT
  5
285
330
1F
100
AcDbEntity
  8
Default
  6
Continuous
 62
     7
100
AcDbText
 10
28.4878128572
 20
20.0907663715
 30
0.0
 40
10.0
  1
228793
  7
SEACAD_seiso_ttf
 11
28.4878128572
 21
30.0907663715
 31
0.0
100
AcDbText
 73
     3
  0
TEXT
  5
286
330
1F
100
AcDbEntity
  8
Default
  6
Continuous
 62
     7
100
AcDbText
 10
5.9012241913
 20
36.7242780188
 30
0.0
 40
10.0
  1
23399000
  7
SEACAD_seiso_ttf
 11
5.9012241913
 21
46.7242780188
 31
0.0
100
AcDbText
 73
     3
  0
ENDSEC
  0
SECTION
  2
OBJECTS
  0
DICTIONARY
  5
C
330
0
100
AcDbDictionary
281
     1
  3
ACAD_GROUP
350
D
  3
ACAD_LAYOUT
350
1A
  3
ACAD_MLEADERSTYLE
350
28A
  3
ACAD_MLINESTYLE
350
17
  3
ACAD_PLOTSETTINGS
350
19
  3
ACAD_PLOTSTYLENAME
350
E
  3
ACAD_SCALELIST
350
3B
  3
ACAD_TABLESTYLE
350
289
  3
ACAD_VISUALSTYLE
350
2A
  3
AcDbVariableDictionary
350
287
  0
DICTIONARY
  5
D
102
{ACAD_REACTORS
330
C
102
}
330
C
100
AcDbDictionary
281
     1
  0
DICTIONARY
  5
1A
102
{ACAD_REACTORS
330
C
102
}
330
C
100
AcDbDictionary
281
     1
  3
Layout1
350
1E
  3
Model
350
22
  0
DICTIONARY
  5
28A
102
{ACAD_REACTORS
330
C
102
}
330
C
100
AcDbDictionary
281
     1
  0
DICTIONARY
  5
17
102
{ACAD_REACTORS
330
C
102
}
330
C
100
AcDbDictionary
281
     1
  3
Standard
350
18
  0
DICTIONARY
  5
19
102
{ACAD_REACTORS
330
C
102
}
330
C
100
AcDbDictionary
281
     1
  0
ACDBDICTIONARYWDFLT
  5
E
102
{ACAD_REACTORS
330
C
102
}
330
C
100
AcDbDictionary
281
     1
  3
Normal
350
F
100
AcDbDictionaryWithDefault
340
F
  0
DICTIONARY
  5
3B
102
{ACAD_REACTORS
330
C
102
}
330
C
100
AcDbDictionary
281
     1
  3
A0
350
3C
  3
A1
350
3D
  3
A2
350
3E
  3
A3
350
3F
  3
A4
350
40
  3
A5
350
41
  3
A6
350
42
  3
A7
350
43
  3
A8
350
44
  3
A9
350
45
  3
B0
350
46
  3
B1
350
47
  3
B2
350
48
  3
B3
350
49
  3
B4
350
4A
  3
B5
350
4B
  3
B6
350
4C
  3
B7
350
4D
  3
B8
350
4E
  3
B9
350
4F
  3
C0
350
50
  3
C1
350
51
  3
C2
350
52
  3
C3
350
53
  3
C4
350
54
  3
C5
350
55
  3
C6
350
56
  3
C7
350
57
  3
C8
350
58
  3
C9
350
59
  3
D0
350
5A
  3
D1
350
5B
  3
D2
350
5C
  0
DICTIONARY
  5
289
102
{ACAD_REACTORS
330
C
102
}
330
C
100
AcDbDictionary
281
     1
  0
DICTIONARY
  5
2A
102
{ACAD_REACTORS
330
C
102
}
330
C
100
AcDbDictionary
281
     1
  3
2dWireframe
350
2F
  3
3D Hidden
350
31
  3
3dWireframe
350
30
  3
Basic
350
32
  3
Brighten
350
36
  3
ColorChange
350
3A
  3
Conceptual
350
34
  3
Dim
350
35
  3
Facepattern
350
39
  3
Flat
350
2B
  3
FlatWithEdges
350
2C
  3
Gouraud
350
2D
  3
GouraudWithEdges
350
2E
  3
Linepattern
350
38
  3
Realistic
350
33
  3
Thicken
350
37
  0
DICTIONARY
  5
287
102
{ACAD_REACTORS
330
C
102
}
330
C
100
AcDbDictionary
281
     1
  3
CANNOSCALE
350
288
  3
PSOLHEIGHT
350
28C
  3
PSOLWIDTH
350
28B
  0
LAYOUT
  5
1E
102
{ACAD_REACTORS
330
1A
102
}
330
1A
100
AcDbPlotSettings
  1

  2
none_device
  4

  6

 40
0.0
 41
0.0
 42
0.0
 43
0.0
 44
0.0
 45
0.0
 46
0.0
 47
0.0
 48
0.0
 49
0.0
140
0.0
141
0.0
142
1.0
143
1.0
 70
   688
 72
     0
 73
     0
 74
     5
  7

 75
    16
147
1.0
148
0.0
149
0.0
100
AcDbLayout
  1
Layout1
 70
     1
 71
     1
 10
0.0
 20
0.0
 11
3000.0
 21
4500.0
 12
0.0
 22
0.0
 32
0.0
 14
0.0
 24
0.0
 34
0.0
 15
3000.0
 25
4500.0
 35
0.0
146
0.0
 13
0.0
 23
0.0
 33
0.0
 16
1.0
 26
0.0
 36
0.0
 17
0.0
 27
1.0
 37
0.0
 76
     0
330
1B
  0
LAYOUT
  5
22
102
{ACAD_REACTORS
330
1A
102
}
330
1A
100
AcDbPlotSettings
  1

  2
none_device
  4

  6

 40
0.0
 41
0.0
 42
0.0
 43
0.0
 44
0.0
 45
0.0
 46
0.0
 47
0.0
 48
0.0
 49
0.0
140
0.0
141
0.0
142
1.0
143
1.0
 70
  1712
 72
     0
 73
     0
 74
     0
  7

 75
     0
147
1.0
148
0.0
149
0.0
100
AcDbLayout
  1
Model
 70
     1
 71
     0
 10
0.0
 20
0.0
 11
3000.0
 21
4500.0
 12
0.0
 22
0.0
 32
0.0
 14
0.0
 24
0.0
 34
0.0
 15
3000.0
 25
4500.0
 35
0.0
146
0.0
 13
0.0
 23
0.0
 33
0.0
 16
1.0
 26
0.0
 36
0.0
 17
0.0
 27
1.0
 37
0.0
 76
     0
330
1F
331
29
  0
MLINESTYLE
  5
18
102
{ACAD_REACTORS
330
17
102
}
330
17
100
AcDbMlineStyle
  2
Standard
 70
     0
  3

 62
   256
 51
90.0
 52
90.0
 71
     2
 49
0.5
 62
   256
  6
BYLAYER
 49
-0.5
 62
   256
  6
BYLAYER
  0
ACDBPLACEHOLDER
  5
F
102
{ACAD_REACTORS
330
E
102
}
330
E
  0
SCALE
  5
3C
102
{ACAD_REACTORS
330
3B
102
}
330
3B
100
AcDbScale
 70
     0
300
1:1
140
1.0
141
1.0
290
     1
  0
SCALE
  5
3D
102
{ACAD_REACTORS
330
3B
102
}
330
3B
100
AcDbScale
 70
     0
300
1:2
140
1.0
141
2.0
290
     0
  0
SCALE
  5
3E
102
{ACAD_REACTORS
330
3B
102
}
330
3B
100
AcDbScale
 70
     0
300
1:4
140
1.0
141
4.0
290
     0
  0
SCALE
  5
3F
102
{ACAD_REACTORS
330
3B
102
}
330
3B
100
AcDbScale
 70
     0
300
1:5
140
1.0
141
5.0
290
     0
  0
SCALE
  5
40
102
{ACAD_REACTORS
330
3B
102
}
330
3B
100
AcDbScale
 70
     0
300
1:8
140
1.0
141
8.0
290
     0
  0
SCALE
  5
41
102
{ACAD_REACTORS
330
3B
102
}
330
3B
100
AcDbScale
 70
     0
300
1:10
140
1.0
141
10.0
290
     0
  0
SCALE
  5
42
102
{ACAD_REACTORS
330
3B
102
}
330
3B
100
AcDbScale
 70
     0
300
1:16
140
1.0
141
16.0
290
     0
  0
SCALE
  5
43
102
{ACAD_REACTORS
330
3B
102
}
330
3B
100
AcDbScale
 70
     0
300
1:20
140
1.0
141
20.0
290
     0
  0
SCALE
  5
44
102
{ACAD_REACTORS
330
3B
102
}
330
3B
100
AcDbScale
 70
     0
300
1:30
140
1.0
141
30.0
290
     0
  0
SCALE
  5
45
102
{ACAD_REACTORS
330
3B
102
}
330
3B
100
AcDbScale
 70
     0
300
1:40
140
1.0
141
40.0
290
     0
  0
SCALE
  5
46
102
{ACAD_REACTORS
330
3B
102
}
330
3B
100
AcDbScale
 70
     0
300
1:50
140
1.0
141
50.0
290
     0
  0
SCALE
  5
47
102
{ACAD_REACTORS
330
3B
102
}
330
3B
100
AcDbScale
 70
     0
300
1:100
140
1.0
141
100.0
290
     0
  0
SCALE
  5
48
102
{ACAD_REACTORS
330
3B
102
}
330
3B
100
AcDbScale
 70
     0
300
2:1
140
2.0
141
1.0
290
     0
  0
SCALE
  5
49
102
{ACAD_REACTORS
330
3B
102
}
330
3B
100
AcDbScale
 70
     0
300
4:1
140
4.0
141
1.0
290
     0
  0
SCALE
  5
4A
102
{ACAD_REACTORS
330
3B
102
}
330
3B
100
AcDbScale
 70
     0
300
8:1
140
8.0
141
1.0
290
     0
  0
SCALE
  5
4B
102
{ACAD_REACTORS
330
3B
102
}
330
3B
100
AcDbScale
 70
     0
300
10:1
140
10.0
141
1.0
290
     0
  0
SCALE
  5
4C
102
{ACAD_REACTORS
330
3B
102
}
330
3B
100
AcDbScale
 70
     0
300
100:1
140
100.0
141
1.0
290
     0
  0
SCALE
  5
4D
102
{ACAD_REACTORS
330
3B
102
}
330
3B
100
AcDbScale
 70
     0
300
1/128" = 1'-0"
140
0.0078125
141
12.0
290
     0
  0
SCALE
  5
4E
102
{ACAD_REACTORS
330
3B
102
}
330
3B
100
AcDbScale
 70
     0
300
1/64" = 1'-0"
140
0.015625
141
12.0
290
     0
  0
SCALE
  5
4F
102
{ACAD_REACTORS
330
3B
102
}
330
3B
100
AcDbScale
 70
     0
300
1/32" = 1'-0"
140
0.03125
141
12.0
290
     0
  0
SCALE
  5
50
102
{ACAD_REACTORS
330
3B
102
}
330
3B
100
AcDbScale
 70
     0
300
1/16" = 1'-0"
140
0.0625
141
12.0
290
     0
  0
SCALE
  5
51
102
{ACAD_REACTORS
330
3B
102
}
330
3B
100
AcDbScale
 70
     0
300
3/32" = 1'-0"
140
0.09375
141
12.0
290
     0
  0
SCALE
  5
52
102
{ACAD_REACTORS
330
3B
102
}
330
3B
100
AcDbScale
 70
     0
300
1/8" = 1'-0"
140
0.125
141
12.0
290
     0
  0
SCALE
  5
53
102
{ACAD_REACTORS
330
3B
102
}
330
3B
100
AcDbScale
 70
     0
300
3/16" = 1'-0"
140
0.1875
141
12.0
290
     0
  0
SCALE
  5
54
102
{ACAD_REACTORS
330
3B
102
}
330
3B
100
AcDbScale
 70
     0
300
1/4" = 1'-0"
140
0.25
141
12.0
290
     0
  0
SCALE
  5
55
102
{ACAD_REACTORS
330
3B
102
}
330
3B
100
AcDbScale
 70
     0
300
3/8" = 1'-0"
140
0.375
141
12.0
290
     0
  0
SCALE
  5
56
102
{ACAD_REACTORS
330
3B
102
}
330
3B
100
AcDbScale
 70
     0
300
1/2" = 1'-0"
140
0.5
141
12.0
290
     0
  0
SCALE
  5
57
102
{ACAD_REACTORS
330
3B
102
}
330
3B
100
AcDbScale
 70
     0
300
3/4" = 1'-0"
140
0.75
141
12.0
290
     0
  0
SCALE
  5
58
102
{ACAD_REACTORS
330
3B
102
}
330
3B
100
AcDbScale
 70
     0
300
1" = 1'-0"
140
1.0
141
12.0
290
     0
  0
SCALE
  5
59
102
{ACAD_REACTORS
330
3B
102
}
330
3B
100
AcDbScale
 70
     0
300
1-1/2" = 1'-0"
140
1.5
141
12.0
290
     0
  0
SCALE
  5
5A
102
{ACAD_REACTORS
330
3B
102
}
330
3B
100
AcDbScale
 70
     0
300
3" = 1'-0"
140
3.0
141
12.0
290
     0
  0
SCALE
  5
5B
102
{ACAD_REACTORS
330
3B
102
}
330
3B
100
AcDbScale
 70
     0
300
6" = 1'-0"
140
6.0
141
12.0
290
     0
  0
SCALE
  5
5C
102
{ACAD_REACTORS
330
3B
102
}
330
3B
100
AcDbScale
 70
     0
300
1'-0" = 1'-0"
140
12.0
141
12.0
290
     0
  0
VISUALSTYLE
  5
2F
102
{ACAD_REACTORS
330
2A
102
}
330
2A
100
AcDbVisualStyle
  2
2dWireframe
 70
     4
 71
     0
 72
     2
 73
     0
 90
        0
 40
-0.6
 41
-30.0
 62
     5
 63
     7
 74
     1
 91
        4
 64
     7
 65
   257
 75
     1
175
     1
 42
1.0
 92
        0
 66
   257
 43
1.0
 76
     1
 77
     6
 78
     2
 67
     7
 79
     5
170
     0
171
     0
290
     0
174
     0
 93
        1
 44
0.0
173
     0
291
     0
 45
0.0
1001
ACAD
1000
AcDbSavedByObjectVersion
1070
     0
  0
VISUALSTYLE
  5
31
102
{ACAD_REACTORS
330
2A
102
}
330
2A
100
AcDbVisualStyle
  2
3D Hidden
 70
     6
 71
     1
 72
     2
 73
     2
 90
        0
 40
-0.6
 41
-30.0
 62
     5
 63
     7
 74
     2
 91
        2
 64
     7
 65
   257
 75
     2
175
     1
 42
40.0
 92
        0
 66
   257
 43
1.0
 76
     1
 77
     6
 78
     2
 67
     7
 79
     3
170
     0
171
     0
290
     0
174
     0
 93
        1
 44
0.0
173
     0
291
     0
 45
0.0
1001
ACAD
1000
AcDbSavedByObjectVersion
1070
     0
  0
VISUALSTYLE
  5
30
102
{ACAD_REACTORS
330
2A
102
}
330
2A
100
AcDbVisualStyle
  2
3dWireframe
 70
     5
 71
     0
 72
     2
 73
     0
 90
        0
 40
-0.6
 41
-30.0
 62
     5
 63
     7
 74
     1
 91
        4
 64
     7
 65
   257
 75
     1
175
     1
 42
1.0
 92
        0
 66
   257
 43
1.0
 76
     1
 77
     6
 78
     2
 67
     7
 79
     5
170
     0
171
     0
290
     0
174
     0
 93
        1
 44
0.0
173
     0
291
     0
 45
0.0
1001
ACAD
1000
AcDbSavedByObjectVersion
1070
     0
  0
VISUALSTYLE
  5
32
102
{ACAD_REACTORS
330
2A
102
}
330
2A
100
AcDbVisualStyle
  2
Basic
 70
     7
 71
     1
 72
     0
 73
     1
 90
        0
 40
-0.6
 41
-30.0
 62
     5
 63
     7
 74
     0
 91
        4
 64
     7
 65
   257
 75
     1
175
     1
 42
1.0
 92
        8
 66
     7
 43
1.0
 76
     1
 77
     6
 78
     2
 67
     7
 79
     5
170
     0
171
     0
290
     0
174
     0
 93
        1
 44
0.0
173
     0
291
     1
 45
0.0
1001
ACAD
1000
AcDbSavedByObjectVersion
1070
     0
  0
VISUALSTYLE
  5
36
102
{ACAD_REACTORS
330
2A
102
}
330
2A
100
AcDbVisualStyle
  2
Brighten
 70
    12
 71
     2
 72
     2
 73
     0
 90
        0
 40
-0.6
 41
-30.0
 62
     5
 63
     7
 74
     1
 91
        4
 64
     7
 65
   257
 75
     1
175
     1
 42
1.0
 92
        8
 66
     7
 43
1.0
 76
     1
 77
     6
 78
     2
 67
     7
 79
     5
170
     0
171
     0
290
     0
174
     0
 93
        1
 44
50.0
173
     0
291
     1
 45
0.0
1001
ACAD
1000
AcDbSavedByObjectVersion
1070
     0
  0
VISUALSTYLE
  5
3A
102
{ACAD_REACTORS
330
2A
102
}
330
2A
100
AcDbVisualStyle
  2
ColorChange
 70
    16
 71
     2
 72
     2
 73
     3
 90
        0
 40
-0.6
 41
-30.0
 62
     5
 63
     8
 74
     1
 91
        4
 64
     7
 65
   257
 75
     1
175
     1
 42
1.0
 92
        8
 66
     8
 43
1.0
 76
     1
 77
     6
 78
     2
 67
     7
 79
     5
170
     0
171
     0
290
     0
174
     0
 93
        1
 44
0.0
173
     0
291
     1
 45
0.0
1001
ACAD
1000
AcDbSavedByObjectVersion
1070
     0
  0
VISUALSTYLE
  5
34
102
{ACAD_REACTORS
330
2A
102
}
330
2A
100
AcDbVisualStyle
  2
Conceptual
 70
     9
 71
     3
 72
     2
 73
     0
 90
        0
 40
-0.6
 41
-30.0
 62
     5
 63
     7
 74
     2
 91
        2
 64
     7
 65
   257
 75
     1
175
     1
 42
40.0
 92
        8
 66
     7
 43
1.0
 76
     1
 77
     6
 78
     2
 67
     7
 79
     3
170
     0
171
     0
290
     0
174
     0
 93
        1
 44
0.0
173
     0
291
     0
 45
0.0
1001
ACAD
1000
AcDbSavedByObjectVersion
1070
     0
  0
VISUALSTYLE
  5
35
102
{ACAD_REACTORS
330
2A
102
}
330
2A
100
AcDbVisualStyle
  2
Dim
 70
    11
 71
     2
 72
     2
 73
     0
 90
        0
 40
-0.6
 41
-30.0
 62
     5
 63
     7
 74
     1
 91
        4
 64
     7
 65
   257
 75
     1
175
     1
 42
1.0
 92
        8
 66
     7
 43
1.0
 76
     1
 77
     6
 78
     2
 67
     7
 79
     5
170
     0
171
     0
290
     0
174
     0
 93
        1
 44
-50.0
173
     0
291
     1
 45
0.0
1001
ACAD
1000
AcDbSavedByObjectVersion
1070
     0
  0
VISUALSTYLE
  5
39
102
{ACAD_REACTORS
330
2A
102
}
330
2A
100
AcDbVisualStyle
  2
Facepattern
 70
    15
 71
     2
 72
     2
 73
     0
 90
        0
 40
-0.6
 41
-30.0
 62
     5
 63
     7
 74
     1
 91
        4
 64
     7
 65
   257
 75
     1
175
     1
 42
1.0
 92
        8
 66
     7
 43
1.0
 76
     1
 77
     6
 78
     2
 67
     7
 79
     5
170
     0
171
     0
290
     0
174
     0
 93
        1
 44
0.0
173
     0
291
     1
 45
0.0
1001
ACAD
1000
AcDbSavedByObjectVersion
1070
     0
  0
VISUALSTYLE
  5
2B
102
{ACAD_REACTORS
330
2A
102
}
330
2A
100
AcDbVisualStyle
  2
Flat
 70
     0
 71
     2
 72
     1
 73
     1
 90
        2
 40
-0.6
 41
30.0
 62
     5
 63
     7
 74
     0
 91
        4
 64
     7
 65
   257
 75
     1
175
     1
 42
1.0
 92
        8
 66
     7
 43
1.0
 76
     1
 77
     6
 78
     2
 67
     7
 79
     5
170
     0
171
     0
290
     0
174
     0
 93
       13
 44
0.0
173
     0
291
     1
 45
0.0
1001
ACAD
1000
AcDbSavedByObjectVersion
1070
     0
  0
VISUALSTYLE
  5
2C
102
{ACAD_REACTORS
330
2A
102
}
330
2A
100
AcDbVisualStyle
  2
FlatWithEdges
 70
     1
 71
     2
 72
     1
 73
     1
 90
        2
 40
-0.6
 41
30.0
 62
     5
 63
     7
 74
     1
 91
        4
 64
     7
 65
   257
 75
     1
175
     1
 42
1.0
 92
        0
 66
   257
 43
1.0
 76
     1
 77
     6
 78
     2
 67
     7
 79
     5
170
     0
171
     0
290
     0
174
     0
 93
       13
 44
0.0
173
     0
291
     1
 45
0.0
1001
ACAD
1000
AcDbSavedByObjectVersion
1070
     0
  0
VISUALSTYLE
  5
2D
102
{ACAD_REACTORS
330
2A
102
}
330
2A
100
AcDbVisualStyle
  2
Gouraud
 70
     2
 71
     2
 72
     2
 73
     1
 90
        2
 40
-0.6
 41
30.0
 62
     5
 63
     7
 74
     0
 91
        4
 64
     7
 65
   257
 75
     1
175
     1
 42
1.0
 92
        0
 66
     7
 43
1.0
 76
     1
 77
     6
 78
     2
 67
     7
 79
     5
170
     0
171
     0
290
     0
174
     0
 93
       13
 44
0.0
173
     0
291
     1
 45
0.0
1001
ACAD
1000
AcDbSavedByObjectVersion
1070
     0
  0
VISUALSTYLE
  5
2E
102
{ACAD_REACTORS
330
2A
102
}
330
2A
100
AcDbVisualStyle
  2
GouraudWithEdges
 70
     3
 71
     2
 72
     2
 73
     1
 90
        2
 40
-0.6
 41
30.0
 62
     5
 63
     7
 74
     1
 91
        4
 64
     7
 65
   257
 75
     1
175
     1
 42
1.0
 92
        0
 66
   257
 43
1.0
 76
     1
 77
     6
 78
     2
 67
     7
 79
     5
170
     0
171
     0
290
     0
174
     0
 93
       13
 44
0.0
173
     0
291
     1
 45
0.0
1001
ACAD
1000
AcDbSavedByObjectVersion
1070
     0
  0
VISUALSTYLE
  5
38
102
{ACAD_REACTORS
330
2A
102
}
330
2A
100
AcDbVisualStyle
  2
Linepattern
 70
    14
 71
     2
 72
     2
 73
     0
 90
        0
 40
-0.6
 41
-30.0
 62
     5
 63
     7
 74
     1
 91
        4
 64
     7
 65
   257
 75
     7
175
     7
 42
1.0
 92
        8
 66
     7
 43
1.0
 76
     1
 77
     6
 78
     2
 67
     7
 79
     5
170
     0
171
     0
290
     0
174
     0
 93
        1
 44
0.0
173
     0
291
     1
 45
0.0
1001
ACAD
1000
AcDbSavedByObjectVersion
1070
     0
  0
VISUALSTYLE
  5
33
102
{ACAD_REACTORS
330
2A
102
}
330
2A
100
AcDbVisualStyle
  2
Realistic
 70
     8
 71
     2
 72
     2
 73
     0
 90
        0
 40
-0.6
 41
-30.0
 62
     5
 63
     7
 74
     1
 91
        0
 64
     7
 65
   257
 75
     1
175
     1
 42
1.0
 92
        8
 66
     8
 43
1.0
 76
     1
 77
     6
 78
     2
 67
     7
 79
     5
170
     0
171
     0
290
     0
174
     0
 93
       13
 44
0.0
173
     0
291
     0
 45
0.0
1001
ACAD
1000
AcDbSavedByObjectVersion
1070
     0
  0
VISUALSTYLE
  5
37
102
{ACAD_REACTORS
330
2A
102
}
330
2A
100
AcDbVisualStyle
  2
Thicken
 70
    13
 71
     2
 72
     2
 73
     0
 90
        0
 40
-0.6
 41
-30.0
 62
     5
 63
     7
 74
     1
 91
        4
 64
     7
 65
   257
 75
     1
175
     1
 42
1.0
 92
       12
 66
     7
 43
1.0
 76
     1
 77
     6
 78
     2
 67
     7
 79
     5
170
     0
171
     0
290
     0
174
     0
 93
        1
 44
0.0
173
     0
291
     1
 45
0.0
1001
ACAD
1000
AcDbSavedByObjectVersion
1070
     0
  0
DICTIONARYVAR
  5
288
102
{ACAD_REACTORS
330
287
102
}
330
287
100
DictionaryVariables
280
     0
  1
1:1
  0
DICTIONARYVAR
  5
28C
102
{ACAD_REACTORS
330
287
102
}
330
287
100
DictionaryVariables
280
     0
  1
80.000000
  0
DICTIONARYVAR
  5
28B
102
{ACAD_REACTORS
330
287
102
}
330
287
100
DictionaryVariables
280
     0
  1
5.000000
  0
ENDSEC
  0
EOF
