  0
SECTION
  2
HEADER
  9
$ACADVER
  1
AC1015
  9
$ACADMAINTVER
 70
     6
  9
$DWGCODEPAGE
  3
ANSI_1252
  9
$INSBASE
 10
0.0
 20
0.0
 30
0.0
  9
$EXTMIN
 10
0.0
 20
0.0
 30
0.0
  9
$EXTMAX
 10
1682.0
 20
2378.0
 30
0.0
  9
$LIMMIN
 10
0.0
 20
0.0
  9
$LIMMAX
 10
1682.0
 20
2378.0
  9
$ORTHOMODE
 70
     0
  9
$REGENMODE
 70
     1
  9
$FILLMODE
 70
     1
  9
$QTEXTMODE
 70
     0
  9
$MIRRTEXT
 70
     1
  9
$LTSCALE
 40
1.0
  9
$ATTMODE
 70
     1
  9
$TEXTSIZE
 40
2.5
  9
$TRACEWID
 40
1.0
  9
$TEXTSTYLE
  7
Standard
  9
$CLAYER
  8
0
  9
$CELTYPE
  6
ByLayer
  9
$CECOLOR
 62
   256
  9
$CELTSCALE
 40
1.0
  9
$DISPSILH
 70
     0
  9
$DIMSCALE
 40
1.0
  9
$DIMASZ
 40
2.5
  9
$DIMEXO
 40
0.625
  9
$DIMDLI
 40
3.75
  9
$DIMRND
 40
0.0
  9
$DIMDLE
 40
0.0
  9
$DIMEXE
 40
1.25
  9
$DIMTP
 40
0.0
  9
$DIMTM
 40
0.0
  9
$DIMTXT
 40
2.5
  9
$DIMCEN
 40
2.5
  9
$DIMTSZ
 40
0.0
  9
$DIMTOL
 70
     0
  9
$DIMLIM
 70
     0
  9
$DIMTIH
 70
     0
  9
$DIMTOH
 70
     0
  9
$DIMSE1
 70
     0
  9
$DIMSE2
 70
     0
  9
$DIMTAD
 70
     1
  9
$DIMZIN
 70
     8
  9
$DIMBLK
  1

  9
$DIMASO
 70
     1
  9
$DIMSHO
 70
     1
  9
$DIMPOST
  1

  9
$DIMAPOST
  1

  9
$DIMALT
 70
     0
  9
$DIMALTD
 70
     3
  9
$DIMALTF
 40
0.0393700787
  9
$DIMLFAC
 40
1.0
  9
$DIMTOFL
 70
     1
  9
$DIMTVP
 40
0.0
  9
$DIMTIX
 70
     0
  9
$DIMSOXD
 70
     0
  9
$DIMSAH
 70
     0
  9
$DIMBLK1
  1

  9
$DIMBLK2
  1

  9
$DIMSTYLE
  2
ISO-25
  9
$DIMCLRD
 70
     0
  9
$DIMCLRE
 70
     0
  9
$DIMCLRT
 70
     0
  9
$DIMTFAC
 40
1.0
  9
$DIMGAP
 40
0.625
  9
$DIMJUST
 70
     0
  9
$DIMSD1
 70
     0
  9
$DIMSD2
 70
     0
  9
$DIMTOLJ
 70
     0
  9
$DIMTZIN
 70
     8
  9
$DIMALTZ
 70
     0
  9
$DIMALTTZ
 70
     0
  9
$DIMUPT
 70
     0
  9
$DIMDEC
 70
     2
  9
$DIMTDEC
 70
     2
  9
$DIMALTU
 70
     2
  9
$DIMALTTD
 70
     3
  9
$DIMTXSTY
  7
Standard
  9
$DIMAUNIT
 70
     0
  9
$DIMADEC
 70
     0
  9
$DIMALTRND
 40
0.0
  9
$DIMAZIN
 70
     0
  9
$DIMDSEP
 70
    44
  9
$DIMATFIT
 70
     3
  9
$DIMFRAC
 70
     0
  9
$DIMLDRBLK
  1

  9
$DIMLUNIT
 70
     2
  9
$DIMLWD
 70
    -2
  9
$DIMLWE
 70
    -2
  9
$DIMTMOVE
 70
     0
  9
$LUNITS
 70
     2
  9
$LUPREC
 70
     4
  9
$SKETCHINC
 40
1.0
  9
$FILLETRAD
 40
10.0
  9
$AUNITS
 70
     0
  9
$AUPREC
 70
     0
  9
$MENU
  1
.
  9
$ELEVATION
 40
0.0
  9
$PELEVATION
 40
0.0
  9
$THICKNESS
 40
0.0
  9
$LIMCHECK
 70
     0
  9
$CHAMFERA
 40
10.0
  9
$CHAMFERB
 40
10.0
  9
$CHAMFERC
 40
20.0
  9
$CHAMFERD
 40
0.0
  9
$SKPOLY
 70
     0
  9
$TDCREATE
 40
2455231.417579283
  9
$TDUCREATE
 40
2455231.375912616
  9
$TDUPDATE
 40
2455231.417579294
  9
$TDUUPDATE
 40
2455231.375912627
  9
$TDINDWG
 40
0.0000000116
  9
$TDUSRTIMER
 40
0.0000000116
  9
$USRTIMER
 70
     1
  9
$ANGBASE
 50
0.0
  9
$ANGDIR
 70
     0
  9
$PDMODE
 70
     0
  9
$PDSIZE
 40
0.0
  9
$PLINEWID
 40
0.0
  9
$SPLFRAME
 70
     0
  9
$SPLINETYPE
 70
     6
  9
$SPLINESEGS
 70
     8
  9
$HANDSEED
  5
E8
  9
$SURFTAB1
 70
     6
  9
$SURFTAB2
 70
     6
  9
$SURFTYPE
 70
     6
  9
$SURFU
 70
     6
  9
$SURFV
 70
     6
  9
$UCSBASE
  2

  9
$UCSNAME
  2

  9
$UCSORG
 10
0.0
 20
0.0
 30
0.0
  9
$UCSXDIR
 10
1.0
 20
0.0
 30
0.0
  9
$UCSYDIR
 10
0.0
 20
1.0
 30
0.0
  9
$UCSORTHOREF
  2

  9
$UCSORTHOVIEW
 70
     0
  9
$UCSORGTOP
 10
0.0
 20
0.0
 30
0.0
  9
$UCSORGBOTTOM
 10
0.0
 20
0.0
 30
0.0
  9
$UCSORGLEFT
 10
0.0
 20
0.0
 30
0.0
  9
$UCSORGRIGHT
 10
0.0
 20
0.0
 30
0.0
  9
$UCSORGFRONT
 10
0.0
 20
0.0
 30
0.0
  9
$UCSORGBACK
 10
0.0
 20
0.0
 30
0.0
  9
$PUCSBASE
  2

  9
$PUCSNAME
  2

  9
$PUCSORG
 10
0.0
 20
0.0
 30
0.0
  9
$PUCSXDIR
 10
1.0
 20
0.0
 30
0.0
  9
$PUCSYDIR
 10
0.0
 20
1.0
 30
0.0
  9
$PUCSORTHOREF
  2

  9
$PUCSORTHOVIEW
 70
     0
  9
$PUCSORGTOP
 10
0.0
 20
0.0
 30
0.0
  9
$PUCSORGBOTTOM
 10
0.0
 20
0.0
 30
0.0
  9
$PUCSORGLEFT
 10
0.0
 20
0.0
 30
0.0
  9
$PUCSORGRIGHT
 10
0.0
 20
0.0
 30
0.0
  9
$PUCSORGFRONT
 10
0.0
 20
0.0
 30
0.0
  9
$PUCSORGBACK
 10
0.0
 20
0.0
 30
0.0
  9
$USERI1
 70
     0
  9
$USERI2
 70
     0
  9
$USERI3
 70
     0
  9
$USERI4
 70
     0
  9
$USERI5
 70
     0
  9
$USERR1
 40
0.0
  9
$USERR2
 40
0.0
  9
$USERR3
 40
0.0
  9
$USERR4
 40
0.0
  9
$USERR5
 40
0.0
  9
$WORLDVIEW
 70
     1
  9
$SHADEDGE
 70
     3
  9
$SHADEDIF
 70
    70
  9
$TILEMODE
 70
     1
  9
$MAXACTVP
 70
    64
  9
$PINSBASE
 10
0.0
 20
0.0
 30
0.0
  9
$PLIMCHECK
 70
     0
  9
$PEXTMIN
 10
0.0
 20
0.0
 30
0.0
  9
$PEXTMAX
 10
1682.0
 20
2378.0
 30
0.0
  9
$PLIMMIN
 10
0.0
 20
0.0
  9
$PLIMMAX
 10
1682.0
 20
2378.0
  9
$UNITMODE
 70
     0
  9
$VISRETAIN
 70
     1
  9
$PLINEGEN
 70
     0
  9
$PSLTSCALE
 70
     1
  9
$TREEDEPTH
 70
  3020
  9
$CMLSTYLE
  2
Standard
  9
$CMLJUST
 70
     0
  9
$CMLSCALE
 40
20.0
  9
$PROXYGRAPHICS
 70
     1
  9
$MEASUREMENT
 70
     1
  9
$CELWEIGHT
370
    -1
  9
$ENDCAPS
280
     0
  9
$JOINSTYLE
280
     0
  9
$LWDISPLAY
290
     0
  9
$INSUNITS
 70
     4
  9
$HYPERLINKBASE
  1

  9
$STYLESHEET
  1

  9
$XEDIT
290
     1
  9
$CEPSNTYPE
380
     0
  9
$PSTYLEMODE
290
     1
  9
$FINGERPRINTGUID
  2
{CE86494B-2905-4849-86EF-25E8069CAD56}
  9
$VERSIONGUID
  2
{FAEB1C32-E019-11D5-929B-00C0DF256EC4}
  9
$EXTNAMES
290
     1
  9
$PSVPSCALE
 40
0.0
  9
$OLESTARTUP
290
     0
  0
ENDSEC
  0
SECTION
  2
CLASSES
  0
CLASS
  1
ACDBDICTIONARYWDFLT
  2
AcDbDictionaryWithDefault
  3
ObjectDBX Classes
 90
        0
280
     0
281
     0
  0
CLASS
  1
VISUALSTYLE
  2
AcDbVisualStyle
  3
ObjectDBX Classes
 90
     4095
280
     0
281
     0
  0
CLASS
  1
SCALE
  2
AcDbScale
  3
ObjectDBX Classes
 90
     1153
280
     0
281
     0
  0
CLASS
  1
DICTIONARYVAR
  2
AcDbDictionaryVar
  3
ObjectDBX Classes
 90
        0
280
     0
281
     0
  0
CLASS
  1
ACDBPLACEHOLDER
  2
AcDbPlaceHolder
  3
ObjectDBX Classes
 90
        0
280
     0
281
     0
  0
CLASS
  1
LAYOUT
  2
AcDbLayout
  3
ObjectDBX Classes
 90
        0
280
     0
281
     0
  0
ENDSEC
  0
SECTION
  2
TABLES
  0
TABLE
  2
VPORT
  5
8
330
0
100
AcDbSymbolTable
 70
     1
  0
VPORT
  5
29
330
8
100
AcDbSymbolTableRecord
100
AcDbViewportTableRecord
  2
*Active
 70
     0
 10
0.0
 20
0.0
 11
1.0
 21
1.0
 12
344.1869158879
 22
148.5
 13
0.0
 23
0.0
 14
10.0
 24
10.0
 15
10.0
 25
10.0
 16
0.0
 26
0.0
 36
1.0
 17
0.0
 27
0.0
 37
0.0
 40
297.0
 41
1.9729729729
 42
50.0
 43
0.0
 44
0.0
 50
0.0
 51
0.0
 71
     0
 72
   100
 73
     1
 74
     3
 75
     0
 76
     0
 77
     0
 78
     0
281
     0
 65
     1
110
0.0
120
0.0
130
0.0
111
1.0
121
0.0
131
0.0
112
0.0
122
1.0
132
0.0
 79
     0
146
0.0
  0
ENDTAB
  0
TABLE
  2
LTYPE
  5
5
330
0
100
AcDbSymbolTable
 70
     2
  0
LTYPE
  5
14
330
5
100
AcDbSymbolTableRecord
100
AcDbLinetypeTableRecord
  2
ByBlock
 70
     0
  3

 72
    65
 73
     0
 40
0.0
  0
LTYPE
  5
15
330
5
100
AcDbSymbolTableRecord
100
AcDbLinetypeTableRecord
  2
ByLayer
 70
     0
  3

 72
    65
 73
     0
 40
0.0
  0
LTYPE
  5
16
330
5
100
AcDbSymbolTableRecord
100
AcDbLinetypeTableRecord
  2
Continuous
 70
     0
  3
Solid line
 72
    65
 73
     0
 40
0.0
  0
LTYPE
  5
7E
330
5
100
AcDbSymbolTableRecord
100
AcDbLinetypeTableRecord
  2
CENTER2
 70
     0
  3
Center (.5x) ___ _ ___ _ ___ _ ___ _ ___ _ ___
 72
    65
 73
     4
 40
28.575
 49
19.05
 74
     4
 75
     0
340
0
 46
0.0
 50
0.0
 44
0.0
 45
0.0
 49
-3.175
 74
     4
 75
     0
340
0
 46
0.0
 50
0.0
 44
0.0
 45
0.0
 49
3.175
 74
     4
 75
     0
340
0
 46
0.0
 50
0.0
 44
0.0
 45
0.0
 49
-3.175
 74
     4
 75
     0
340
0
 46
0.0
 50
0.0
 44
0.0
 45
0.0
  0
ENDTAB
  0
TABLE
  2
LAYER
  5
2
330
0
100
AcDbSymbolTable
 70
     9
  0
LAYER
  5
10
330
2
100
AcDbSymbolTableRecord
100
AcDbLayerTableRecord
  2
0
 70
     0
 62
     7
  6
Continuous
370
    -3
390
F
  0
LAYER
  5
5D
330
2
100
AcDbSymbolTableRecord
100
AcDbLayerTableRecord
  2
Default
 70
     0
 62
     7
  6
Continuous
370
    -3
390
F
  0
LAYER
  5
60
330
2
100
AcDbSymbolTableRecord
100
AcDbLayerTableRecord
  2
$DDT_AUDIT_GENERATED_(60)
 70
     0
 62
     7
  6
Continuous
370
    -3
390
F
  0
LAYER
  5
6F
330
2
100
AcDbSymbolTableRecord
100
AcDbLayerTableRecord
  2
$DDT_AUDIT_GENERATED_(6F)
 70
     0
 62
     7
  6
Continuous
370
    -3
390
F
  0
LAYER
  5
7B
330
2
100
AcDbSymbolTableRecord
100
AcDbLayerTableRecord
  2
$DDT_AUDIT_GENERATED_(7B)
 70
     0
 62
     7
  6
Continuous
370
    -3
390
F
  0
LAYER
  5
7D
330
2
100
AcDbSymbolTableRecord
100
AcDbLayerTableRecord
  2
DV1_Standard
 70
     0
 62
     7
  6
Continuous
370
    -3
390
F
  0
LAYER
  5
A2
330
2
100
AcDbSymbolTableRecord
100
AcDbLayerTableRecord
  2
DV2_Standard
 70
     0
 62
     7
  6
Continuous
370
    -3
390
F
  0
LAYER
  5
A9
330
2
100
AcDbSymbolTableRecord
100
AcDbLayerTableRecord
  2
$DDT_AUDIT_GENERATED_(A9)
 70
     0
 62
     7
  6
Continuous
370
    -3
390
F
  0
LAYER
  5
D2
330
2
100
AcDbSymbolTableRecord
100
AcDbLayerTableRecord
  2
DV3_Standard
 70
     0
 62
     7
  6
Continuous
370
    -3
390
F
  0
ENDTAB
  0
TABLE
  2
STYLE
  5
3
330
0
100
AcDbSymbolTable
 70
     2
  0
STYLE
  5
11
330
3
100
AcDbSymbolTableRecord
100
AcDbTextStyleTableRecord
  2
Standard
 70
     0
 40
0.0
 41
1.0
 50
0.0
 71
     0
 42
2.5
  3
txt
  4

  0
STYLE
  5
D7
330
3
100
AcDbSymbolTableRecord
100
AcDbTextStyleTableRecord
  2
SEACAD_seiso_ttf
 70
     0
 40
0.0
 41
1.0
 50
0.0
 71
     0
 42
0.2
  3
seiso.ttf
  4

  0
ENDTAB
  0
TABLE
  2
VIEW
  5
6
330
0
100
AcDbSymbolTable
 70
     0
  0
ENDTAB
  0
TABLE
  2
UCS
  5
7
330
0
100
AcDbSymbolTable
 70
     0
  0
ENDTAB
  0
TABLE
  2
APPID
  5
9
330
0
100
AcDbSymbolTable
 70
     1
  0
APPID
  5
12
330
9
100
AcDbSymbolTableRecord
100
AcDbRegAppTableRecord
  2
ACAD
 70
     0
  0
ENDTAB
  0
TABLE
  2
DIMSTYLE
  5
A
330
0
100
AcDbSymbolTable
 70
     1
100
AcDbDimStyleTable
  0
DIMSTYLE
105
27
330
A
100
AcDbSymbolTableRecord
100
AcDbDimStyleTableRecord
  2
ISO-25
 70
     0
 41
2.5
 42
0.625
 43
3.75
 44
1.25
 73
     0
 74
     0
 77
     1
 78
     8
140
2.5
141
2.5
143
0.0393700787
147
0.625
171
     3
172
     1
271
     2
272
     2
274
     3
278
    44
283
     0
284
     8
340
11
  0
ENDTAB
  0
TABLE
  2
BLOCK_RECORD
  5
1
330
0
100
AcDbSymbolTable
 70
     4
  0
BLOCK_RECORD
  5
1F
330
1
100
AcDbSymbolTableRecord
100
AcDbBlockTableRecord
  2
*Model_Space
340
22
  0
BLOCK_RECORD
  5
1B
330
1
100
AcDbSymbolTableRecord
100
AcDbBlockTableRecord
  2
*Paper_Space
340
1E
  0
BLOCK_RECORD
  5
5E
330
1
100
AcDbSymbolTableRecord
100
AcDbBlockTableRecord
  2
SE
340
0
102
{BLKREFS
331
5F
102
}
  0
BLOCK_RECORD
  5
87
330
1
100
AcDbSymbolTableRecord
100
AcDbBlockTableRecord
  2
SE1
340
0
102
{BLKREFS
331
88
102
}
  0
BLOCK_RECORD
  5
A7
330
1
100
AcDbSymbolTableRecord
100
AcDbBlockTableRecord
  2
SE2
340
0
102
{BLKREFS
331
A8
102
}
  0
ENDTAB
  0
ENDSEC
  0
SECTION
  2
BLOCKS
  0
BLOCK
  5
20
330
1F
100
AcDbEntity
  8
0
100
AcDbBlockBegin
  2
*Model_Space
 70
     0
 10
0.0
 20
0.0
 30
0.0
  3
*Model_Space
  1

  0
ENDBLK
  5
21
330
1F
100
AcDbEntity
  8
0
100
AcDbBlockEnd
  0
BLOCK
  5
1C
330
1B
100
AcDbEntity
 67
     1
  8
0
100
AcDbBlockBegin
  2
*Paper_Space
 70
     0
 10
0.0
 20
0.0
 30
0.0
  3
*Paper_Space
  1

  0
ENDBLK
  5
1D
330
1B
100
AcDbEntity
 67
     1
  8
0
100
AcDbBlockEnd
  0
BLOCK
  5
85
330
5E
100
AcDbEntity
  8
0
100
AcDbBlockBegin
  2
SE
 70
     0
 10
0.0
 20
0.0
 30
0.0
  3
SE
  1

  0
CIRCLE
  5
61
330
5E
100
AcDbEntity
  8
$DDT_AUDIT_GENERATED_(60)
  6
Continuous
 62
     7
100
AcDbCircle
 10
31.4104492566
 20
303.2980438544
 30
0.0
 40
18.5
  0
LINE
  5
62
330
5E
100
AcDbEntity
  8
$DDT_AUDIT_GENERATED_(60)
  6
Continuous
 62
     7
100
AcDbLine
 10
40.6604492566
 20
317.2987681099
 30
0.0
 11
40.6604492566
 21
318.110156039
 31
0.0
  0
LINE
  5
63
330
5E
100
AcDbEntity
  8
$DDT_AUDIT_GENERATED_(60)
  6
Continuous
 62
     7
100
AcDbLine
 10
40.6604492566
 20
289.297319599
 30
0.0
 11
40.6604492566
 21
317.2987681099
 31
0.0
  0
LINE
  5
64
330
5E
100
AcDbEntity
  8
$DDT_AUDIT_GENERATED_(60)
  6
Continuous
 62
     7
100
AcDbLine
 10
40.6604492566
 20
288.4859316699
 30
0.0
 11
40.6604492566
 21
289.297319599
 31
0.0
  0
LINE
  5
65
330
5E
100
AcDbEntity
  8
$DDT_AUDIT_GENERATED_(60)
  6
Continuous
 62
     7
100
AcDbLine
 10
22.1604492566
 20
318.1567841063
 30
0.0
 11
22.1604492566
 21
318.110156039
 31
0.0
  0
LINE
  5
66
330
5E
100
AcDbEntity
  8
$DDT_AUDIT_GENERATED_(60)
  6
Continuous
 62
     7
100
AcDbLine
 10
22.1604492566
 20
318.110156039
 30
0.0
 11
22.1604492566
 21
317.2987681099
 31
0.0
  0
LINE
  5
67
330
5E
100
AcDbEntity
  8
$DDT_AUDIT_GENERATED_(60)
  6
Continuous
 62
     7
100
AcDbLine
 10
22.1604492566
 20
317.2987681099
 30
0.0
 11
22.1604492566
 21
289.297319599
 31
0.0
  0
LINE
  5
68
330
5E
100
AcDbEntity
  8
$DDT_AUDIT_GENERATED_(60)
  6
Continuous
 62
     7
100
AcDbLine
 10
22.1604492566
 20
289.297319599
 30
0.0
 11
22.1604492566
 21
288.4859316699
 31
0.0
  0
LINE
  5
69
330
5E
100
AcDbEntity
  8
$DDT_AUDIT_GENERATED_(60)
  6
Continuous
 62
     7
100
AcDbLine
 10
22.1604492566
 20
288.4859316699
 30
0.0
 11
22.1604492566
 21
288.4054079292
 31
0.0
  0
ARC
  5
6A
330
5E
100
AcDbEntity
  8
$DDT_AUDIT_GENERATED_(60)
  6
Continuous
 62
     7
100
AcDbCircle
 10
40.9604488979
 20
318.1101282989
 30
0.0
 40
0.300012085982
100
AcDbArc
 50
57.191212556
 51
179.994702038
  0
ARC
  5
6B
330
5E
100
AcDbEntity
  8
$DDT_AUDIT_GENERATED_(60)
  6
Continuous
 62
     7
100
AcDbCircle
 10
40.9604488979
 20
288.48595941
 30
0.0
 40
0.3000120859819783
100
AcDbArc
 50
180.005297962
 51
302.808787444
  0
ARC
  5
6C
330
5E
100
AcDbEntity
  8
$DDT_AUDIT_GENERATED_(60)
  6
Continuous
 62
     7
100
AcDbCircle
 10
21.8604492566
 20
318.1567841063
 30
0.0
 40
0.2999999999999999
100
AcDbArc
 50
0.0
 51
90.0
  0
ARC
  5
6D
330
5E
100
AcDbEntity
  8
$DDT_AUDIT_GENERATED_(60)
  6
Continuous
 62
     7
100
AcDbCircle
 10
21.8604492566
 20
318.1567841063
 30
0.0
 40
0.2999999999999999
100
AcDbArc
 50
90.0
 51
122.2558218072
  0
ARC
  5
6E
330
5E
100
AcDbEntity
  8
$DDT_AUDIT_GENERATED_(60)
  6
Continuous
 62
     7
100
AcDbCircle
 10
21.8604492566
 20
288.4054079292
 30
0.0
 40
0.3
100
AcDbArc
 50
238.1012963655
 51
0.0
  0
CIRCLE
  5
70
330
5E
100
AcDbEntity
  8
$DDT_AUDIT_GENERATED_(6F)
  6
Continuous
 62
     7
100
AcDbCircle
 10
31.4104492566
 20
303.2980438544
 30
0.0
 40
3.452443098511236
  0
LINE
  5
71
330
5E
100
AcDbEntity
  8
$DDT_AUDIT_GENERATED_(6F)
  6
Continuous
 62
     7
100
AcDbLine
 10
30.9104492566
 20
300.0235363425
 30
0.0
 11
30.9104492566
 21
300.5284510878
 31
0.0
  0
LINE
  5
72
330
5E
100
AcDbEntity
  8
$DDT_AUDIT_GENERATED_(6F)
  6
Continuous
 62
     7
100
AcDbLine
 10
30.9104492566
 20
306.0676366211
 30
0.0
 11
30.9104492566
 21
306.5725513664
 31
0.0
  0
LINE
  5
73
330
5E
100
AcDbEntity
  8
$DDT_AUDIT_GENERATED_(6F)
  6
Continuous
 62
     7
100
AcDbLine
 10
31.9104492566
 20
300.5284510878
 30
0.0
 11
31.9104492566
 21
300.0235363425
 31
0.0
  0
LINE
  5
74
330
5E
100
AcDbEntity
  8
$DDT_AUDIT_GENERATED_(6F)
  6
Continuous
 62
     7
100
AcDbLine
 10
31.9104492566
 20
306.5725513664
 30
0.0
 11
31.9104492566
 21
306.0676366211
 31
0.0
  0
LINE
  5
75
330
5E
100
AcDbEntity
  8
$DDT_AUDIT_GENERATED_(6F)
  6
Continuous
 62
     7
100
AcDbLine
 10
31.9104492566
 20
306.5725513664
 30
0.0
 11
31.9104492566
 21
306.6206515487
 31
0.0
  0
LINE
  5
76
330
5E
100
AcDbEntity
  8
$DDT_AUDIT_GENERATED_(6F)
  6
Continuous
 62
     7
100
AcDbLine
 10
31.9104492566
 20
306.0676366211
 30
0.0
 11
31.9104492566
 21
300.5284510878
 31
0.0
  0
LINE
  5
77
330
5E
100
AcDbEntity
  8
$DDT_AUDIT_GENERATED_(6F)
  6
Continuous
 62
     7
100
AcDbLine
 10
30.9104492566
 20
306.6206515487
 30
0.0
 11
30.9104492566
 21
306.5725513664
 31
0.0
  0
LINE
  5
78
330
5E
100
AcDbEntity
  8
$DDT_AUDIT_GENERATED_(6F)
  6
Continuous
 62
     7
100
AcDbLine
 10
31.9104492566
 20
299.9754361602
 30
0.0
 11
31.9104492566
 21
300.0235363425
 31
0.0
  0
LINE
  5
79
330
5E
100
AcDbEntity
  8
$DDT_AUDIT_GENERATED_(6F)
  6
Continuous
 62
     7
100
AcDbLine
 10
30.9104492566
 20
300.0235363425
 30
0.0
 11
30.9104492566
 21
299.9754361602
 31
0.0
  0
LINE
  5
7A
330
5E
100
AcDbEntity
  8
$DDT_AUDIT_GENERATED_(6F)
  6
Continuous
 62
     7
100
AcDbLine
 10
30.9104492566
 20
300.5284510878
 30
0.0
 11
30.9104492566
 21
306.0676366211
 31
0.0
  0
CIRCLE
  5
7C
330
5E
100
AcDbEntity
  8
$DDT_AUDIT_GENERATED_(7B)
  6
Continuous
 62
     7
100
AcDbCircle
 10
31.4104486364
 20
303.2980396235
 30
0.0
 40
24.99562174649566
  0
LINE
  5
7F
330
5E
100
AcDbEntity
  8
DV1_Standard
  6
CENTER2
 62
     7
100
AcDbLine
 10
51.4104481893
 20
303.2980396235
 30
0.0
 11
11.4104490834
 21
303.2980396235
 31
0.0
  0
LINE
  5
80
330
5E
100
AcDbEntity
  8
DV1_Standard
  6
CENTER2
 62
     7
100
AcDbLine
 10
31.4104486364
 20
323.2980391765
 30
0.0
 11
31.4104486364
 21
283.2980400706
 31
0.0
  0
LINE
  5
81
330
5E
100
AcDbEntity
  8
DV1_Standard
  6
CENTER2
 62
     7
100
AcDbLine
 10
56.4104480776
 20
303.2980396235
 30
0.0
 11
59.9060703828
 21
303.2980396235
 31
0.0
  0
LINE
  5
82
330
5E
100
AcDbEntity
  8
DV1_Standard
  6
CENTER2
 62
     7
100
AcDbLine
 10
31.4104486364
 20
328.2980390648
 30
0.0
 11
31.4104486364
 21
331.79366137
 31
0.0
  0
LINE
  5
83
330
5E
100
AcDbEntity
  8
DV1_Standard
  6
CENTER2
 62
     7
100
AcDbLine
 10
6.4104491951
 20
303.2980396235
 30
0.0
 11
2.9148268899
 21
303.2980396235
 31
0.0
  0
LINE
  5
84
330
5E
100
AcDbEntity
  8
DV1_Standard
  6
CENTER2
 62
     7
100
AcDbLine
 10
31.4104486364
 20
278.2980401823
 30
0.0
 11
31.4104486364
 21
274.8024178771
 31
0.0
  0
ENDBLK
  5
86
330
5E
100
AcDbEntity
  8
0
100
AcDbBlockEnd
  0
BLOCK
  5
A5
330
87
100
AcDbEntity
  8
0
100
AcDbBlockBegin
  2
SE1
 70
     0
 10
0.0
 20
0.0
 30
0.0
  3
SE1
  1

  0
ARC
  5
89
330
87
100
AcDbEntity
  8
$DDT_AUDIT_GENERATED_(60)
  6
Continuous
 62
     7
100
AcDbCircle
 10
-271.5327297067
 20
303.2980438544
 30
0.0
 40
499.9086796190104
100
AcDbArc
 50
358.3941685054
 51
1.6058314946
  0
LINE
  5
8A
330
87
100
AcDbEntity
  8
$DDT_AUDIT_GENERATED_(60)
  6
Continuous
 62
     7
100
AcDbLine
 10
167.4329290158
 20
284.8526920313
 30
0.0
 11
203.2820802331
 21
285.1655428344
 31
0.0
  0
LINE
  5
8B
330
87
100
AcDbEntity
  8
$DDT_AUDIT_GENERATED_(60)
  6
Continuous
 62
     7
100
AcDbLine
 10
201.3783563957
 20
321.4471584207
 30
0.0
 11
167.4329290158
 21
321.7433956776
 31
0.0
  0
SPLINE
  5
8C
330
87
100
AcDbEntity
  8
$DDT_AUDIT_GENERATED_(60)
  6
Continuous
 62
     7
100
AcDbSpline
210
0.0
220
0.0
230
1.0
 70
     8
 71
     3
 72
    64
 73
    60
 74
     0
 42
0.0000000004340966
 43
0.0000000001
 40
0.0
 40
0.0
 40
0.0
 40
0.0
 40
0.0236168882362479
 40
0.0475748080322853
 40
0.0717160558319964
 40
0.0954555732878764
 40
0.1186981079045333
 40
0.1413741143938411
 40
0.1634538619411255
 40
0.1849423258661675
 40
0.2035354822776867
 40
0.2231790813757421
 40
0.2426481553140218
 40
0.2619208394298073
 40
0.2809496010669227
 40
0.2997018947203067
 40
0.3181610926494061
 40
0.3363264505722147
 40
0.3542263044771827
 40
0.3720821451854652
 40
0.3905859568959878
 40
0.4096678098961282
 40
0.4293527984147789
 40
0.449641512577808
 40
0.4705070057858324
 40
0.4918891647476287
 40
0.5137059587724327
 40
0.5360833413878154
 40
0.5593412439043478
 40
0.5829580974019577
 40
0.6068630202476993
 40
0.6309618195382437
 40
0.6551470193713929
 40
0.6792875924797999
 40
0.7030731479465874
 40
0.7266453641528319
 40
0.7499461727049187
 40
0.7729055114507143
 40
0.7954750850808
 40
0.8176289503243156
 40
0.8393689823063317
 40
0.8605237542348905
 40
0.8814759574561082
 40
0.902355259140284
 40
0.9231007910619099
 40
0.9436602664994965
 40
0.9639930762655577
 40
0.984076905358872
 40
0.9890664031759668
 40
0.9916573460745927
 40
0.9938267101161156
 40
0.9940983250191189
 40
0.9942573869485422
 40
0.9944336019530191
 40
0.9948819060596633
 40
0.996026881491702
 40
0.9974546541490982
 40
0.9997696683476199
 40
1.0
 40
1.0
 40
1.0
 40
1.0
 10
222.5468151128251
 20
318.4173689336353
 30
0.0
 10
222.3628600831814
 20
318.315217586822
 30
0.0
 10
222.0493903513863
 20
318.1418955884906
 30
0.0
 10
221.5023652551448
 20
317.8535860757616
 30
0.0
 10
220.9462442867817
 20
317.5762365578751
 30
0.0
 10
220.3698317642147
 20
317.3071265517513
 30
0.0
 10
219.7851782436163
 20
317.0547170427011
 30
0.0
 10
219.1943128913336
 20
316.8216857149097
 30
0.0
 10
218.6002917403866
 20
316.6108908884561
 30
0.0
 10
218.0267478247693
 20
316.4305193543163
 30
0.0
 10
217.4620439359242
 20
316.2765064103551
 30
0.0
 10
216.9039634883438
 20
316.1493518605917
 30
0.0
 10
216.3287258552252
 20
316.0436823840429
 30
0.0
 10
215.7510035350882
 20
315.9631657856871
 30
0.0
 10
215.1741488323065
 20
315.9084245287912
 30
0.0
 10
214.6014960606389
 20
315.8798933849485
 30
0.0
 10
214.0359767311769
 20
315.8777777440057
 30
0.0
 10
213.4798947237501
 20
315.9018946357184
 30
0.0
 10
212.9332745659946
 20
315.9528162825259
 30
0.0
 10
212.3886767928122
 20
316.028688855848
 30
0.0
 10
211.8395553024266
 20
316.1292418079302
 30
0.0
 10
211.2816775382906
 20
316.2552306520956
 30
0.0
 10
210.7176287144574
 20
316.405993295762
 30
0.0
 10
210.1495139580636
 20
316.5807219772126
 30
0.0
 10
209.5801927507167
 20
316.7781232817395
 30
0.0
 10
209.013104575507
 20
316.9962263102489
 30
0.0
 10
208.4505697793358
 20
317.2336342036282
 30
0.0
 10
207.8901959084808
 20
317.4884794429078
 30
0.0
 10
207.3346875059542
 20
317.7585761823977
 30
0.0
 10
206.7881019848147
 20
318.0407406183963
 30
0.0
 10
206.2570939061765
 20
318.329672622002
 30
0.0
 10
205.7446899323991
 20
318.6214952466078
 30
0.0
 10
205.2540601817922
 20
318.9120014333173
 30
0.0
 10
204.7892927154962
 20
319.1959524513099
 30
0.0
 10
204.3534025153186
 20
319.4697480814613
 30
0.0
 10
203.9477974865034
 20
319.730939359503
 30
0.0
 10
203.5726692180993
 20
319.9778754391174
 30
0.0
 10
203.2291796771144
 20
320.2083865109286
 30
0.0
 10
202.9181373727562
 20
320.4206018756922
 30
0.0
 10
202.639908778838
 20
320.6130543673697
 30
0.0
 10
202.3949728908893
 20
320.7842491138499
 30
0.0
 10
202.1831579654155
 20
320.9334209578493
 30
0.0
 10
202.0023660497533
 20
321.0617066716978
 30
0.0
 10
201.8511998726472
 20
321.1697362115878
 30
0.0
 10
201.7298787455629
 20
321.2570356842472
 30
0.0
 10
201.6386953136777
 20
321.3230819857422
 30
0.0
 10
201.5783508416696
 20
321.3670779089096
 30
0.0
 10
201.5544919955153
 20
321.3845568473293
 30
0.0
 10
201.5502018734428
 20
321.3877345313694
 30
0.0
 10
201.5476709475297
 20
321.3895616251726
 30
0.0
 10
201.5493174270358
 20
321.3884079116573
 30
0.0
 10
201.5445239295122
 20
321.3918464026608
 30
0.0
 10
201.5418149420036
 20
321.3937505111139
 30
0.0
 10
201.5361916037784
 20
321.3976029153316
 30
0.0
 10
201.5208020252263
 20
321.4074710164032
 30
0.0
 10
201.4936348119543
 20
321.4219854278368
 30
0.0
 10
201.447065323288
 20
321.4386124582359
 30
0.0
 10
201.4050572941515
 20
321.4491581815435
 30
0.0
 10
201.3805917598461
 20
321.4464654998306
 30
0.0
 10
201.3780217372077
 20
321.446179996886
 30
0.0
  0
SPLINE
  5
8D
330
87
100
AcDbEntity
  8
$DDT_AUDIT_GENERATED_(60)
  6
Continuous
 62
     7
100
AcDbSpline
210
0.0
220
0.0
230
1.0
 70
     8
 71
     3
 72
     8
 73
     4
 74
     0
 42
0.0000000003928115
 43
0.0000000001
 40
0.0
 40
0.0
 40
0.0
 40
0.0
 40
0.0087956619758144
 40
0.0087956619758144
 40
0.0087956619758144
 40
0.0087956619758144
 10
222.5464839018604
 20
318.4173645138397
 30
0.0
 10
222.4778432978686
 20
318.3792018584286
 30
0.0
 10
222.4133390610448
 20
318.3433912725283
 30
0.0
 10
222.3506687903366
 20
318.3087616956876
 30
0.0
  0
SPLINE
  5
8E
330
87
100
AcDbEntity
  8
$DDT_AUDIT_GENERATED_(60)
  6
Continuous
 62
     7
100
AcDbSpline
210
0.0
220
0.0
230
1.0
 70
     8
 71
     3
 72
    13
 73
     9
 74
     0
 42
0.0000000019958027
 43
0.0000000001
 40
0.8821964303931753
 40
0.8821964303931753
 40
0.8821964303931753
 40
0.8821964303931753
 40
0.8984538488539187
 40
0.9190839486561055
 40
0.9395433411113104
 40
0.9597942553440377
 40
0.979803113023535
 40
0.9880951280816397
 40
0.9880951280816397
 40
0.9880951280816397
 40
0.9880951280816397
 10
201.9781104375595
 20
321.0791159973496
 30
0.0
 10
201.9363022196566
 20
321.1089098189883
 30
0.0
 10
201.8480488179022
 20
321.1719854915585
 30
0.0
 10
201.7345740778069
 20
321.2535972123038
 30
0.0
 10
201.6425600919843
 20
321.3202134651578
 30
0.0
 10
201.5798753375099
 20
321.3659166597968
 30
0.0
 10
201.5564337480602
 20
321.3830950914663
 30
0.0
 10
201.5485989469003
 20
321.3889064982608
 30
0.0
 10
201.5494210752861
 20
321.3882916539594
 30
0.0
  0
ARC
  5
8F
330
87
100
AcDbEntity
  8
$DDT_AUDIT_GENERATED_(60)
  6
Continuous
 62
     7
100
AcDbCircle
 10
222.693631832
 20
318.1567841063
 30
0.0
 40
0.3000000000000007
100
AcDbArc
 50
89.4056393058
 51
119.3887316997
  0
SPLINE
  5
90
330
87
100
AcDbEntity
  8
$DDT_AUDIT_GENERATED_(60)
  6
Continuous
 62
     7
100
AcDbSpline
210
0.0
220
0.0
230
1.0
 70
     8
 71
     3
 72
     8
 73
     4
 74
     0
 42
0.0000000022257257
 43
0.0000000001
 40
0.0
 40
0.0
 40
0.0
 40
0.0
 40
1.0
 40
1.0
 40
1.0
 40
1.0
 10
227.189418479915
 20
318.410133834655
 30
0.0
 10
225.0928371723309
 20
318.4319149410932
 30
0.0
 10
223.5952788863358
 20
318.4474532953745
 30
0.0
 10
222.6967436219299
 20
318.456748897499
 30
0.0
  0
SPLINE
  5
91
330
87
100
AcDbEntity
  8
$DDT_AUDIT_GENERATED_(60)
  6
Continuous
 62
     7
100
AcDbSpline
210
0.0
220
0.0
230
1.0
 70
     8
 71
     3
 72
    16
 73
    12
 74
     0
 42
0.0000000063359316
 43
0.0000000001
 40
0.0
 40
0.0
 40
0.0
 40
0.0
 40
0.0674776195176967
 40
0.2076300230807879
 40
0.3323962939200241
 40
0.4533818378176353
 40
0.5702613249729056
 40
0.6836542168905766
 40
0.7945641152522172
 40
0.913378822154462
 40
1.0
 40
1.0
 40
1.0
 40
1.0
 10
228.171613824763
 20
317.372327597014
 30
0.0
 10
228.1697572466547
 20
317.4111269793094
 30
0.0
 10
228.1641980396322
 20
317.5128374939864
 30
0.0
 10
228.1174424463287
 20
317.6867074339754
 30
0.0
 10
228.037682862631
 20
317.8713912351058
 30
0.0
 10
227.9334993724876
 20
318.0316413623211
 30
0.0
 10
227.8080328052624
 20
318.1669440743674
 30
0.0
 10
227.6645762647364
 20
318.2755239911664
 30
0.0
 10
227.503984186747
 20
318.3551998083018
 30
0.0
 10
227.3397094216462
 20
318.4029065310679
 30
0.0
 10
227.2391434031259
 20
318.4056126254897
 30
0.0
 10
227.1892857435384
 20
318.406398083519
 30
0.0
  0
SPLINE
  5
92
330
87
100
AcDbEntity
  8
$DDT_AUDIT_GENERATED_(60)
  6
Continuous
 62
     7
100
AcDbSpline
210
0.0
220
0.0
230
1.0
 70
     8
 71
     3
 72
    16
 73
    12
 74
     0
 42
0.0000000062921142
 43
0.0000000001
 40
0.0
 40
0.0
 40
0.0
 40
0.0
 40
0.1042815724612146
 40
0.2148976151579449
 40
0.3281468928093864
 40
0.4414791437183943
 40
0.5585532215876542
 40
0.6785089464509428
 40
0.8036610167117688
 40
0.932833936176413
 40
1.0
 40
1.0
 40
1.0
 40
1.0
 10
227.1894265708734
 20
288.1874397244113
 30
0.0
 10
227.2498256369345
 20
288.1902406082972
 30
0.0
 10
227.3553614716845
 20
288.1965119819318
 30
0.0
 10
227.5252192000154
 20
288.2493215325754
 30
0.0
 10
227.6825430194663
 20
288.3319050257958
 30
0.0
 10
227.8255291535021
 20
288.445240529707
 30
0.0
 10
227.9483879750686
 20
288.5841003302776
 30
0.0
 10
228.0496555280291
 20
288.7475099525726
 30
0.0
 10
228.1236653992632
 20
288.9295894743223
 30
0.0
 10
228.1663630089531
 20
289.09930733632
 30
0.0
 10
228.1710902766869
 20
289.1961328072269
 30
0.0
 10
228.1727291926517
 20
289.2350421674227
 30
0.0
  0
SPLINE
  5
93
330
87
100
AcDbEntity
  8
$DDT_AUDIT_GENERATED_(60)
  6
Continuous
 62
     7
100
AcDbSpline
210
0.0
220
0.0
230
1.0
 70
     8
 71
     3
 72
     8
 73
     4
 74
     0
 42
0.0000000012883984
 43
0.0000000001
 40
0.0
 40
0.0
 40
0.0
 40
0.0
 40
1.0
 40
1.0
 40
1.0
 40
1.0
 10
219.4282619332535
 20
288.1054418083235
 30
0.0
 10
223.0501355941848
 20
288.1429552157719
 30
0.0
 10
225.6371876387675
 20
288.1698101586682
 30
0.0
 10
227.1894180670015
 20
288.1860066370124
 30
0.0
  0
LINE
  5
94
330
87
100
AcDbEntity
  8
$DDT_AUDIT_GENERATED_(60)
  6
Continuous
 62
     7
100
AcDbLine
 10
219.4282603551
 20
288.1055920528
 30
0.0
 11
227.1894177464
 21
288.1860215027
 31
0.0
  0
ARC
  5
95
330
87
100
AcDbEntity
  8
$DDT_AUDIT_GENERATED_(60)
  6
Continuous
 62
     7
100
AcDbCircle
 10
219.4251521621
 20
288.4054079292
 30
0.0
 40
0.3000000000000003
100
AcDbArc
 50
251.0965472917
 51
270.5939655869
  0
SPLINE
  5
96
330
87
100
AcDbEntity
  8
$DDT_AUDIT_GENERATED_(60)
  6
Continuous
 62
     7
100
AcDbSpline
210
0.0
220
0.0
230
1.0
 70
     8
 71
     3
 72
    47
 73
    43
 74
     0
 42
0.0000000005854666
 43
0.0000000001
 40
0.0169243775319553
 40
0.0169243775319553
 40
0.0169243775319553
 40
0.0169243775319553
 40
0.018164595167074
 40
0.0277653071995402
 40
0.0493810543313388
 40
0.0740146231586998
 40
0.0990706941556006
 40
0.1243606070811668
 40
0.1498371499678346
 40
0.175456724499762
 40
0.2011140529551749
 40
0.2272883594573977
 40
0.2538170105454043
 40
0.280669851822252
 40
0.3078741365938795
 40
0.3354369758810529
 40
0.3633480326749944
 40
0.3915071590843436
 40
0.4201402176673481
 40
0.4487369196659288
 40
0.4771701411530644
 40
0.5053316325720132
 40
0.533128987251238
 40
0.5604924664934835
 40
0.5873788745992535
 40
0.6137725901388583
 40
0.6396843630828374
 40
0.6651486850815567
 40
0.6901860179211269
 40
0.7142276790781381
 40
0.7380008347563625
 40
0.7618712620399225
 40
0.7857702366324966
 40
0.8096080596475346
 40
0.833319304567382
 40
0.8568833329316418
 40
0.8806258830506973
 40
0.9051466795693571
 40
0.9302953172086053
 40
0.9560361582880499
 40
0.9822987571398989
 40
1.0
 40
1.0
 40
1.0
 40
1.0
 10
203.4320441488923
 20
285.212432868312
 30
0.0
 10
203.4320576151804
 20
285.2124414509826
 30
0.0
 10
203.4326042435769
 20
285.2127895927624
 30
0.0
 10
203.4375381752355
 20
285.2159012826702
 30
0.0
 10
203.4613755100987
 20
285.2308524847061
 30
0.0
 10
203.5186573062271
 20
285.2664652116183
 30
0.0
 10
203.6089227896937
 20
285.322092797531
 30
0.0
 10
203.7302158324277
 20
285.3961804746813
 30
0.0
 10
203.8822089170293
 20
285.4881865263653
 30
0.0
 10
204.0645438221388
 20
285.5975421431134
 30
0.0
 10
204.277264033707
 20
285.7239248601346
 30
0.0
 10
204.5201194173671
 20
285.8661852717583
 30
0.0
 10
204.7944738481584
 20
286.0240315132891
 30
0.0
 10
205.0996820532236
 20
286.1959109865891
 30
0.0
 10
205.4356139880315
 20
286.3805033423892
 30
0.0
 10
205.8020897183867
 20
286.5763476720355
 30
0.0
 10
206.1985137951314
 20
286.7817808120385
 30
0.0
 10
206.6244273875368
 20
286.9953166060995
 30
0.0
 10
207.0781960660128
 20
287.2133721787965
 30
0.0
 10
207.5574574490257
 20
287.4322623997926
 30
0.0
 10
208.0573106918548
 20
287.6473271889902
 30
0.0
 10
208.5746899308242
 20
287.8550560113654
 30
0.0
 10
209.1065196100821
 20
288.0522243232239
 30
0.0
 10
209.6498170046765
 20
288.2359721825965
 30
0.0
 10
210.2018372411273
 20
288.4038624419239
 30
0.0
 10
210.7601770061951
 20
288.5538845932712
 30
0.0
 10
211.3228227729287
 20
288.6844488450952
 30
0.0
 10
211.8879407308635
 20
288.7941955117985
 30
0.0
 10
212.4491691932957
 20
288.8815743531109
 30
0.0
 10
213.0057093431118
 20
288.9445784503754
 30
0.0
 10
213.5584958832807
 20
288.9853442510119
 30
0.0
 10
214.1130165238532
 20
289.0047125000962
 30
0.0
 10
214.6685462447071
 20
289.0026026486005
 30
0.0
 10
215.2209934029889
 20
288.9788777431371
 30
0.0
 10
215.7666635813438
 20
288.9337421333298
 30
0.0
 10
216.3048605395223
 20
288.86680979312
 30
0.0
 10
216.8406551282786
 20
288.779527423386
 30
0.0
 10
217.3774169972535
 20
288.6722486037835
 30
0.0
 10
217.9173847396046
 20
288.5449541434814
 30
0.0
 10
218.4508153880349
 20
288.4004138322562
 30
0.0
 10
218.9338118175806
 20
288.2544998981496
 30
0.0
 10
219.1997408570799
 20
288.1636937692978
 30
0.0
 10
219.325877070595
 20
288.1203680100028
 30
0.0
  0
SPLINE
  5
97
330
87
100
AcDbEntity
  8
$DDT_AUDIT_GENERATED_(60)
  6
Continuous
 62
     7
100
AcDbSpline
210
0.0
220
0.0
230
1.0
 70
     8
 71
     3
 72
    14
 73
    10
 74
     0
 42
0.0000000004608005
 43
0.0000000001
 40
0.8473977703257682
 40
0.8473977703257682
 40
0.8473977703257682
 40
0.8473977703257682
 40
0.8559563288409922
 40
0.8798831462242794
 40
0.9045496570829359
 40
0.9297549816915976
 40
0.9555268563608752
 40
0.9818671032663039
 40
1.0
 40
1.0
 40
1.0
 40
1.0
 10
216.1111946105143
 20
288.8898373160928
 30
0.0
 10
216.1754624942186
 20
288.8815323767117
 30
0.0
 10
216.4187691394502
 20
288.8483694425947
 30
0.0
 10
216.8422749018619
 20
288.7795494735261
 30
0.0
 10
217.3782991977169
 20
288.6725878507082
 30
0.0
 10
217.9162767302743
 20
288.5457962958697
 30
0.0
 10
218.4472180862204
 20
288.4018666589486
 30
0.0
 10
218.930435752288
 20
288.2557175086774
 30
0.0
 10
219.1975929158526
 20
288.1645087689112
 30
0.0
 10
219.3259441056568
 20
288.1204242863238
 30
0.0
  0
LINE
  5
98
330
87
100
AcDbEntity
  8
$DDT_AUDIT_GENERATED_(7B)
  6
Continuous
 62
     7
100
AcDbLine
 10
159.3708681957
 20
328.2980438544
 30
0.0
 11
159.3708681957
 21
278.2980438544
 31
0.0
  0
ARC
  5
99
330
87
100
AcDbEntity
  8
$DDT_AUDIT_GENERATED_(7B)
  6
Continuous
 62
     7
100
AcDbCircle
 10
-332.2037406903
 20
303.2980438544
 30
0.0
 40
500.0
100
AcDbArc
 50
2.1850434561
 51
2.7513985256
  0
ARC
  5
9A
330
87
100
AcDbEntity
  8
$DDT_AUDIT_GENERATED_(7B)
  6
Continuous
 62
     7
100
AcDbCircle
 10
-332.2037406903
 20
303.2980438544
 30
0.0
 40
500.0
100
AcDbArc
 50
357.2485989627
 51
357.8149565439
  0
SPLINE
  5
9B
330
87
100
AcDbEntity
  8
$DDT_AUDIT_GENERATED_(7B)
  6
Continuous
 62
     7
100
AcDbSpline
210
0.0
220
0.0
230
1.0
 70
     8
 71
     3
 72
    14
 73
    10
 74
     0
 42
0.000000005830111
 43
0.0000000001
 40
0.0
 40
0.0
 40
0.0
 40
0.0
 40
0.2432830427872809
 40
0.3597448323261433
 40
0.472019733032886
 40
0.5858671654130236
 40
0.7095704257143698
 40
0.8482643297627759
 40
1.0
 40
1.0
 40
1.0
 40
1.0
 10
167.2198663399576
 20
327.299309257171
 30
0.0
 10
167.2147740083163
 20
327.4509324148642
 30
0.0
 10
167.2027178386898
 20
327.6396140867564
 30
0.0
 10
167.1218933112017
 20
327.9003157090419
 30
0.0
 10
167.0159683619273
 20
328.0659669197609
 30
0.0
 10
166.8578809229896
 20
328.1921843073448
 30
0.0
 10
166.6564939124231
 20
328.2678523434543
 30
0.0
 10
166.4179740628547
 20
328.297439732251
 30
0.0
 10
166.265484352571
 20
328.2989721758817
 30
0.0
 10
166.1708681956895
 20
328.2980438544442
 30
0.0
  0
SPLINE
  5
9C
330
87
100
AcDbEntity
  8
$DDT_AUDIT_GENERATED_(7B)
  6
Continuous
 62
     7
100
AcDbSpline
210
0.0
220
0.0
230
1.0
 70
     8
 71
     3
 72
    14
 73
    10
 74
     0
 42
0.0000000058301286
 43
0.0000000001
 40
0.0
 40
0.0
 40
0.0
 40
0.0
 40
0.2433122597952543
 40
0.3598098157829066
 40
0.4721092871872183
 40
0.5859468548548692
 40
0.7096123811118996
 40
0.8482728650970828
 40
1.0
 40
1.0
 40
1.0
 40
1.0
 10
166.1708681956991
 20
278.2980438544442
 30
0.0
 10
166.3225790859505
 20
278.295823923307
 30
0.0
 10
166.5116426891608
 20
278.2987632467157
 30
0.0
 10
166.7760411875306
 20
278.3666928597837
 30
0.0
 10
166.9467626877324
 20
278.4642798949181
 30
0.0
 10
167.0806834118863
 20
278.6158836817728
 30
0.0
 10
167.1661843369473
 20
278.813259337966
 30
0.0
 10
167.2073657728932
 20
279.0500142269748
 30
0.0
 10
167.2162407664798
 20
279.202232908213
 30
0.0
 10
167.2198663654414
 20
279.2967789819928
 30
0.0
  0
LINE
  5
9D
330
87
100
AcDbEntity
  8
$DDT_AUDIT_GENERATED_(7B)
  6
Continuous
 62
     7
100
AcDbLine
 10
159.3708681957
 20
278.2980438544
 30
0.0
 11
166.1908681957
 21
278.2980438544
 31
0.0
  0
LINE
  5
9E
330
87
100
AcDbEntity
  8
$DDT_AUDIT_GENERATED_(7B)
  6
Continuous
 62
     7
100
AcDbLine
 10
166.1908681957
 20
328.2980438544
 30
0.0
 11
159.3708681957
 21
328.2980438544
 31
0.0
  0
ARC
  5
9F
330
87
100
AcDbEntity
  8
$DDT_AUDIT_GENERATED_(7B)
  6
Continuous
 62
     7
100
AcDbCircle
 10
167.1329290158
 20
284.2460023144
 30
0.0
 40
0.3000000000001055
100
AcDbArc
 50
357.8149565444
 51
0.0
  0
ARC
  5
A0
330
87
100
AcDbEntity
  8
$DDT_AUDIT_GENERATED_(7B)
  6
Continuous
 62
     7
100
AcDbCircle
 10
167.1329290158
 20
322.3500853945
 30
0.0
 40
0.2999999999999999
100
AcDbArc
 50
0.0
 51
2.1850434556
  0
LINE
  5
A1
330
87
100
AcDbEntity
  8
$DDT_AUDIT_GENERATED_(7B)
  6
Continuous
 62
     7
100
AcDbLine
 10
167.4329290158
 20
284.2460023144
 30
0.0
 11
167.4329290158
 21
322.3500853945
 31
0.0
  0
LINE
  5
A3
330
87
100
AcDbEntity
  8
DV2_Standard
  6
CENTER2
 62
     7
100
AcDbLine
 10
179.3708677487
 20
303.2980438544
 30
0.0
 11
139.3708686427
 21
303.2980438544
 31
0.0
  0
LINE
  5
A4
330
87
100
AcDbEntity
  8
DV2_Standard
  6
CENTER2
 62
     7
100
AcDbLine
 10
159.3708681957
 20
323.2980434074
 30
0.0
 11
159.3708681957
 21
283.2980443015
 31
0.0
  0
ENDBLK
  5
A6
330
87
100
AcDbEntity
  8
0
100
AcDbBlockEnd
  0
BLOCK
  5
D5
330
A7
100
AcDbEntity
  8
0
100
AcDbBlockBegin
  2
SE2
 70
     0
 10
0.0
 20
0.0
 30
0.0
  3
SE2
  1

  0
LINE
  5
AA
330
A7
100
AcDbEntity
  8
$DDT_AUDIT_GENERATED_(A9)
  6
Continuous
 62
     7
100
AcDbLine
 10
22.4104492566
 20
109.0458847847
 30
0.0
 11
22.4104492566
 21
109.188656715
 31
0.0
  0
LINE
  5
AB
330
A7
100
AcDbEntity
  8
$DDT_AUDIT_GENERATED_(A9)
  6
Continuous
 62
     7
100
AcDbLine
 10
22.4104492566
 20
115.7918074483
 30
0.0
 11
22.4104492566
 21
113.4222047305
 31
0.0
  0
LINE
  5
AC
330
A7
100
AcDbEntity
  8
$DDT_AUDIT_GENERATED_(A9)
  6
Continuous
 62
     7
100
AcDbLine
 10
22.4104492566
 20
113.4222047305
 30
0.0
 11
22.4104492566
 21
109.188656715
 31
0.0
  0
LINE
  5
AD
330
A7
100
AcDbEntity
  8
$DDT_AUDIT_GENERATED_(A9)
  6
Continuous
 62
     7
100
AcDbLine
 10
40.4104492566
 20
109.0458847847
 30
0.0
 11
40.4104492566
 21
109.188656715
 31
0.0
  0
SPLINE
  5
AE
330
A7
100
AcDbEntity
  8
$DDT_AUDIT_GENERATED_(A9)
  6
Continuous
 62
     7
100
AcDbSpline
210
0.0
220
0.0
230
1.0
 70
     8
 71
     3
 72
    30
 73
    26
 74
     0
 42
0.0000000002416375
 43
0.0000000001
 40
0.0
 40
0.0
 40
0.0
 40
0.0
 40
0.1249999999999996
 40
0.1249999999999996
 40
0.1874999999999994
 40
0.1874999999999994
 40
0.2499999999999993
 40
0.2499999999999993
 40
0.3749999999999994
 40
0.3749999999999994
 40
0.4374999999999995
 40
0.4374999999999995
 40
0.4999999999999996
 40
0.4999999999999996
 40
0.6249999999999998
 40
0.6249999999999998
 40
0.7499999999999998
 40
0.7499999999999998
 40
0.8124999999999999
 40
0.8124999999999999
 40
0.8749999999999999
 40
0.8749999999999999
 40
0.9375
 40
0.9375
 40
1.0
 40
1.0
 40
1.0
 40
1.0
 10
22.35646653773127
 20
116.0162708570801
 30
0.0
 10
21.57078798199694
 20
117.5034455936294
 30
0.0
 10
21.14496786829961
 20
119.2532542910511
 30
0.0
 10
21.27990202026296
 20
121.9464375806271
 30
0.0
 10
21.44896123197654
 20
122.8122595224192
 30
0.0
 10
21.99063241352745
 20
124.4405383758161
 30
0.0
 10
22.35306922862958
 20
125.1828525308095
 30
0.0
 10
23.69428881591737
 20
127.2569422611844
 30
0.0
 10
24.9131577518489
 20
128.4027609527651
 30
0.0
 10
27.11445523197256
 20
129.6311386713525
 30
0.0
 10
27.92456313660957
 20
129.9622455076225
 30
0.0
 10
29.61279732393832
 20
130.4083771433846
 30
0.0
 10
30.48590200523368
 20
130.5262679729755
 30
0.0
 10
33.18797617447096
 20
130.5324983157242
 30
0.0
 10
34.93066009519872
 20
130.0585566591957
 30
0.0
 10
37.89950832796692
 20
128.4127506346467
 30
0.0
 10
39.11754245263089
 20
127.2637382750521
 30
0.0
 10
40.45291809955646
 20
125.2094458890249
 30
0.0
 10
40.82344533050738
 20
124.455715776734
 30
0.0
 10
41.36671361662396
 20
122.8331709050655
 30
0.0
 10
41.53845285691421
 20
121.9578349635822
 30
0.0
 10
41.63133550578921
 20
120.18178658574
 30
0.0
 10
41.55169880559745
 20
119.2788432648
 30
0.0
 10
41.16337432221096
 20
117.5696230223889
 30
0.0
 10
40.85837713261213
 20
116.7619514932358
 30
0.0
 10
40.46443197549279
 20
116.0162708570801
 30
0.0
  0
LINE
  5
AF
330
A7
100
AcDbEntity
  8
$DDT_AUDIT_GENERATED_(A9)
  6
Continuous
 62
     7
100
AcDbLine
 10
40.4104492566
 20
113.4222047305
 30
0.0
 11
40.4104492566
 21
115.7918074483
 31
0.0
  0
LINE
  5
B0
330
A7
100
AcDbEntity
  8
$DDT_AUDIT_GENERATED_(A9)
  6
Continuous
 62
     7
100
AcDbLine
 10
40.4104492566
 20
109.188656715
 30
0.0
 11
40.4104492566
 21
113.4222047305
 31
0.0
  0
ELLIPSE
  5
B1
330
A7
100
AcDbEntity
  8
$DDT_AUDIT_GENERATED_(A9)
  6
Continuous
 62
     7
100
AcDbEllipse
 10
40.9104492566
 20
115.7918074483
 30
0.0
 11
0.4423131720809031
 21
-0.2331502901643662
 31
0.0
210
0.0
220
0.0
230
1.0
 40
0.3384456906
 41
3.14159265358967
 42
3.197239581909939
  0
ELLIPSE
  5
B2
330
A7
100
AcDbEntity
  8
$DDT_AUDIT_GENERATED_(A9)
  6
Continuous
 62
     7
100
AcDbEllipse
 10
21.9104492566
 20
115.7918074483
 30
0.0
 11
-0.4423131720809048
 21
-0.2331502901643662
 31
0.0
210
0.0
220
0.0
230
0.9999999999999999
 40
0.3384456906
 41
3.085945725269845
 42
3.141592653589838
  0
ARC
  5
B3
330
A7
100
AcDbEntity
  8
$DDT_AUDIT_GENERATED_(A9)
  6
Continuous
 62
     7
100
AcDbCircle
 10
40.9104492566
 20
109.0458847847
 30
0.0
 40
0.5000000000000004
100
AcDbArc
 50
180.0
 51
239.3168470131
  0
ARC
  5
B4
330
A7
100
AcDbEntity
  8
$DDT_AUDIT_GENERATED_(A9)
  6
Continuous
 62
     7
100
AcDbCircle
 10
21.9104492566
 20
109.0458847847
 30
0.0
 40
0.4999999999999713
100
AcDbArc
 50
300.564258974
 51
0.0
  0
ARC
  5
B5
330
A7
100
AcDbEntity
  8
$DDT_AUDIT_GENERATED_(A9)
  6
Continuous
 62
     7
100
AcDbCircle
 10
40.9104492566
 20
115.7918074483
 30
0.0
 40
0.5000000000000001
100
AcDbArc
 50
152.205574107
 51
180.0
  0
ARC
  5
B6
330
A7
100
AcDbEntity
  8
$DDT_AUDIT_GENERATED_(A9)
  6
Continuous
 62
     7
100
AcDbCircle
 10
21.9104492566
 20
115.7918074483
 30
0.0
 40
0.5000000000000022
100
AcDbArc
 50
0.0
 51
27.794425893
  0
LINE
  5
B7
330
A7
100
AcDbEntity
  8
$DDT_AUDIT_GENERATED_(60)
  6
Continuous
 62
     7
100
AcDbLine
 10
40.6604492566
 20
107.5397010357
 30
0.0
 11
40.6604492566
 21
112.0323728725
 31
0.0
  0
LINE
  5
B8
330
A7
100
AcDbEntity
  8
$DDT_AUDIT_GENERATED_(60)
  6
Continuous
 62
     7
100
AcDbLine
 10
40.6604492566
 20
106.8462123212
 30
0.0
 11
40.6604492566
 21
107.5397010357
 31
0.0
  0
LINE
  5
B9
330
A7
100
AcDbEntity
  8
$DDT_AUDIT_GENERATED_(60)
  6
Continuous
 62
     7
100
AcDbLine
 10
40.6604492566
 20
106.8462123212
 30
0.0
 11
40.6604492566
 21
106.65
 31
0.0
  0
LINE
  5
BA
330
A7
100
AcDbEntity
  8
$DDT_AUDIT_GENERATED_(60)
  6
Continuous
 62
     7
100
AcDbLine
 10
22.1604492566
 20
112.0323728725
 30
0.0
 11
22.1604492566
 21
107.5397010357
 31
0.0
  0
LINE
  5
BB
330
A7
100
AcDbEntity
  8
$DDT_AUDIT_GENERATED_(60)
  6
Continuous
 62
     7
100
AcDbLine
 10
22.1604492566
 20
107.5397010357
 30
0.0
 11
22.1604492566
 21
106.8462123212
 31
0.0
  0
LINE
  5
BC
330
A7
100
AcDbEntity
  8
$DDT_AUDIT_GENERATED_(60)
  6
Continuous
 62
     7
100
AcDbLine
 10
22.1604492566
 20
106.8462123212
 30
0.0
 11
22.1604492566
 21
106.65
 31
0.0
  0
ARC
  5
BD
330
A7
100
AcDbEntity
  8
$DDT_AUDIT_GENERATED_(60)
  6
Continuous
 62
     7
100
AcDbCircle
 10
40.9604492566
 20
112.0323728725
 30
0.0
 40
0.2999999999999999
100
AcDbArc
 50
138.2531299769
 51
180.0
  0
ARC
  5
BE
330
A7
100
AcDbEntity
  8
$DDT_AUDIT_GENERATED_(60)
  6
Continuous
 62
     7
100
AcDbCircle
 10
21.8604492566
 20
112.0323728725
 30
0.0
 40
0.3000000000000038
100
AcDbArc
 50
0.0
 51
41.7468700231
  0
ARC
  5
BF
330
A7
100
AcDbEntity
  8
$DDT_AUDIT_GENERATED_(60)
  6
Continuous
 62
     7
100
AcDbCircle
 10
31.4104492566
 20
120.5551365088
 30
0.0
 40
12.5
100
AcDbArc
 50
318.2531299769
 51
221.7468700231
  0
ARC
  5
C0
330
A7
100
AcDbEntity
  8
$DDT_AUDIT_GENERATED_(60)
  6
Continuous
 62
     7
100
AcDbCircle
 10
14.4865420038
 20
107.5458096105
 30
0.0
 40
0.9999999999999981
100
AcDbArc
 50
180.5
 51
268.0564039047
  0
ARC
  5
C1
330
A7
100
AcDbEntity
  8
$DDT_AUDIT_GENERATED_(60)
  6
Continuous
 62
     7
100
AcDbCircle
 10
48.3343565094
 20
107.5458096105
 30
0.0
 40
1.000000000000158
100
AcDbArc
 50
271.9435960953
 51
359.5
  0
ARC
  5
C2
330
A7
100
AcDbEntity
  8
$DDT_AUDIT_GENERATED_(60)
  6
Continuous
 62
     7
100
AcDbCircle
 10
31.4104492566
 20
606.2587344112
 30
0.0
 40
499.9999999999999
100
AcDbArc
 50
268.0564039045
 51
268.9049269383
  0
ARC
  5
C3
330
A7
100
AcDbEntity
  8
$DDT_AUDIT_GENERATED_(60)
  6
Continuous
 62
     7
100
AcDbCircle
 10
31.4104492566
 20
606.2587344112
 30
0.0
 40
500.0
100
AcDbArc
 50
271.0950730617
 51
271.9435960955
  0
LINE
  5
C4
330
A7
100
AcDbEntity
  8
$DDT_AUDIT_GENERATED_(60)
  6
Continuous
 62
     7
100
AcDbLine
 10
12.9650974335
 20
167.2930756887
 30
0.0
 11
13.4865800807
 21
107.537083075
 31
0.0
  0
LINE
  5
C5
330
A7
100
AcDbEntity
  8
$DDT_AUDIT_GENERATED_(60)
  6
Continuous
 62
     7
100
AcDbLine
 10
49.3343184325
 20
107.537083075
 30
0.0
 11
49.8558010797
 21
167.2930756887
 31
0.0
  0
ARC
  5
C6
330
A7
100
AcDbEntity
  8
$DDT_AUDIT_GENERATED_(60)
  6
Continuous
 62
     7
100
AcDbCircle
 10
40.9604492566
 20
106.65
 30
0.0
 40
0.2999999999999999
100
AcDbArc
 50
180.0
 51
271.0950730617
  0
ARC
  5
C7
330
A7
100
AcDbEntity
  8
$DDT_AUDIT_GENERATED_(60)
  6
Continuous
 62
     7
100
AcDbCircle
 10
21.8604492566
 20
106.65
 30
0.0
 40
0.3000000000000147
100
AcDbArc
 50
268.9049269383
 51
0.0
  0
LINE
  5
C8
330
A7
100
AcDbEntity
  8
$DDT_AUDIT_GENERATED_(7B)
  6
Continuous
 62
     7
100
AcDbLine
 10
6.4104492566
 20
175.3551365088
 30
0.0
 11
56.4104492566
 21
175.3551365088
 31
0.0
  0
ARC
  5
C9
330
A7
100
AcDbEntity
  8
$DDT_AUDIT_GENERATED_(7B)
  6
Continuous
 62
     7
100
AcDbCircle
 10
31.4104492566
 20
666.9297453948
 30
0.0
 40
500.0
100
AcDbArc
 50
272.1850434561
 51
272.7513978096
  0
ARC
  5
CA
330
A7
100
AcDbEntity
  8
$DDT_AUDIT_GENERATED_(7B)
  6
Continuous
 62
     7
100
AcDbCircle
 10
31.4104492566
 20
666.9297453948
 30
0.0
 40
500.0
100
AcDbArc
 50
267.248603027
 51
267.8149565439
  0
SPLINE
  5
CB
330
A7
100
AcDbEntity
  8
$DDT_AUDIT_GENERATED_(7B)
  6
Continuous
 62
     7
100
AcDbSpline
210
0.0
220
0.0
230
1.0
 70
     8
 71
     3
 72
    14
 73
    10
 74
     0
 42
0.0000000058301094
 43
0.0000000001
 40
0.0
 40
0.0
 40
0.0
 40
0.0
 40
0.2432830755570687
 40
0.3597448767956425
 40
0.4720197801676991
 40
0.5858672000146847
 40
0.7095704385858473
 40
0.8482643275545448
 40
1.0
 40
1.0
 40
1.0
 40
1.0
 10
55.41171412149115
 20
167.5061383386722
 30
0.0
 10
55.56333732590483
 20
167.5112306711639
 30
0.0
 10
55.75201905454468
 20
167.5232868412417
 30
0.0
 10
56.01272079765033
 20
167.6041113384327
 30
0.0
 10
56.1783721062093
 20
167.7100362530509
 30
0.0
 10
56.3045895991135
 20
167.8681236731678
 30
0.0
 10
56.38025771266931
 20
168.0695106998462
 30
0.0
 10
56.40984513408397
 20
168.3080305928964
 30
0.0
 10
56.41137757962903
 20
168.4605203300978
 30
0.0
 10
56.41044925702295
 20
168.5551365088018
 30
0.0
  0
SPLINE
  5
CC
330
A7
100
AcDbEntity
  8
$DDT_AUDIT_GENERATED_(7B)
  6
Continuous
 62
     7
100
AcDbSpline
210
0.0
220
0.0
230
1.0
 70
     8
 71
     3
 72
    14
 73
    10
 74
     0
 42
0.0000000058301285
 43
0.0000000001
 40
0.0
 40
0.0
 40
0.0
 40
0.0
 40
0.243312232909469
 40
0.3598098028291373
 40
0.4721092960935402
 40
0.5859468870495556
 40
0.7096124271005451
 40
0.8482729032158284
 40
1.0
 40
1.0
 40
1.0
 40
1.0
 10
6.410449256080655
 20
168.5551365088038
 30
0.0
 10
6.408229327715024
 20
168.4034255957937
 30
0.0
 10
6.411168652146311
 20
168.2143619604759
 30
0.0
 10
6.479098280174275
 20
167.9499634820735
 30
0.0
 10
6.576685338502308
 20
167.779241989693
 30
0.0
 10
6.728289143670373
 20
167.6453212812574
 30
0.0
 10
6.925664803496622
 20
167.5598203652421
 30
0.0
 10
7.162419676954371
 20
167.5186389301014
 30
0.0
 10
7.314638352968583
 20
167.5097639371334
 30
0.0
 10
7.409184415390118
 20
167.5061383375293
 30
0.0
  0
LINE
  5
CD
330
A7
100
AcDbEntity
  8
$DDT_AUDIT_GENERATED_(7B)
  6
Continuous
 62
     7
100
AcDbLine
 10
6.4104492566
 20
175.3551365088
 30
0.0
 11
6.4104492566
 21
168.5351365088
 31
0.0
  0
LINE
  5
CE
330
A7
100
AcDbEntity
  8
$DDT_AUDIT_GENERATED_(7B)
  6
Continuous
 62
     7
100
AcDbLine
 10
56.4104492566
 20
168.5351365088
 30
0.0
 11
56.4104492566
 21
175.3551365088
 31
0.0
  0
ARC
  5
CF
330
A7
100
AcDbEntity
  8
$DDT_AUDIT_GENERATED_(7B)
  6
Continuous
 62
     7
100
AcDbCircle
 10
12.3584077166
 20
167.5930756887
 30
0.0
 40
0.3000000000001055
100
AcDbArc
 50
267.8149565444
 51
270.0
  0
ARC
  5
D0
330
A7
100
AcDbEntity
  8
$DDT_AUDIT_GENERATED_(7B)
  6
Continuous
 62
     7
100
AcDbCircle
 10
50.4624907967
 20
167.5930756887
 30
0.0
 40
0.2999999999999999
100
AcDbArc
 50
270.0
 51
272.1850434556
  0
LINE
  5
D1
330
A7
100
AcDbEntity
  8
$DDT_AUDIT_GENERATED_(7B)
  6
Continuous
 62
     7
100
AcDbLine
 10
12.3584077166
 20
167.2930756887
 30
0.0
 11
50.4624907967
 21
167.2930756887
 31
0.0
  0
LINE
  5
D3
330
A7
100
AcDbEntity
  8
DV3_Standard
  6
CENTER2
 62
     7
100
AcDbLine
 10
51.4104488096
 20
175.3551365088
 30
0.0
 11
11.4104497036
 21
175.3551365088
 31
0.0
  0
LINE
  5
D4
330
A7
100
AcDbEntity
  8
DV3_Standard
  6
CENTER2
 62
     7
100
AcDbLine
 10
31.4104492566
 20
195.3551360618
 30
0.0
 11
31.4104492566
 21
155.3551369558
 31
0.0
  0
ENDBLK
  5
D6
330
A7
100
AcDbEntity
  8
0
100
AcDbBlockEnd
  0
ENDSEC
  0
SECTION
  2
ENTITIES
  0
INSERT
  5
5F
330
1F
100
AcDbEntity
  8
Default
100
AcDbBlockReference
  2
SE
 10
0.0
 20
0.0
 30
0.0
  0
INSERT
  5
88
330
1F
100
AcDbEntity
  8
Default
100
AcDbBlockReference
  2
SE1
 10
0.0
 20
0.0
 30
0.0
  0
INSERT
  5
A8
330
1F
100
AcDbEntity
  8
Default
100
AcDbBlockReference
  2
SE2
 10
0.0
 20
0.0
 30
0.0
  0
TEXT
  5
D8
330
1F
100
AcDbEntity
  8
Default
  6
Continuous
 62
     7
100
AcDbText
 10
5.9362635081
 20
53.4225120485
 30
0.0
 40
10.0
  1
Grohe AG^J
  7
SEACAD_seiso_ttf
 11
5.9362635081
 21
63.4225120485
 31
0.0
100
AcDbText
 73
     3
  0
TEXT
  5
D9
330
1F
100
AcDbEntity
  8
Default
  6
Continuous
 62
     7
100
AcDbText
 10
5.9362635081
 20
37.0588756849
 30
0.0
 40
10.0
  1
 
  7
SEACAD_seiso_ttf
 11
5.9362635081
 21
47.0588756849
 31
0.0
100
AcDbText
 73
     3
  0
TEXT
  5
DA
330
1F
100
AcDbEntity
  8
Default
  6
Continuous
 62
     7
100
AcDbText
 10
5.9362635081
 20
20.6952393213
 30
0.0
 40
10.0
  1
ecn: 
  7
SEACAD_seiso_ttf
 11
5.9362635081
 21
30.6952393213
 31
0.0
100
AcDbText
 73
     3
  0
TEXT
  5
DB
330
1F
100
AcDbEntity
  8
Default
  6
Continuous
 62
     7
100
AcDbText
 10
5.9362635081
 20
4.3316029576
 30
0.0
 40
10.0
  1
unit: mm
  7
SEACAD_seiso_ttf
 11
5.9362635081
 21
14.3316029576
 31
0.0
100
AcDbText
 73
     3
  0
LINE
  5
DC
330
1F
100
AcDbEntity
  8
Default
  6
Continuous
 62
     7
100
AcDbLine
 10
0.0
 20
0.0
 30
0.0
 11
100.0
 21
0.0
 31
0.0
  0
LINE
  5
DD
330
1F
100
AcDbEntity
  8
Default
  6
Continuous
 62
     7
100
AcDbLine
 10
0.0
 20
0.0
 30
0.0
 11
0.0
 21
100.0
 31
0.0
  0
TEXT
  5
DE
330
1F
100
AcDbEntity
  8
Default
  6
Continuous
 62
     7
100
AcDbText
 10
24.3923665681
 20
-18.2375342018
 30
0.0
 40
10.0
  1
100 mm
  7
SEACAD_seiso_ttf
 11
24.3923665681
 21
-8.2375342018
 31
0.0
100
AcDbText
 73
     3
  0
TEXT
  5
DF
330
1F
100
AcDbEntity
  8
Default
  6
Continuous
 62
     7
100
AcDbText
 10
-7.6150308803
 20
24.6231930421
 30
0.0
 40
10.0
  1
100 mm
 50
90.0
  7
SEACAD_seiso_ttf
 11
-17.6150308803
 21
24.6231930421
 31
0.0
100
AcDbText
 73
     3
  0
TEXT
  5
E0
330
1F
100
AcDbEntity
  8
Default
  6
Continuous
 62
     7
100
AcDbText
 10
28.4878128572
 20
20.0907663715
 30
0.0
 40
10.0
  1
210521
  7
SEACAD_seiso_ttf
 11
28.4878128572
 21
30.0907663715
 31
0.0
100
AcDbText
 73
     3
  0
TEXT
  5
E1
330
1F
100
AcDbEntity
  8
Default
  6
Continuous
 62
     7
100
AcDbText
 10
5.9012241913
 20
36.7242780188
 30
0.0
 40
10.0
  1
27074000
  7
SEACAD_seiso_ttf
 11
5.9012241913
 21
46.7242780188
 31
0.0
100
AcDbText
 73
     3
  0
ENDSEC
  0
SECTION
  2
OBJECTS
  0
DICTIONARY
  5
C
330
0
100
AcDbDictionary
281
     1
  3
ACAD_GROUP
350
D
  3
ACAD_LAYOUT
350
1A
  3
ACAD_MLEADERSTYLE
350
E5
  3
ACAD_MLINESTYLE
350
17
  3
ACAD_PLOTSETTINGS
350
19
  3
ACAD_PLOTSTYLENAME
350
E
  3
ACAD_SCALELIST
350
3B
  3
ACAD_TABLESTYLE
350
E4
  3
ACAD_VISUALSTYLE
350
2A
  3
AcDbVariableDictionary
350
E2
  0
DICTIONARY
  5
D
102
{ACAD_REACTORS
330
C
102
}
330
C
100
AcDbDictionary
281
     1
  0
DICTIONARY
  5
1A
102
{ACAD_REACTORS
330
C
102
}
330
C
100
AcDbDictionary
281
     1
  3
Layout1
350
1E
  3
Model
350
22
  0
DICTIONARY
  5
E5
102
{ACAD_REACTORS
330
C
102
}
330
C
100
AcDbDictionary
281
     1
  0
DICTIONARY
  5
17
102
{ACAD_REACTORS
330
C
102
}
330
C
100
AcDbDictionary
281
     1
  3
Standard
350
18
  0
DICTIONARY
  5
19
102
{ACAD_REACTORS
330
C
102
}
330
C
100
AcDbDictionary
281
     1
  0
ACDBDICTIONARYWDFLT
  5
E
102
{ACAD_REACTORS
330
C
102
}
330
C
100
AcDbDictionary
281
     1
  3
Normal
350
F
100
AcDbDictionaryWithDefault
340
F
  0
DICTIONARY
  5
3B
102
{ACAD_REACTORS
330
C
102
}
330
C
100
AcDbDictionary
281
     1
  3
A0
350
3C
  3
A1
350
3D
  3
A2
350
3E
  3
A3
350
3F
  3
A4
350
40
  3
A5
350
41
  3
A6
350
42
  3
A7
350
43
  3
A8
350
44
  3
A9
350
45
  3
B0
350
46
  3
B1
350
47
  3
B2
350
48
  3
B3
350
49
  3
B4
350
4A
  3
B5
350
4B
  3
B6
350
4C
  3
B7
350
4D
  3
B8
350
4E
  3
B9
350
4F
  3
C0
350
50
  3
C1
350
51
  3
C2
350
52
  3
C3
350
53
  3
C4
350
54
  3
C5
350
55
  3
C6
350
56
  3
C7
350
57
  3
C8
350
58
  3
C9
350
59
  3
D0
350
5A
  3
D1
350
5B
  3
D2
350
5C
  0
DICTIONARY
  5
E4
102
{ACAD_REACTORS
330
C
102
}
330
C
100
AcDbDictionary
281
     1
  0
DICTIONARY
  5
2A
102
{ACAD_REACTORS
330
C
102
}
330
C
100
AcDbDictionary
281
     1
  3
2dWireframe
350
2F
  3
3D Hidden
350
31
  3
3dWireframe
350
30
  3
Basic
350
32
  3
Brighten
350
36
  3
ColorChange
350
3A
  3
Conceptual
350
34
  3
Dim
350
35
  3
Facepattern
350
39
  3
Flat
350
2B
  3
FlatWithEdges
350
2C
  3
Gouraud
350
2D
  3
GouraudWithEdges
350
2E
  3
Linepattern
350
38
  3
Realistic
350
33
  3
Thicken
350
37
  0
DICTIONARY
  5
E2
102
{ACAD_REACTORS
330
C
102
}
330
C
100
AcDbDictionary
281
     1
  3
CANNOSCALE
350
E3
  3
PSOLHEIGHT
350
E7
  3
PSOLWIDTH
350
E6
  0
LAYOUT
  5
1E
102
{ACAD_REACTORS
330
1A
102
}
330
1A
100
AcDbPlotSettings
  1

  2
none_device
  4

  6

 40
0.0
 41
0.0
 42
0.0
 43
0.0
 44
0.0
 45
0.0
 46
0.0
 47
0.0
 48
0.0
 49
0.0
140
0.0
141
0.0
142
1.0
143
1.0
 70
   688
 72
     0
 73
     0
 74
     5
  7

 75
    16
147
1.0
148
0.0
149
0.0
100
AcDbLayout
  1
Layout1
 70
     1
 71
     1
 10
0.0
 20
0.0
 11
1682.0
 21
2378.0
 12
0.0
 22
0.0
 32
0.0
 14
0.0
 24
0.0
 34
0.0
 15
1682.0
 25
2378.0
 35
0.0
146
0.0
 13
0.0
 23
0.0
 33
0.0
 16
1.0
 26
0.0
 36
0.0
 17
0.0
 27
1.0
 37
0.0
 76
     0
330
1B
  0
LAYOUT
  5
22
102
{ACAD_REACTORS
330
1A
102
}
330
1A
100
AcDbPlotSettings
  1

  2
none_device
  4

  6

 40
0.0
 41
0.0
 42
0.0
 43
0.0
 44
0.0
 45
0.0
 46
0.0
 47
0.0
 48
0.0
 49
0.0
140
0.0
141
0.0
142
1.0
143
1.0
 70
  1712
 72
     0
 73
     0
 74
     0
  7

 75
     0
147
1.0
148
0.0
149
0.0
100
AcDbLayout
  1
Model
 70
     1
 71
     0
 10
0.0
 20
0.0
 11
1682.0
 21
2378.0
 12
0.0
 22
0.0
 32
0.0
 14
0.0
 24
0.0
 34
0.0
 15
1682.0
 25
2378.0
 35
0.0
146
0.0
 13
0.0
 23
0.0
 33
0.0
 16
1.0
 26
0.0
 36
0.0
 17
0.0
 27
1.0
 37
0.0
 76
     0
330
1F
331
29
  0
MLINESTYLE
  5
18
102
{ACAD_REACTORS
330
17
102
}
330
17
100
AcDbMlineStyle
  2
Standard
 70
     0
  3

 62
   256
 51
90.0
 52
90.0
 71
     2
 49
0.5
 62
   256
  6
BYLAYER
 49
-0.5
 62
   256
  6
BYLAYER
  0
ACDBPLACEHOLDER
  5
F
102
{ACAD_REACTORS
330
E
102
}
330
E
  0
SCALE
  5
3C
102
{ACAD_REACTORS
330
3B
102
}
330
3B
100
AcDbScale
 70
     0
300
1:1
140
1.0
141
1.0
290
     1
  0
SCALE
  5
3D
102
{ACAD_REACTORS
330
3B
102
}
330
3B
100
AcDbScale
 70
     0
300
1:2
140
1.0
141
2.0
290
     0
  0
SCALE
  5
3E
102
{ACAD_REACTORS
330
3B
102
}
330
3B
100
AcDbScale
 70
     0
300
1:4
140
1.0
141
4.0
290
     0
  0
SCALE
  5
3F
102
{ACAD_REACTORS
330
3B
102
}
330
3B
100
AcDbScale
 70
     0
300
1:5
140
1.0
141
5.0
290
     0
  0
SCALE
  5
40
102
{ACAD_REACTORS
330
3B
102
}
330
3B
100
AcDbScale
 70
     0
300
1:8
140
1.0
141
8.0
290
     0
  0
SCALE
  5
41
102
{ACAD_REACTORS
330
3B
102
}
330
3B
100
AcDbScale
 70
     0
300
1:10
140
1.0
141
10.0
290
     0
  0
SCALE
  5
42
102
{ACAD_REACTORS
330
3B
102
}
330
3B
100
AcDbScale
 70
     0
300
1:16
140
1.0
141
16.0
290
     0
  0
SCALE
  5
43
102
{ACAD_REACTORS
330
3B
102
}
330
3B
100
AcDbScale
 70
     0
300
1:20
140
1.0
141
20.0
290
     0
  0
SCALE
  5
44
102
{ACAD_REACTORS
330
3B
102
}
330
3B
100
AcDbScale
 70
     0
300
1:30
140
1.0
141
30.0
290
     0
  0
SCALE
  5
45
102
{ACAD_REACTORS
330
3B
102
}
330
3B
100
AcDbScale
 70
     0
300
1:40
140
1.0
141
40.0
290
     0
  0
SCALE
  5
46
102
{ACAD_REACTORS
330
3B
102
}
330
3B
100
AcDbScale
 70
     0
300
1:50
140
1.0
141
50.0
290
     0
  0
SCALE
  5
47
102
{ACAD_REACTORS
330
3B
102
}
330
3B
100
AcDbScale
 70
     0
300
1:100
140
1.0
141
100.0
290
     0
  0
SCALE
  5
48
102
{ACAD_REACTORS
330
3B
102
}
330
3B
100
AcDbScale
 70
     0
300
2:1
140
2.0
141
1.0
290
     0
  0
SCALE
  5
49
102
{ACAD_REACTORS
330
3B
102
}
330
3B
100
AcDbScale
 70
     0
300
4:1
140
4.0
141
1.0
290
     0
  0
SCALE
  5
4A
102
{ACAD_REACTORS
330
3B
102
}
330
3B
100
AcDbScale
 70
     0
300
8:1
140
8.0
141
1.0
290
     0
  0
SCALE
  5
4B
102
{ACAD_REACTORS
330
3B
102
}
330
3B
100
AcDbScale
 70
     0
300
10:1
140
10.0
141
1.0
290
     0
  0
SCALE
  5
4C
102
{ACAD_REACTORS
330
3B
102
}
330
3B
100
AcDbScale
 70
     0
300
100:1
140
100.0
141
1.0
290
     0
  0
SCALE
  5
4D
102
{ACAD_REACTORS
330
3B
102
}
330
3B
100
AcDbScale
 70
     0
300
1/128" = 1'-0"
140
0.0078125
141
12.0
290
     0
  0
SCALE
  5
4E
102
{ACAD_REACTORS
330
3B
102
}
330
3B
100
AcDbScale
 70
     0
300
1/64" = 1'-0"
140
0.015625
141
12.0
290
     0
  0
SCALE
  5
4F
102
{ACAD_REACTORS
330
3B
102
}
330
3B
100
AcDbScale
 70
     0
300
1/32" = 1'-0"
140
0.03125
141
12.0
290
     0
  0
SCALE
  5
50
102
{ACAD_REACTORS
330
3B
102
}
330
3B
100
AcDbScale
 70
     0
300
1/16" = 1'-0"
140
0.0625
141
12.0
290
     0
  0
SCALE
  5
51
102
{ACAD_REACTORS
330
3B
102
}
330
3B
100
AcDbScale
 70
     0
300
3/32" = 1'-0"
140
0.09375
141
12.0
290
     0
  0
SCALE
  5
52
102
{ACAD_REACTORS
330
3B
102
}
330
3B
100
AcDbScale
 70
     0
300
1/8" = 1'-0"
140
0.125
141
12.0
290
     0
  0
SCALE
  5
53
102
{ACAD_REACTORS
330
3B
102
}
330
3B
100
AcDbScale
 70
     0
300
3/16" = 1'-0"
140
0.1875
141
12.0
290
     0
  0
SCALE
  5
54
102
{ACAD_REACTORS
330
3B
102
}
330
3B
100
AcDbScale
 70
     0
300
1/4" = 1'-0"
140
0.25
141
12.0
290
     0
  0
SCALE
  5
55
102
{ACAD_REACTORS
330
3B
102
}
330
3B
100
AcDbScale
 70
     0
300
3/8" = 1'-0"
140
0.375
141
12.0
290
     0
  0
SCALE
  5
56
102
{ACAD_REACTORS
330
3B
102
}
330
3B
100
AcDbScale
 70
     0
300
1/2" = 1'-0"
140
0.5
141
12.0
290
     0
  0
SCALE
  5
57
102
{ACAD_REACTORS
330
3B
102
}
330
3B
100
AcDbScale
 70
     0
300
3/4" = 1'-0"
140
0.75
141
12.0
290
     0
  0
SCALE
  5
58
102
{ACAD_REACTORS
330
3B
102
}
330
3B
100
AcDbScale
 70
     0
300
1" = 1'-0"
140
1.0
141
12.0
290
     0
  0
SCALE
  5
59
102
{ACAD_REACTORS
330
3B
102
}
330
3B
100
AcDbScale
 70
     0
300
1-1/2" = 1'-0"
140
1.5
141
12.0
290
     0
  0
SCALE
  5
5A
102
{ACAD_REACTORS
330
3B
102
}
330
3B
100
AcDbScale
 70
     0
300
3" = 1'-0"
140
3.0
141
12.0
290
     0
  0
SCALE
  5
5B
102
{ACAD_REACTORS
330
3B
102
}
330
3B
100
AcDbScale
 70
     0
300
6" = 1'-0"
140
6.0
141
12.0
290
     0
  0
SCALE
  5
5C
102
{ACAD_REACTORS
330
3B
102
}
330
3B
100
AcDbScale
 70
     0
300
1'-0" = 1'-0"
140
12.0
141
12.0
290
     0
  0
VISUALSTYLE
  5
2F
102
{ACAD_REACTORS
330
2A
102
}
330
2A
100
AcDbVisualStyle
  2
2dWireframe
 70
     4
 71
     0
 72
     2
 73
     0
 90
        0
 40
-0.6
 41
-30.0
 62
     5
 63
     7
 74
     1
 91
        4
 64
     7
 65
   257
 75
     1
175
     1
 42
1.0
 92
        0
 66
   257
 43
1.0
 76
     1
 77
     6
 78
     2
 67
     7
 79
     5
170
     0
171
     0
290
     0
174
     0
 93
        1
 44
0.0
173
     0
291
     0
 45
0.0
1001
ACAD
1000
AcDbSavedByObjectVersion
1070
     0
  0
VISUALSTYLE
  5
31
102
{ACAD_REACTORS
330
2A
102
}
330
2A
100
AcDbVisualStyle
  2
3D Hidden
 70
     6
 71
     1
 72
     2
 73
     2
 90
        0
 40
-0.6
 41
-30.0
 62
     5
 63
     7
 74
     2
 91
        2
 64
     7
 65
   257
 75
     2
175
     1
 42
40.0
 92
        0
 66
   257
 43
1.0
 76
     1
 77
     6
 78
     2
 67
     7
 79
     3
170
     0
171
     0
290
     0
174
     0
 93
        1
 44
0.0
173
     0
291
     0
 45
0.0
1001
ACAD
1000
AcDbSavedByObjectVersion
1070
     0
  0
VISUALSTYLE
  5
30
102
{ACAD_REACTORS
330
2A
102
}
330
2A
100
AcDbVisualStyle
  2
3dWireframe
 70
     5
 71
     0
 72
     2
 73
     0
 90
        0
 40
-0.6
 41
-30.0
 62
     5
 63
     7
 74
     1
 91
        4
 64
     7
 65
   257
 75
     1
175
     1
 42
1.0
 92
        0
 66
   257
 43
1.0
 76
     1
 77
     6
 78
     2
 67
     7
 79
     5
170
     0
171
     0
290
     0
174
     0
 93
        1
 44
0.0
173
     0
291
     0
 45
0.0
1001
ACAD
1000
AcDbSavedByObjectVersion
1070
     0
  0
VISUALSTYLE
  5
32
102
{ACAD_REACTORS
330
2A
102
}
330
2A
100
AcDbVisualStyle
  2
Basic
 70
     7
 71
     1
 72
     0
 73
     1
 90
        0
 40
-0.6
 41
-30.0
 62
     5
 63
     7
 74
     0
 91
        4
 64
     7
 65
   257
 75
     1
175
     1
 42
1.0
 92
        8
 66
     7
 43
1.0
 76
     1
 77
     6
 78
     2
 67
     7
 79
     5
170
     0
171
     0
290
     0
174
     0
 93
        1
 44
0.0
173
     0
291
     1
 45
0.0
1001
ACAD
1000
AcDbSavedByObjectVersion
1070
     0
  0
VISUALSTYLE
  5
36
102
{ACAD_REACTORS
330
2A
102
}
330
2A
100
AcDbVisualStyle
  2
Brighten
 70
    12
 71
     2
 72
     2
 73
     0
 90
        0
 40
-0.6
 41
-30.0
 62
     5
 63
     7
 74
     1
 91
        4
 64
     7
 65
   257
 75
     1
175
     1
 42
1.0
 92
        8
 66
     7
 43
1.0
 76
     1
 77
     6
 78
     2
 67
     7
 79
     5
170
     0
171
     0
290
     0
174
     0
 93
        1
 44
50.0
173
     0
291
     1
 45
0.0
1001
ACAD
1000
AcDbSavedByObjectVersion
1070
     0
  0
VISUALSTYLE
  5
3A
102
{ACAD_REACTORS
330
2A
102
}
330
2A
100
AcDbVisualStyle
  2
ColorChange
 70
    16
 71
     2
 72
     2
 73
     3
 90
        0
 40
-0.6
 41
-30.0
 62
     5
 63
     8
 74
     1
 91
        4
 64
     7
 65
   257
 75
     1
175
     1
 42
1.0
 92
        8
 66
     8
 43
1.0
 76
     1
 77
     6
 78
     2
 67
     7
 79
     5
170
     0
171
     0
290
     0
174
     0
 93
        1
 44
0.0
173
     0
291
     1
 45
0.0
1001
ACAD
1000
AcDbSavedByObjectVersion
1070
     0
  0
VISUALSTYLE
  5
34
102
{ACAD_REACTORS
330
2A
102
}
330
2A
100
AcDbVisualStyle
  2
Conceptual
 70
     9
 71
     3
 72
     2
 73
     0
 90
        0
 40
-0.6
 41
-30.0
 62
     5
 63
     7
 74
     2
 91
        2
 64
     7
 65
   257
 75
     1
175
     1
 42
40.0
 92
        8
 66
     7
 43
1.0
 76
     1
 77
     6
 78
     2
 67
     7
 79
     3
170
     0
171
     0
290
     0
174
     0
 93
        1
 44
0.0
173
     0
291
     0
 45
0.0
1001
ACAD
1000
AcDbSavedByObjectVersion
1070
     0
  0
VISUALSTYLE
  5
35
102
{ACAD_REACTORS
330
2A
102
}
330
2A
100
AcDbVisualStyle
  2
Dim
 70
    11
 71
     2
 72
     2
 73
     0
 90
        0
 40
-0.6
 41
-30.0
 62
     5
 63
     7
 74
     1
 91
        4
 64
     7
 65
   257
 75
     1
175
     1
 42
1.0
 92
        8
 66
     7
 43
1.0
 76
     1
 77
     6
 78
     2
 67
     7
 79
     5
170
     0
171
     0
290
     0
174
     0
 93
        1
 44
-50.0
173
     0
291
     1
 45
0.0
1001
ACAD
1000
AcDbSavedByObjectVersion
1070
     0
  0
VISUALSTYLE
  5
39
102
{ACAD_REACTORS
330
2A
102
}
330
2A
100
AcDbVisualStyle
  2
Facepattern
 70
    15
 71
     2
 72
     2
 73
     0
 90
        0
 40
-0.6
 41
-30.0
 62
     5
 63
     7
 74
     1
 91
        4
 64
     7
 65
   257
 75
     1
175
     1
 42
1.0
 92
        8
 66
     7
 43
1.0
 76
     1
 77
     6
 78
     2
 67
     7
 79
     5
170
     0
171
     0
290
     0
174
     0
 93
        1
 44
0.0
173
     0
291
     1
 45
0.0
1001
ACAD
1000
AcDbSavedByObjectVersion
1070
     0
  0
VISUALSTYLE
  5
2B
102
{ACAD_REACTORS
330
2A
102
}
330
2A
100
AcDbVisualStyle
  2
Flat
 70
     0
 71
     2
 72
     1
 73
     1
 90
        2
 40
-0.6
 41
30.0
 62
     5
 63
     7
 74
     0
 91
        4
 64
     7
 65
   257
 75
     1
175
     1
 42
1.0
 92
        8
 66
     7
 43
1.0
 76
     1
 77
     6
 78
     2
 67
     7
 79
     5
170
     0
171
     0
290
     0
174
     0
 93
       13
 44
0.0
173
     0
291
     1
 45
0.0
1001
ACAD
1000
AcDbSavedByObjectVersion
1070
     0
  0
VISUALSTYLE
  5
2C
102
{ACAD_REACTORS
330
2A
102
}
330
2A
100
AcDbVisualStyle
  2
FlatWithEdges
 70
     1
 71
     2
 72
     1
 73
     1
 90
        2
 40
-0.6
 41
30.0
 62
     5
 63
     7
 74
     1
 91
        4
 64
     7
 65
   257
 75
     1
175
     1
 42
1.0
 92
        0
 66
   257
 43
1.0
 76
     1
 77
     6
 78
     2
 67
     7
 79
     5
170
     0
171
     0
290
     0
174
     0
 93
       13
 44
0.0
173
     0
291
     1
 45
0.0
1001
ACAD
1000
AcDbSavedByObjectVersion
1070
     0
  0
VISUALSTYLE
  5
2D
102
{ACAD_REACTORS
330
2A
102
}
330
2A
100
AcDbVisualStyle
  2
Gouraud
 70
     2
 71
     2
 72
     2
 73
     1
 90
        2
 40
-0.6
 41
30.0
 62
     5
 63
     7
 74
     0
 91
        4
 64
     7
 65
   257
 75
     1
175
     1
 42
1.0
 92
        0
 66
     7
 43
1.0
 76
     1
 77
     6
 78
     2
 67
     7
 79
     5
170
     0
171
     0
290
     0
174
     0
 93
       13
 44
0.0
173
     0
291
     1
 45
0.0
1001
ACAD
1000
AcDbSavedByObjectVersion
1070
     0
  0
VISUALSTYLE
  5
2E
102
{ACAD_REACTORS
330
2A
102
}
330
2A
100
AcDbVisualStyle
  2
GouraudWithEdges
 70
     3
 71
     2
 72
     2
 73
     1
 90
        2
 40
-0.6
 41
30.0
 62
     5
 63
     7
 74
     1
 91
        4
 64
     7
 65
   257
 75
     1
175
     1
 42
1.0
 92
        0
 66
   257
 43
1.0
 76
     1
 77
     6
 78
     2
 67
     7
 79
     5
170
     0
171
     0
290
     0
174
     0
 93
       13
 44
0.0
173
     0
291
     1
 45
0.0
1001
ACAD
1000
AcDbSavedByObjectVersion
1070
     0
  0
VISUALSTYLE
  5
38
102
{ACAD_REACTORS
330
2A
102
}
330
2A
100
AcDbVisualStyle
  2
Linepattern
 70
    14
 71
     2
 72
     2
 73
     0
 90
        0
 40
-0.6
 41
-30.0
 62
     5
 63
     7
 74
     1
 91
        4
 64
     7
 65
   257
 75
     7
175
     7
 42
1.0
 92
        8
 66
     7
 43
1.0
 76
     1
 77
     6
 78
     2
 67
     7
 79
     5
170
     0
171
     0
290
     0
174
     0
 93
        1
 44
0.0
173
     0
291
     1
 45
0.0
1001
ACAD
1000
AcDbSavedByObjectVersion
1070
     0
  0
VISUALSTYLE
  5
33
102
{ACAD_REACTORS
330
2A
102
}
330
2A
100
AcDbVisualStyle
  2
Realistic
 70
     8
 71
     2
 72
     2
 73
     0
 90
        0
 40
-0.6
 41
-30.0
 62
     5
 63
     7
 74
     1
 91
        0
 64
     7
 65
   257
 75
     1
175
     1
 42
1.0
 92
        8
 66
     8
 43
1.0
 76
     1
 77
     6
 78
     2
 67
     7
 79
     5
170
     0
171
     0
290
     0
174
     0
 93
       13
 44
0.0
173
     0
291
     0
 45
0.0
1001
ACAD
1000
AcDbSavedByObjectVersion
1070
     0
  0
VISUALSTYLE
  5
37
102
{ACAD_REACTORS
330
2A
102
}
330
2A
100
AcDbVisualStyle
  2
Thicken
 70
    13
 71
     2
 72
     2
 73
     0
 90
        0
 40
-0.6
 41
-30.0
 62
     5
 63
     7
 74
     1
 91
        4
 64
     7
 65
   257
 75
     1
175
     1
 42
1.0
 92
       12
 66
     7
 43
1.0
 76
     1
 77
     6
 78
     2
 67
     7
 79
     5
170
     0
171
     0
290
     0
174
     0
 93
        1
 44
0.0
173
     0
291
     1
 45
0.0
1001
ACAD
1000
AcDbSavedByObjectVersion
1070
     0
  0
DICTIONARYVAR
  5
E3
102
{ACAD_REACTORS
330
E2
102
}
330
E2
100
DictionaryVariables
280
     0
  1
1:1
  0
DICTIONARYVAR
  5
E7
102
{ACAD_REACTORS
330
E2
102
}
330
E2
100
DictionaryVariables
280
     0
  1
80.000000
  0
DICTIONARYVAR
  5
E6
102
{ACAD_REACTORS
330
E2
102
}
330
E2
100
DictionaryVariables
280
     0
  1
5.000000
  0
ENDSEC
  0
EOF
