999
Converted by 3D Exploration 
999
XDimension Software, LLC
999
http://www.xdsoft.com/explorer/
0
SECTION
2
HEADER
9
$ACADVER
1
AC1008
9
$UCSORG
10
0.0
20
0.0
30
0.0
9
$UCSXDIR
10
1.0
20
0.0
30
0.0
9
$TILEMODE
70
1
9
$UCSYDIR
10
0.0
20
1.0
30
0.0
9
$EXTMIN
10
-30.584000
20
-30.584000
30
-30.584000
9
$EXTMAX
10
30.584000
20
30.584000
30
64.661003
0
ENDSEC
0
SECTION
2
TABLES
0
TABLE
2
LTYPE
70
1
0
LTYPE
2
CONTINUOUS
70
64
3
Solid line
72
65
73
0
40
0.0
0
ENDTAB
0
TABLE
2
LAYER
70
120
0
LAYER
2
OBJECT__0
70
0
62
253
6
CONTINUOUS
0
LAYER
2
OBJECT__1
70
0
62
253
6
CONTINUOUS
0
LAYER
2
OBJECT__3
70
0
62
253
6
CONTINUOUS
0
LAYER
2
OBJECT__4
70
0
62
253
6
CONTINUOUS
0
LAYER
2
OBJECT__5
70
0
62
253
6
CONTINUOUS
0
LAYER
2
OBJECT__6
70
0
62
253
6
CONTINUOUS
0
LAYER
2
OBJECT__8
70
0
62
253
6
CONTINUOUS
0
LAYER
2
OBJECT__9
70
0
62
253
6
CONTINUOUS
0
LAYER
2
OBJECT__10
70
0
62
253
6
CONTINUOUS
0
LAYER
2
OBJECT__12
70
0
62
253
6
CONTINUOUS
0
LAYER
2
OBJECT__13
70
0
62
253
6
CONTINUOUS
0
LAYER
2
OBJECT__14
70
0
62
253
6
CONTINUOUS
0
LAYER
2
OBJECT__15
70
0
62
253
6
CONTINUOUS
0
LAYER
2
OBJECT__16
70
0
62
253
6
CONTINUOUS
0
LAYER
2
OBJECT__17
70
0
62
253
6
CONTINUOUS
0
LAYER
2
OBJECT__18
70
0
62
253
6
CONTINUOUS
0
LAYER
2
OBJECT__19
70
0
62
253
6
CONTINUOUS
0
LAYER
2
OBJECT__20
70
0
62
253
6
CONTINUOUS
0
LAYER
2
OBJECT__21
70
0
62
253
6
CONTINUOUS
0
LAYER
2
OBJECT__22
70
0
62
253
6
CONTINUOUS
0
LAYER
2
OBJECT__23
70
0
62
253
6
CONTINUOUS
0
LAYER
2
OBJECT__24
70
0
62
253
6
CONTINUOUS
0
LAYER
2
OBJECT__25
70
0
62
253
6
CONTINUOUS
0
LAYER
2
OBJECT__26
70
0
62
253
6
CONTINUOUS
0
LAYER
2
OBJECT__27
70
0
62
253
6
CONTINUOUS
0
LAYER
2
OBJECT__28
70
0
62
253
6
CONTINUOUS
0
LAYER
2
OBJECT__29
70
0
62
253
6
CONTINUOUS
0
LAYER
2
OBJECT__30
70
0
62
253
6
CONTINUOUS
0
LAYER
2
OBJECT__31
70
0
62
253
6
CONTINUOUS
0
LAYER
2
OBJECT__32
70
0
62
253
6
CONTINUOUS
0
LAYER
2
OBJECT__33
70
0
62
253
6
CONTINUOUS
0
LAYER
2
OBJECT__34
70
0
62
253
6
CONTINUOUS
0
LAYER
2
OBJECT__35
70
0
62
253
6
CONTINUOUS
0
LAYER
2
OBJECT__36
70
0
62
253
6
CONTINUOUS
0
LAYER
2
OBJECT__37
70
0
62
253
6
CONTINUOUS
0
LAYER
2
OBJECT__38
70
0
62
253
6
CONTINUOUS
0
LAYER
2
OBJECT__39
70
0
62
253
6
CONTINUOUS
0
LAYER
2
OBJECT__40
70
0
62
253
6
CONTINUOUS
0
LAYER
2
OBJECT__41
70
0
62
253
6
CONTINUOUS
0
LAYER
2
OBJECT__42
70
0
62
253
6
CONTINUOUS
0
LAYER
2
OBJECT__43
70
0
62
253
6
CONTINUOUS
0
LAYER
2
OBJECT__44
70
0
62
253
6
CONTINUOUS
0
LAYER
2
OBJECT__45
70
0
62
253
6
CONTINUOUS
0
LAYER
2
OBJECT__46
70
0
62
253
6
CONTINUOUS
0
LAYER
2
OBJECT__47
70
0
62
253
6
CONTINUOUS
0
LAYER
2
OBJECT__48
70
0
62
253
6
CONTINUOUS
0
LAYER
2
OBJECT__49
70
0
62
253
6
CONTINUOUS
0
LAYER
2
OBJECT__50
70
0
62
253
6
CONTINUOUS
0
LAYER
2
OBJECT__51
70
0
62
253
6
CONTINUOUS
0
LAYER
2
OBJECT__52
70
0
62
253
6
CONTINUOUS
0
LAYER
2
OBJECT__53
70
0
62
253
6
CONTINUOUS
0
LAYER
2
OBJECT__54
70
0
62
253
6
CONTINUOUS
0
LAYER
2
OBJECT__55
70
0
62
253
6
CONTINUOUS
0
LAYER
2
OBJECT__56
70
0
62
253
6
CONTINUOUS
0
LAYER
2
OBJECT__57
70
0
62
253
6
CONTINUOUS
0
LAYER
2
OBJECT__58
70
0
62
253
6
CONTINUOUS
0
LAYER
2
OBJECT__59
70
0
62
253
6
CONTINUOUS
0
LAYER
2
OBJECT__60
70
0
62
253
6
CONTINUOUS
0
LAYER
2
OBJECT__61
70
0
62
253
6
CONTINUOUS
0
LAYER
2
OBJECT__62
70
0
62
253
6
CONTINUOUS
0
LAYER
2
OBJECT__63
70
0
62
253
6
CONTINUOUS
0
LAYER
2
OBJECT__64
70
0
62
253
6
CONTINUOUS
0
LAYER
2
OBJECT__65
70
0
62
253
6
CONTINUOUS
0
LAYER
2
OBJECT__66
70
0
62
253
6
CONTINUOUS
0
LAYER
2
OBJECT__67
70
0
62
253
6
CONTINUOUS
0
LAYER
2
OBJECT__68
70
0
62
253
6
CONTINUOUS
0
LAYER
2
OBJECT__69
70
0
62
253
6
CONTINUOUS
0
LAYER
2
OBJECT__70
70
0
62
253
6
CONTINUOUS
0
LAYER
2
OBJECT__71
70
0
62
253
6
CONTINUOUS
0
LAYER
2
OBJECT__72
70
0
62
253
6
CONTINUOUS
0
LAYER
2
OBJECT__73
70
0
62
253
6
CONTINUOUS
0
LAYER
2
OBJECT__74
70
0
62
253
6
CONTINUOUS
0
LAYER
2
OBJECT__75
70
0
62
253
6
CONTINUOUS
0
LAYER
2
OBJECT__76
70
0
62
253
6
CONTINUOUS
0
LAYER
2
OBJECT__77
70
0
62
253
6
CONTINUOUS
0
LAYER
2
OBJECT__78
70
0
62
253
6
CONTINUOUS
0
LAYER
2
OBJECT__79
70
0
62
253
6
CONTINUOUS
0
LAYER
2
OBJECT__80
70
0
62
253
6
CONTINUOUS
0
LAYER
2
OBJECT__81
70
0
62
253
6
CONTINUOUS
0
LAYER
2
OBJECT__82
70
0
62
253
6
CONTINUOUS
0
LAYER
2
OBJECT__83
70
0
62
253
6
CONTINUOUS
0
LAYER
2
OBJECT__84
70
0
62
253
6
CONTINUOUS
0
LAYER
2
OBJECT__85
70
0
62
253
6
CONTINUOUS
0
LAYER
2
OBJECT__86
70
0
62
253
6
CONTINUOUS
0
LAYER
2
OBJECT__87
70
0
62
253
6
CONTINUOUS
0
LAYER
2
OBJECT__88
70
0
62
253
6
CONTINUOUS
0
LAYER
2
OBJECT__89
70
0
62
253
6
CONTINUOUS
0
LAYER
2
OBJECT__90
70
0
62
253
6
CONTINUOUS
0
LAYER
2
OBJECT__91
70
0
62
253
6
CONTINUOUS
0
LAYER
2
OBJECT__92
70
0
62
253
6
CONTINUOUS
0
LAYER
2
OBJECT__93
70
0
62
253
6
CONTINUOUS
0
LAYER
2
OBJECT__94
70
0
62
253
6
CONTINUOUS
0
LAYER
2
OBJECT__95
70
0
62
253
6
CONTINUOUS
0
LAYER
2
OBJECT__96
70
0
62
253
6
CONTINUOUS
0
LAYER
2
OBJECT__97
70
0
62
253
6
CONTINUOUS
0
LAYER
2
OBJECT__98
70
0
62
253
6
CONTINUOUS
0
LAYER
2
OBJECT__99
70
0
62
253
6
CONTINUOUS
0
LAYER
2
OBJECT__100
70
0
62
253
6
CONTINUOUS
0
LAYER
2
OBJECT__101
70
0
62
253
6
CONTINUOUS
0
LAYER
2
OBJECT__102
70
0
62
253
6
CONTINUOUS
0
LAYER
2
OBJECT__103
70
0
62
253
6
CONTINUOUS
0
LAYER
2
OBJECT__104
70
0
62
253
6
CONTINUOUS
0
LAYER
2
OBJECT__105
70
0
62
253
6
CONTINUOUS
0
LAYER
2
OBJECT__106
70
0
62
253
6
CONTINUOUS
0
LAYER
2
OBJECT__107
70
0
62
253
6
CONTINUOUS
0
LAYER
2
OBJECT__108
70
0
62
253
6
CONTINUOUS
0
LAYER
2
OBJECT__109
70
0
62
253
6
CONTINUOUS
0
LAYER
2
OBJECT__110
70
0
62
253
6
CONTINUOUS
0
LAYER
2
OBJECT__111
70
0
62
253
6
CONTINUOUS
0
LAYER
2
OBJECT__112
70
0
62
253
6
CONTINUOUS
0
LAYER
2
OBJECT__113
70
0
62
253
6
CONTINUOUS
0
LAYER
2
OBJECT__114
70
0
62
253
6
CONTINUOUS
0
LAYER
2
OBJECT__115
70
0
62
253
6
CONTINUOUS
0
LAYER
2
OBJECT__116
70
0
62
253
6
CONTINUOUS
0
LAYER
2
OBJECT__117
70
0
62
253
6
CONTINUOUS
0
LAYER
2
OBJECT__118
70
0
62
253
6
CONTINUOUS
0
LAYER
2
OBJECT__119
70
0
62
253
6
CONTINUOUS
0
ENDTAB
0
TABLE
2
STYLE
70
1
0
STYLE
2
STANDARD
70
0
40
0.0
41
1.0
50
0.0
71
0
42
0.2
3
txt
4
1
0
ENDTAB
0
TABLE
2
UCS
70
0
0
ENDTAB
0
ENDSEC
0
SECTION
2
ENTITIES
0
POLYLINE
8
OBJECT__0
66
1
70
64
71
48
72
64
62
253
0
VERTEX
8
OBJECT__0
10
-14.533000
20
0.000000
30
41.563999
70
192
0
VERTEX
8
OBJECT__0
10
-6.000000
20
0.000000
30
39.060001
70
192
0
VERTEX
8
OBJECT__0
10
-5.543000
20
-2.296000
30
39.060001
70
192
0
VERTEX
8
OBJECT__0
10
-10.277000
20
-10.277000
30
41.563999
70
192
0
VERTEX
8
OBJECT__0
10
-13.427000
20
-5.562000
30
41.563999
70
192
0
VERTEX
8
OBJECT__0
10
-5.562000
20
-13.427000
30
41.563999
70
192
0
VERTEX
8
OBJECT__0
10
-4.243000
20
-4.243000
30
39.060001
70
192
0
VERTEX
8
OBJECT__0
10
0.000000
20
-14.533000
30
41.563999
70
192
0
VERTEX
8
OBJECT__0
10
-2.296000
20
-5.543000
30
39.060001
70
192
0
VERTEX
8
OBJECT__0
10
0.000000
20
-6.000000
30
39.060001
70
192
0
VERTEX
8
OBJECT__0
10
2.296000
20
-5.543000
30
39.060001
70
192
0
VERTEX
8
OBJECT__0
10
10.277000
20
-10.277000
30
41.563999
70
192
0
VERTEX
8
OBJECT__0
10
5.562000
20
-13.427000
30
41.563999
70
192
0
VERTEX
8
OBJECT__0
10
4.243000
20
-4.243000
30
39.060001
70
192
0
VERTEX
8
OBJECT__0
10
5.543000
20
-2.296000
30
39.060001
70
192
0
VERTEX
8
OBJECT__0
10
14.533000
20
0.000000
30
41.563999
70
192
0
VERTEX
8
OBJECT__0
10
13.427000
20
-5.562000
30
41.563999
70
192
0
VERTEX
8
OBJECT__0
10
13.427000
20
5.562000
30
41.563999
70
192
0
VERTEX
8
OBJECT__0
10
6.000000
20
0.000000
30
39.060001
70
192
0
VERTEX
8
OBJECT__0
10
5.543000
20
2.296000
30
39.060001
70
192
0
VERTEX
8
OBJECT__0
10
4.243000
20
4.243000
30
39.060001
70
192
0
VERTEX
8
OBJECT__0
10
5.562000
20
13.427000
30
41.563999
70
192
0
VERTEX
8
OBJECT__0
10
10.277000
20
10.277000
30
41.563999
70
192
0
VERTEX
8
OBJECT__0
10
0.000000
20
14.533000
30
41.563999
70
192
0
VERTEX
8
OBJECT__0
10
2.296000
20
5.543000
30
39.060001
70
192
0
VERTEX
8
OBJECT__0
10
-5.562000
20
13.427000
30
41.563999
70
192
0
VERTEX
8
OBJECT__0
10
0.000000
20
6.000000
30
39.060001
70
192
0
VERTEX
8
OBJECT__0
10
-10.277000
20
10.277000
30
41.563999
70
192
0
VERTEX
8
OBJECT__0
10
-2.296000
20
5.543000
30
39.060001
70
192
0
VERTEX
8
OBJECT__0
10
-4.243000
20
4.243000
30
39.060001
70
192
0
VERTEX
8
OBJECT__0
10
-5.543000
20
2.296000
30
39.060001
70
192
0
VERTEX
8
OBJECT__0
10
-13.427000
20
5.562000
30
41.563999
70
192
0
VERTEX
8
OBJECT__0
10
-22.215000
20
0.000000
30
46.046001
70
192
0
VERTEX
8
OBJECT__0
10
-15.708000
20
-15.708000
30
46.046001
70
192
0
VERTEX
8
OBJECT__0
10
-20.524000
20
-8.501000
30
46.046001
70
192
0
VERTEX
8
OBJECT__0
10
-8.501000
20
-20.524000
30
46.046001
70
192
0
VERTEX
8
OBJECT__0
10
0.000000
20
-22.215000
30
46.046001
70
192
0
VERTEX
8
OBJECT__0
10
8.501000
20
-20.524000
30
46.046001
70
192
0
VERTEX
8
OBJECT__0
10
20.524000
20
-8.501000
30
46.046001
70
192
0
VERTEX
8
OBJECT__0
10
15.708000
20
-15.708000
30
46.046001
70
192
0
VERTEX
8
OBJECT__0
10
22.215000
20
0.000000
30
46.046001
70
192
0
VERTEX
8
OBJECT__0
10
20.524000
20
8.501000
30
46.046001
70
192
0
VERTEX
8
OBJECT__0
10
15.708000
20
15.708000
30
46.046001
70
192
0
VERTEX
8
OBJECT__0
10
8.501000
20
20.524000
30
46.046001
70
192
0
VERTEX
8
OBJECT__0
10
0.000000
20
22.215000
30
46.046001
70
192
0
VERTEX
8
OBJECT__0
10
-8.501000
20
20.524000
30
46.046001
70
192
0
VERTEX
8
OBJECT__0
10
-15.708000
20
15.708000
30
46.046001
70
192
0
VERTEX
8
OBJECT__0
10
-20.524000
20
8.501000
30
46.046001
70
192
0
VERTEX
8
OBJECT__0
10
0
20
0
30
0
70
128
71
1
72
2
73
3
0
VERTEX
8
OBJECT__0
10
0
20
0
30
0
70
128
71
4
72
5
73
3
0
VERTEX
8
OBJECT__0
10
0
20
0
30
0
70
128
71
6
72
4
73
7
0
VERTEX
8
OBJECT__0
10
0
20
0
30
0
70
128
71
8
72
6
73
9
0
VERTEX
8
OBJECT__0
10
0
20
0
30
0
70
128
71
8
72
10
73
11
0
VERTEX
8
OBJECT__0
10
0
20
0
30
0
70
128
71
12
72
13
73
11
0
VERTEX
8
OBJECT__0
10
0
20
0
30
0
70
128
71
12
72
14
73
15
0
VERTEX
8
OBJECT__0
10
0
20
0
30
0
70
128
71
16
72
17
73
15
0
VERTEX
8
OBJECT__0
10
0
20
0
30
0
70
128
71
18
72
16
73
19
0
VERTEX
8
OBJECT__0
10
0
20
0
30
0
70
128
71
18
72
20
73
21
0
VERTEX
8
OBJECT__0
10
0
20
0
30
0
70
128
71
22
72
23
73
21
0
VERTEX
8
OBJECT__0
10
0
20
0
30
0
70
128
71
24
72
22
73
25
0
VERTEX
8
OBJECT__0
10
0
20
0
30
0
70
128
71
26
72
24
73
27
0
VERTEX
8
OBJECT__0
10
0
20
0
30
0
70
128
71
28
72
26
73
29
0
VERTEX
8
OBJECT__0
10
0
20
0
30
0
70
128
71
28
72
30
73
31
0
VERTEX
8
OBJECT__0
10
0
20
0
30
0
70
128
71
32
72
31
73
2
0
VERTEX
8
OBJECT__0
10
0
20
0
30
0
70
128
71
33
72
1
73
5
0
VERTEX
8
OBJECT__0
10
0
20
0
30
0
70
128
71
34
72
35
73
5
0
VERTEX
8
OBJECT__0
10
0
20
0
30
0
70
128
71
36
72
34
73
4
0
VERTEX
8
OBJECT__0
10
0
20
0
30
0
70
128
71
37
72
36
73
6
0
VERTEX
8
OBJECT__0
10
0
20
0
30
0
70
128
71
37
72
8
73
13
0
VERTEX
8
OBJECT__0
10
0
20
0
30
0
70
128
71
38
72
13
73
12
0
VERTEX
8
OBJECT__0
10
0
20
0
30
0
70
128
71
39
72
40
73
12
0
VERTEX
8
OBJECT__0
10
0
20
0
30
0
70
128
71
41
72
39
73
17
0
VERTEX
8
OBJECT__0
10
0
20
0
30
0
70
128
71
42
72
41
73
16
0
VERTEX
8
OBJECT__0
10
0
20
0
30
0
70
128
71
43
72
42
73
18
0
VERTEX
8
OBJECT__0
10
0
20
0
30
0
70
128
71
44
72
43
73
23
0
VERTEX
8
OBJECT__0
10
0
20
0
30
0
70
128
71
45
72
44
73
22
0
VERTEX
8
OBJECT__0
10
0
20
0
30
0
70
128
71
46
72
45
73
24
0
VERTEX
8
OBJECT__0
10
0
20
0
30
0
70
128
71
47
72
46
73
26
0
VERTEX
8
OBJECT__0
10
0
20
0
30
0
70
128
71
48
72
47
73
28
0
VERTEX
8
OBJECT__0
10
0
20
0
30
0
70
128
71
48
72
32
73
1
0
VERTEX
8
OBJECT__0
10
0
20
0
30
0
70
128
71
1
72
33
73
48
0
VERTEX
8
OBJECT__0
10
0
20
0
30
0
70
128
71
28
72
32
73
48
0
VERTEX
8
OBJECT__0
10
0
20
0
30
0
70
128
71
26
72
28
73
47
0
VERTEX
8
OBJECT__0
10
0
20
0
30
0
70
128
71
24
72
26
73
46
0
VERTEX
8
OBJECT__0
10
0
20
0
30
0
70
128
71
22
72
24
73
45
0
VERTEX
8
OBJECT__0
10
0
20
0
30
0
70
128
71
23
72
22
73
44
0
VERTEX
8
OBJECT__0
10
0
20
0
30
0
70
128
71
18
72
23
73
43
0
VERTEX
8
OBJECT__0
10
0
20
0
30
0
70
128
71
16
72
18
73
42
0
VERTEX
8
OBJECT__0
10
0
20
0
30
0
70
128
71
17
72
16
73
41
0
VERTEX
8
OBJECT__0
10
0
20
0
30
0
70
128
71
12
72
17
73
39
0
VERTEX
8
OBJECT__0
10
0
20
0
30
0
70
128
71
12
72
40
73
38
0
VERTEX
8
OBJECT__0
10
0
20
0
30
0
70
128
71
13
72
38
73
37
0
VERTEX
8
OBJECT__0
10
0
20
0
30
0
70
128
71
6
72
8
73
37
0
VERTEX
8
OBJECT__0
10
0
20
0
30
0
70
128
71
4
72
6
73
36
0
VERTEX
8
OBJECT__0
10
0
20
0
30
0
70
128
71
5
72
4
73
34
0
VERTEX
8
OBJECT__0
10
0
20
0
30
0
70
128
71
5
72
35
73
33
0
VERTEX
8
OBJECT__0
10
0
20
0
30
0
70
128
71
2
72
1
73
32
0
VERTEX
8
OBJECT__0
10
0
20
0
30
0
70
128
71
31
72
32
73
28
0
VERTEX
8
OBJECT__0
10
0
20
0
30
0
70
128
71
29
72
30
73
28
0
VERTEX
8
OBJECT__0
10
0
20
0
30
0
70
128
71
27
72
29
73
26
0
VERTEX
8
OBJECT__0
10
0
20
0
30
0
70
128
71
25
72
27
73
24
0
VERTEX
8
OBJECT__0
10
0
20
0
30
0
70
128
71
21
72
25
73
22
0
VERTEX
8
OBJECT__0
10
0
20
0
30
0
70
128
71
21
72
23
73
18
0
VERTEX
8
OBJECT__0
10
0
20
0
30
0
70
128
71
19
72
20
73
18
0
VERTEX
8
OBJECT__0
10
0
20
0
30
0
70
128
71
15
72
19
73
16
0
VERTEX
8
OBJECT__0
10
0
20
0
30
0
70
128
71
15
72
17
73
12
0
VERTEX
8
OBJECT__0
10
0
20
0
30
0
70
128
71
11
72
14
73
12
0
VERTEX
8
OBJECT__0
10
0
20
0
30
0
70
128
71
11
72
13
73
8
0
VERTEX
8
OBJECT__0
10
0
20
0
30
0
70
128
71
9
72
10
73
8
0
VERTEX
8
OBJECT__0
10
0
20
0
30
0
70
128
71
7
72
9
73
6
0
VERTEX
8
OBJECT__0
10
0
20
0
30
0
70
128
71
3
72
7
73
4
0
VERTEX
8
OBJECT__0
10
0
20
0
30
0
70
128
71
3
72
5
73
1
0
SEQEND
8
OBJECT__0
0
POLYLINE
8
OBJECT__1
66
1
70
64
71
42
72
42
62
253
0
VERTEX
8
OBJECT__1
10
-22.215000
20
0.000000
30
46.046001
70
192
0
VERTEX
8
OBJECT__1
10
-20.524000
20
-8.501000
30
46.046001
70
192
0
VERTEX
8
OBJECT__1
10
-21.294001
20
-6.284000
30
46.615002
70
192
0
VERTEX
8
OBJECT__1
10
-20.827999
20
-8.627000
30
46.615002
70
192
0
VERTEX
8
OBJECT__1
10
-15.708000
20
-15.708000
30
46.046001
70
192
0
VERTEX
8
OBJECT__1
10
-8.501000
20
-20.524000
30
46.046001
70
192
0
VERTEX
8
OBJECT__1
10
-8.627000
20
-20.827999
30
46.615002
70
192
0
VERTEX
8
OBJECT__1
10
-14.620000
20
-16.823000
30
46.615002
70
192
0
VERTEX
8
OBJECT__1
10
0.000000
20
-22.215000
30
46.046001
70
192
0
VERTEX
8
OBJECT__1
10
-3.130000
20
-21.921000
30
46.615002
70
192
0
VERTEX
8
OBJECT__1
10
0.000000
20
-22.544001
30
46.615002
70
192
0
VERTEX
8
OBJECT__1
10
8.627000
20
-20.827999
30
46.615002
70
192
0
VERTEX
8
OBJECT__1
10
15.708000
20
-15.708000
30
46.046001
70
192
0
VERTEX
8
OBJECT__1
10
15.941000
20
-15.941000
30
46.615002
70
192
0
VERTEX
8
OBJECT__1
10
9.286000
20
-20.388000
30
46.615002
70
192
0
VERTEX
8
OBJECT__1
10
8.501000
20
-20.524000
30
46.046001
70
192
0
VERTEX
8
OBJECT__1
10
20.524000
20
-8.501000
30
46.046001
70
192
0
VERTEX
8
OBJECT__1
10
18.608000
20
-11.949000
30
46.615002
70
192
0
VERTEX
8
OBJECT__1
10
20.827999
20
-8.627000
30
46.615002
70
192
0
VERTEX
8
OBJECT__1
10
22.544001
20
0.000000
30
46.615002
70
192
0
VERTEX
8
OBJECT__1
10
20.827999
20
8.627000
30
46.615002
70
192
0
VERTEX
8
OBJECT__1
10
22.215000
20
0.000000
30
46.046001
70
192
0
VERTEX
8
OBJECT__1
10
15.708000
20
15.708000
30
46.046001
70
192
0
VERTEX
8
OBJECT__1
10
15.941000
20
15.941000
30
46.615002
70
192
0
VERTEX
8
OBJECT__1
10
18.608000
20
11.949000
30
46.615002
70
192
0
VERTEX
8
OBJECT__1
10
20.524000
20
8.501000
30
46.046001
70
192
0
VERTEX
8
OBJECT__1
10
8.501000
20
20.524000
30
46.046001
70
192
0
VERTEX
8
OBJECT__1
10
9.286000
20
20.388000
30
46.615002
70
192
0
VERTEX
8
OBJECT__1
10
8.627000
20
20.827999
30
46.615002
70
192
0
VERTEX
8
OBJECT__1
10
0.000000
20
22.544001
30
46.615002
70
192
0
VERTEX
8
OBJECT__1
10
-8.501000
20
20.524000
30
46.046001
70
192
0
VERTEX
8
OBJECT__1
10
-8.627000
20
20.827999
30
46.615002
70
192
0
VERTEX
8
OBJECT__1
10
-3.130000
20
21.921000
30
46.615002
70
192
0
VERTEX
8
OBJECT__1
10
0.000000
20
22.215000
30
46.046001
70
192
0
VERTEX
8
OBJECT__1
10
-15.708000
20
15.708000
30
46.046001
70
192
0
VERTEX
8
OBJECT__1
10
-14.620000
20
16.823000
30
46.615002
70
192
0
VERTEX
8
OBJECT__1
10
-15.941000
20
15.941000
30
46.615002
70
192
0
VERTEX
8
OBJECT__1
10
-20.827999
20
8.627000
30
46.615002
70
192
0
VERTEX
8
OBJECT__1
10
-22.544001
20
0.000000
30
46.615002
70
192
0
VERTEX
8
OBJECT__1
10
-21.294001
20
6.284000
30
46.615002
70
192
0
VERTEX
8
OBJECT__1
10
-20.524000
20
8.501000
30
46.046001
70
192
0
VERTEX
8
OBJECT__1
10
-15.941000
20
-15.941000
30
46.615002
70
192
0
VERTEX
8
OBJECT__1
10
0
20
0
30
0
70
128
71
1
72
2
73
3
0
VERTEX
8
OBJECT__1
10
0
20
0
30
0
70
128
71
2
72
4
73
3
0
VERTEX
8
OBJECT__1
10
0
20
0
30
0
70
128
71
4
72
2
73
5
0
VERTEX
8
OBJECT__1
10
0
20
0
30
0
70
128
71
6
72
7
73
8
0
VERTEX
8
OBJECT__1
10
0
20
0
30
0
70
128
71
8
72
5
73
6
0
VERTEX
8
OBJECT__1
10
0
20
0
30
0
70
128
71
6
72
9
73
10
0
VERTEX
8
OBJECT__1
10
0
20
0
30
0
70
128
71
9
72
11
73
10
0
VERTEX
8
OBJECT__1
10
0
20
0
30
0
70
128
71
12
72
11
73
9
0
VERTEX
8
OBJECT__1
10
0
20
0
30
0
70
128
71
13
72
14
73
15
0
VERTEX
8
OBJECT__1
10
0
20
0
30
0
70
128
71
15
72
16
73
13
0
VERTEX
8
OBJECT__1
10
0
20
0
30
0
70
128
71
13
72
17
73
18
0
VERTEX
8
OBJECT__1
10
0
20
0
30
0
70
128
71
17
72
19
73
18
0
VERTEX
8
OBJECT__1
10
0
20
0
30
0
70
128
71
20
72
19
73
17
0
VERTEX
8
OBJECT__1
10
0
20
0
30
0
70
128
71
21
72
20
73
22
0
VERTEX
8
OBJECT__1
10
0
20
0
30
0
70
128
71
23
72
24
73
25
0
VERTEX
8
OBJECT__1
10
0
20
0
30
0
70
128
71
25
72
26
73
23
0
VERTEX
8
OBJECT__1
10
0
20
0
30
0
70
128
71
23
72
27
73
28
0
VERTEX
8
OBJECT__1
10
0
20
0
30
0
70
128
71
27
72
29
73
28
0
VERTEX
8
OBJECT__1
10
0
20
0
30
0
70
128
71
30
72
29
73
27
0
VERTEX
8
OBJECT__1
10
0
20
0
30
0
70
128
71
31
72
32
73
33
0
VERTEX
8
OBJECT__1
10
0
20
0
30
0
70
128
71
33
72
34
73
31
0
VERTEX
8
OBJECT__1
10
0
20
0
30
0
70
128
71
31
72
35
73
36
0
VERTEX
8
OBJECT__1
10
0
20
0
30
0
70
128
71
35
72
37
73
36
0
VERTEX
8
OBJECT__1
10
0
20
0
30
0
70
128
71
38
72
37
73
35
0
VERTEX
8
OBJECT__1
10
0
20
0
30
0
70
128
71
1
72
39
73
40
0
VERTEX
8
OBJECT__1
10
0
20
0
30
0
70
128
71
40
72
41
73
1
0
VERTEX
8
OBJECT__1
10
0
20
0
30
0
70
128
71
40
72
38
73
41
0
VERTEX
8
OBJECT__1
10
0
20
0
30
0
70
128
71
35
72
41
73
38
0
VERTEX
8
OBJECT__1
10
0
20
0
30
0
70
128
71
36
72
32
73
31
0
VERTEX
8
OBJECT__1
10
0
20
0
30
0
70
128
71
33
72
30
73
34
0
VERTEX
8
OBJECT__1
10
0
20
0
30
0
70
128
71
27
72
34
73
30
0
VERTEX
8
OBJECT__1
10
0
20
0
30
0
70
128
71
28
72
24
73
23
0
VERTEX
8
OBJECT__1
10
0
20
0
30
0
70
128
71
25
72
21
73
26
0
VERTEX
8
OBJECT__1
10
0
20
0
30
0
70
128
71
22
72
26
73
21
0
VERTEX
8
OBJECT__1
10
0
20
0
30
0
70
128
71
17
72
22
73
20
0
VERTEX
8
OBJECT__1
10
0
20
0
30
0
70
128
71
18
72
14
73
13
0
VERTEX
8
OBJECT__1
10
0
20
0
30
0
70
128
71
15
72
12
73
16
0
VERTEX
8
OBJECT__1
10
0
20
0
30
0
70
128
71
9
72
16
73
12
0
VERTEX
8
OBJECT__1
10
0
20
0
30
0
70
128
71
10
72
7
73
6
0
VERTEX
8
OBJECT__1
10
0
20
0
30
0
70
128
71
8
72
42
73
5
0
VERTEX
8
OBJECT__1
10
0
20
0
30
0
70
128
71
5
72
42
73
4
0
VERTEX
8
OBJECT__1
10
0
20
0
30
0
70
128
71
3
72
39
73
1
0
SEQEND
8
OBJECT__1
0
POLYLINE
8
OBJECT__3
66
1
70
64
71
52
72
52
62
253
0
VERTEX
8
OBJECT__3
10
18.705000
20
12.012000
30
47.529999
70
192
0
VERTEX
8
OBJECT__3
10
20.936001
20
8.672000
30
47.529999
70
192
0
VERTEX
8
OBJECT__3
10
20.827999
20
8.627000
30
46.615002
70
192
0
VERTEX
8
OBJECT__3
10
22.660999
20
0.000000
30
47.529999
70
192
0
VERTEX
8
OBJECT__3
10
22.544001
20
0.000000
30
46.615002
70
192
0
VERTEX
8
OBJECT__3
10
9.334000
20
20.493999
30
47.529999
70
192
0
VERTEX
8
OBJECT__3
10
16.024000
20
16.024000
30
47.529999
70
192
0
VERTEX
8
OBJECT__3
10
15.941000
20
15.941000
30
46.615002
70
192
0
VERTEX
8
OBJECT__3
10
18.608000
20
11.949000
30
46.615002
70
192
0
VERTEX
8
OBJECT__3
10
-3.146000
20
22.035000
30
47.529999
70
192
0
VERTEX
8
OBJECT__3
10
0.000000
20
22.660999
30
47.529999
70
192
0
VERTEX
8
OBJECT__3
10
0.000000
20
22.544001
30
46.615002
70
192
0
VERTEX
8
OBJECT__3
10
8.672000
20
20.936001
30
47.529999
70
192
0
VERTEX
8
OBJECT__3
10
8.627000
20
20.827999
30
46.615002
70
192
0
VERTEX
8
OBJECT__3
10
9.286000
20
20.388000
30
46.615002
70
192
0
VERTEX
8
OBJECT__3
10
-14.696000
20
16.910999
30
47.529999
70
192
0
VERTEX
8
OBJECT__3
10
-8.672000
20
20.936001
30
47.529999
70
192
0
VERTEX
8
OBJECT__3
10
-8.627000
20
20.827999
30
46.615002
70
192
0
VERTEX
8
OBJECT__3
10
-3.130000
20
21.921000
30
46.615002
70
192
0
VERTEX
8
OBJECT__3
10
-21.405001
20
6.317000
30
47.529999
70
192
0
VERTEX
8
OBJECT__3
10
-20.936001
20
8.672000
30
47.529999
70
192
0
VERTEX
8
OBJECT__3
10
-20.827999
20
8.627000
30
46.615002
70
192
0
VERTEX
8
OBJECT__3
10
-16.024000
20
16.024000
30
47.529999
70
192
0
VERTEX
8
OBJECT__3
10
-15.941000
20
15.941000
30
46.615002
70
192
0
VERTEX
8
OBJECT__3
10
-14.620000
20
16.823000
30
46.615002
70
192
0
VERTEX
8
OBJECT__3
10
-21.405001
20
-6.317000
30
47.529999
70
192
0
VERTEX
8
OBJECT__3
10
-22.660999
20
0.000000
30
47.529999
70
192
0
VERTEX
8
OBJECT__3
10
-22.544001
20
0.000000
30
46.615002
70
192
0
VERTEX
8
OBJECT__3
10
-21.294001
20
6.284000
30
46.615002
70
192
0
VERTEX
8
OBJECT__3
10
-14.696000
20
-16.910999
30
47.529999
70
192
0
VERTEX
8
OBJECT__3
10
-16.024000
20
-16.024000
30
47.529999
70
192
0
VERTEX
8
OBJECT__3
10
-15.941000
20
-15.941000
30
46.615002
70
192
0
VERTEX
8
OBJECT__3
10
-20.936001
20
-8.672000
30
47.529999
70
192
0
VERTEX
8
OBJECT__3
10
-20.827999
20
-8.627000
30
46.615002
70
192
0
VERTEX
8
OBJECT__3
10
-21.294001
20
-6.284000
30
46.615002
70
192
0
VERTEX
8
OBJECT__3
10
-3.146000
20
-22.035000
30
47.529999
70
192
0
VERTEX
8
OBJECT__3
10
-8.672000
20
-20.936001
30
47.529999
70
192
0
VERTEX
8
OBJECT__3
10
-8.627000
20
-20.827999
30
46.615002
70
192
0
VERTEX
8
OBJECT__3
10
-14.620000
20
-16.823000
30
46.615002
70
192
0
VERTEX
8
OBJECT__3
10
9.334000
20
-20.493999
30
47.529999
70
192
0
VERTEX
8
OBJECT__3
10
8.672000
20
-20.936001
30
47.529999
70
192
0
VERTEX
8
OBJECT__3
10
8.627000
20
-20.827999
30
46.615002
70
192
0
VERTEX
8
OBJECT__3
10
0.000000
20
-22.660999
30
47.529999
70
192
0
VERTEX
8
OBJECT__3
10
0.000000
20
-22.544001
30
46.615002
70
192
0
VERTEX
8
OBJECT__3
10
-3.130000
20
-21.921000
30
46.615002
70
192
0
VERTEX
8
OBJECT__3
10
18.705000
20
-12.012000
30
47.529999
70
192
0
VERTEX
8
OBJECT__3
10
16.024000
20
-16.024000
30
47.529999
70
192
0
VERTEX
8
OBJECT__3
10
15.941000
20
-15.941000
30
46.615002
70
192
0
VERTEX
8
OBJECT__3
10
9.286000
20
-20.388000
30
46.615002
70
192
0
VERTEX
8
OBJECT__3
10
20.936001
20
-8.672000
30
47.529999
70
192
0
VERTEX
8
OBJECT__3
10
20.827999
20
-8.627000
30
46.615002
70
192
0
VERTEX
8
OBJECT__3
10
18.608000
20
-11.949000
30
46.615002
70
192
0
VERTEX
8
OBJECT__3
10
0
20
0
30
0
70
128
71
1
72
2
73
3
0
VERTEX
8
OBJECT__3
10
0
20
0
30
0
70
128
71
2
72
4
73
5
0
VERTEX
8
OBJECT__3
10
0
20
0
30
0
70
128
71
5
72
3
73
2
0
VERTEX
8
OBJECT__3
10
0
20
0
30
0
70
128
71
6
72
7
73
8
0
VERTEX
8
OBJECT__3
10
0
20
0
30
0
70
128
71
1
72
9
73
8
0
VERTEX
8
OBJECT__3
10
0
20
0
30
0
70
128
71
8
72
7
73
1
0
VERTEX
8
OBJECT__3
10
0
20
0
30
0
70
128
71
10
72
11
73
12
0
VERTEX
8
OBJECT__3
10
0
20
0
30
0
70
128
71
11
72
13
73
14
0
VERTEX
8
OBJECT__3
10
0
20
0
30
0
70
128
71
14
72
12
73
11
0
VERTEX
8
OBJECT__3
10
0
20
0
30
0
70
128
71
6
72
15
73
14
0
VERTEX
8
OBJECT__3
10
0
20
0
30
0
70
128
71
14
72
13
73
6
0
VERTEX
8
OBJECT__3
10
0
20
0
30
0
70
128
71
16
72
17
73
18
0
VERTEX
8
OBJECT__3
10
0
20
0
30
0
70
128
71
10
72
19
73
18
0
VERTEX
8
OBJECT__3
10
0
20
0
30
0
70
128
71
18
72
17
73
10
0
VERTEX
8
OBJECT__3
10
0
20
0
30
0
70
128
71
20
72
21
73
22
0
VERTEX
8
OBJECT__3
10
0
20
0
30
0
70
128
71
23
72
24
73
22
0
VERTEX
8
OBJECT__3
10
0
20
0
30
0
70
128
71
22
72
21
73
23
0
VERTEX
8
OBJECT__3
10
0
20
0
30
0
70
128
71
16
72
25
73
24
0
VERTEX
8
OBJECT__3
10
0
20
0
30
0
70
128
71
24
72
23
73
16
0
VERTEX
8
OBJECT__3
10
0
20
0
30
0
70
128
71
26
72
27
73
28
0
VERTEX
8
OBJECT__3
10
0
20
0
30
0
70
128
71
20
72
29
73
28
0
VERTEX
8
OBJECT__3
10
0
20
0
30
0
70
128
71
28
72
27
73
20
0
VERTEX
8
OBJECT__3
10
0
20
0
30
0
70
128
71
30
72
31
73
32
0
VERTEX
8
OBJECT__3
10
0
20
0
30
0
70
128
71
31
72
33
73
34
0
VERTEX
8
OBJECT__3
10
0
20
0
30
0
70
128
71
26
72
35
73
34
0
VERTEX
8
OBJECT__3
10
0
20
0
30
0
70
128
71
34
72
33
73
26
0
VERTEX
8
OBJECT__3
10
0
20
0
30
0
70
128
71
34
72
32
73
31
0
VERTEX
8
OBJECT__3
10
0
20
0
30
0
70
128
71
36
72
37
73
38
0
VERTEX
8
OBJECT__3
10
0
20
0
30
0
70
128
71
30
72
39
73
38
0
VERTEX
8
OBJECT__3
10
0
20
0
30
0
70
128
71
38
72
37
73
30
0
VERTEX
8
OBJECT__3
10
0
20
0
30
0
70
128
71
40
72
41
73
42
0
VERTEX
8
OBJECT__3
10
0
20
0
30
0
70
128
71
41
72
43
73
44
0
VERTEX
8
OBJECT__3
10
0
20
0
30
0
70
128
71
36
72
45
73
44
0
VERTEX
8
OBJECT__3
10
0
20
0
30
0
70
128
71
44
72
43
73
36
0
VERTEX
8
OBJECT__3
10
0
20
0
30
0
70
128
71
44
72
42
73
41
0
VERTEX
8
OBJECT__3
10
0
20
0
30
0
70
128
71
46
72
47
73
48
0
VERTEX
8
OBJECT__3
10
0
20
0
30
0
70
128
71
40
72
49
73
48
0
VERTEX
8
OBJECT__3
10
0
20
0
30
0
70
128
71
48
72
47
73
40
0
VERTEX
8
OBJECT__3
10
0
20
0
30
0
70
128
71
4
72
50
73
51
0
VERTEX
8
OBJECT__3
10
0
20
0
30
0
70
128
71
46
72
52
73
51
0
VERTEX
8
OBJECT__3
10
0
20
0
30
0
70
128
71
51
72
50
73
46
0
VERTEX
8
OBJECT__3
10
0
20
0
30
0
70
128
71
51
72
5
73
4
0
VERTEX
8
OBJECT__3
10
0
20
0
30
0
70
128
71
48
72
52
73
46
0
VERTEX
8
OBJECT__3
10
0
20
0
30
0
70
128
71
42
72
49
73
40
0
VERTEX
8
OBJECT__3
10
0
20
0
30
0
70
128
71
38
72
45
73
36
0
VERTEX
8
OBJECT__3
10
0
20
0
30
0
70
128
71
32
72
39
73
30
0
VERTEX
8
OBJECT__3
10
0
20
0
30
0
70
128
71
28
72
35
73
26
0
VERTEX
8
OBJECT__3
10
0
20
0
30
0
70
128
71
22
72
29
73
20
0
VERTEX
8
OBJECT__3
10
0
20
0
30
0
70
128
71
18
72
25
73
16
0
VERTEX
8
OBJECT__3
10
0
20
0
30
0
70
128
71
12
72
19
73
10
0
VERTEX
8
OBJECT__3
10
0
20
0
30
0
70
128
71
8
72
15
73
6
0
VERTEX
8
OBJECT__3
10
0
20
0
30
0
70
128
71
3
72
9
73
1
0
SEQEND
8
OBJECT__3
0
POLYLINE
8
OBJECT__4
66
1
70
64
71
58
72
74
62
253
0
VERTEX
8
OBJECT__4
10
-22.613001
20
0.000000
30
47.687000
70
192
0
VERTEX
8
OBJECT__4
10
-22.660999
20
0.000000
30
47.529999
70
192
0
VERTEX
8
OBJECT__4
10
-21.405001
20
-6.317000
30
47.529999
70
192
0
VERTEX
8
OBJECT__4
10
-20.892000
20
-8.654000
30
47.687000
70
192
0
VERTEX
8
OBJECT__4
10
-20.936001
20
-8.672000
30
47.529999
70
192
0
VERTEX
8
OBJECT__4
10
-16.024000
20
-16.024000
30
47.529999
70
192
0
VERTEX
8
OBJECT__4
10
-15.990000
20
-15.990000
30
47.687000
70
192
0
VERTEX
8
OBJECT__4
10
-8.654000
20
-20.892000
30
47.687000
70
192
0
VERTEX
8
OBJECT__4
10
-14.696000
20
-16.910999
30
47.529999
70
192
0
VERTEX
8
OBJECT__4
10
-8.672000
20
-20.936001
30
47.529999
70
192
0
VERTEX
8
OBJECT__4
10
-3.146000
20
-22.035000
30
47.529999
70
192
0
VERTEX
8
OBJECT__4
10
0.000000
20
-22.613001
30
47.687000
70
192
0
VERTEX
8
OBJECT__4
10
8.672000
20
-20.936001
30
47.529999
70
192
0
VERTEX
8
OBJECT__4
10
8.654000
20
-20.892000
30
47.687000
70
192
0
VERTEX
8
OBJECT__4
10
15.990000
20
-15.990000
30
47.687000
70
192
0
VERTEX
8
OBJECT__4
10
9.334000
20
-20.493999
30
47.529999
70
192
0
VERTEX
8
OBJECT__4
10
16.024000
20
-16.024000
30
47.529999
70
192
0
VERTEX
8
OBJECT__4
10
18.705000
20
-12.012000
30
47.529999
70
192
0
VERTEX
8
OBJECT__4
10
20.892000
20
-8.654000
30
47.687000
70
192
0
VERTEX
8
OBJECT__4
10
22.660999
20
0.000000
30
47.529999
70
192
0
VERTEX
8
OBJECT__4
10
22.613001
20
0.000000
30
47.687000
70
192
0
VERTEX
8
OBJECT__4
10
20.936001
20
8.672000
30
47.529999
70
192
0
VERTEX
8
OBJECT__4
10
20.892000
20
8.654000
30
47.687000
70
192
0
VERTEX
8
OBJECT__4
10
15.990000
20
15.990000
30
47.687000
70
192
0
VERTEX
8
OBJECT__4
10
18.705000
20
12.012000
30
47.529999
70
192
0
VERTEX
8
OBJECT__4
10
16.024000
20
16.024000
30
47.529999
70
192
0
VERTEX
8
OBJECT__4
10
9.334000
20
20.493999
30
47.529999
70
192
0
VERTEX
8
OBJECT__4
10
8.654000
20
20.892000
30
47.687000
70
192
0
VERTEX
8
OBJECT__4
10
8.672000
20
20.936001
30
47.529999
70
192
0
VERTEX
8
OBJECT__4
10
0.000000
20
22.660999
30
47.529999
70
192
0
VERTEX
8
OBJECT__4
10
0.000000
20
22.613001
30
47.687000
70
192
0
VERTEX
8
OBJECT__4
10
-8.654000
20
20.892000
30
47.687000
70
192
0
VERTEX
8
OBJECT__4
10
-3.146000
20
22.035000
30
47.529999
70
192
0
VERTEX
8
OBJECT__4
10
-8.672000
20
20.936001
30
47.529999
70
192
0
VERTEX
8
OBJECT__4
10
-14.696000
20
16.910999
30
47.529999
70
192
0
VERTEX
8
OBJECT__4
10
-15.990000
20
15.990000
30
47.687000
70
192
0
VERTEX
8
OBJECT__4
10
-16.024000
20
16.024000
30
47.529999
70
192
0
VERTEX
8
OBJECT__4
10
-20.936001
20
8.672000
30
47.529999
70
192
0
VERTEX
8
OBJECT__4
10
-20.892000
20
8.654000
30
47.687000
70
192
0
VERTEX
8
OBJECT__4
10
-21.405001
20
6.317000
30
47.529999
70
192
0
VERTEX
8
OBJECT__4
10
-20.753000
20
-8.596000
30
47.755001
70
192
0
VERTEX
8
OBJECT__4
10
-22.462999
20
0.000000
30
47.755001
70
192
0
VERTEX
8
OBJECT__4
10
-15.884000
20
-15.884000
30
47.755001
70
192
0
VERTEX
8
OBJECT__4
10
-8.596000
20
-20.753000
30
47.755001
70
192
0
VERTEX
8
OBJECT__4
10
0.000000
20
-22.462999
30
47.755001
70
192
0
VERTEX
8
OBJECT__4
10
8.596000
20
-20.753000
30
47.755001
70
192
0
VERTEX
8
OBJECT__4
10
15.884000
20
-15.884000
30
47.755001
70
192
0
VERTEX
8
OBJECT__4
10
20.753000
20
-8.596000
30
47.755001
70
192
0
VERTEX
8
OBJECT__4
10
22.462999
20
0.000000
30
47.755001
70
192
0
VERTEX
8
OBJECT__4
10
20.753000
20
8.596000
30
47.755001
70
192
0
VERTEX
8
OBJECT__4
10
15.884000
20
15.884000
30
47.755001
70
192
0
VERTEX
8
OBJECT__4
10
8.596000
20
20.753000
30
47.755001
70
192
0
VERTEX
8
OBJECT__4
10
0.000000
20
22.462999
30
47.755001
70
192
0
VERTEX
8
OBJECT__4
10
-8.596000
20
20.753000
30
47.755001
70
192
0
VERTEX
8
OBJECT__4
10
-15.884000
20
15.884000
30
47.755001
70
192
0
VERTEX
8
OBJECT__4
10
-20.753000
20
8.596000
30
47.755001
70
192
0
VERTEX
8
OBJECT__4
10
20.936001
20
-8.672000
30
47.529999
70
192
0
VERTEX
8
OBJECT__4
10
0.000000
20
-22.660999
30
47.529999
70
192
0
VERTEX
8
OBJECT__4
10
0
20
0
30
0
70
128
71
1
72
2
73
3
0
VERTEX
8
OBJECT__4
10
0
20
0
30
0
70
128
71
3
72
4
73
1
0
VERTEX
8
OBJECT__4
10
0
20
0
30
0
70
128
71
5
72
6
73
7
0
VERTEX
8
OBJECT__4
10
0
20
0
30
0
70
128
71
8
72
7
73
9
0
VERTEX
8
OBJECT__4
10
0
20
0
30
0
70
128
71
7
72
6
73
9
0
VERTEX
8
OBJECT__4
10
0
20
0
30
0
70
128
71
8
72
10
73
11
0
VERTEX
8
OBJECT__4
10
0
20
0
30
0
70
128
71
11
72
12
73
8
0
VERTEX
8
OBJECT__4
10
0
20
0
30
0
70
128
71
13
72
14
73
12
0
VERTEX
8
OBJECT__4
10
0
20
0
30
0
70
128
71
15
72
14
73
16
0
VERTEX
8
OBJECT__4
10
0
20
0
30
0
70
128
71
14
72
13
73
16
0
VERTEX
8
OBJECT__4
10
0
20
0
30
0
70
128
71
15
72
17
73
18
0
VERTEX
8
OBJECT__4
10
0
20
0
30
0
70
128
71
18
72
19
73
15
0
VERTEX
8
OBJECT__4
10
0
20
0
30
0
70
128
71
20
72
21
73
19
0
VERTEX
8
OBJECT__4
10
0
20
0
30
0
70
128
71
20
72
22
73
23
0
VERTEX
8
OBJECT__4
10
0
20
0
30
0
70
128
71
24
72
23
73
25
0
VERTEX
8
OBJECT__4
10
0
20
0
30
0
70
128
71
23
72
22
73
25
0
VERTEX
8
OBJECT__4
10
0
20
0
30
0
70
128
71
24
72
26
73
27
0
VERTEX
8
OBJECT__4
10
0
20
0
30
0
70
128
71
27
72
28
73
24
0
VERTEX
8
OBJECT__4
10
0
20
0
30
0
70
128
71
29
72
30
73
31
0
VERTEX
8
OBJECT__4
10
0
20
0
30
0
70
128
71
32
72
31
73
33
0
VERTEX
8
OBJECT__4
10
0
20
0
30
0
70
128
71
31
72
30
73
33
0
VERTEX
8
OBJECT__4
10
0
20
0
30
0
70
128
71
32
72
34
73
35
0
VERTEX
8
OBJECT__4
10
0
20
0
30
0
70
128
71
35
72
36
73
32
0
VERTEX
8
OBJECT__4
10
0
20
0
30
0
70
128
71
37
72
38
73
39
0
VERTEX
8
OBJECT__4
10
0
20
0
30
0
70
128
71
1
72
39
73
40
0
VERTEX
8
OBJECT__4
10
0
20
0
30
0
70
128
71
39
72
38
73
40
0
VERTEX
8
OBJECT__4
10
0
20
0
30
0
70
128
71
4
72
41
73
42
0
VERTEX
8
OBJECT__4
10
0
20
0
30
0
70
128
71
7
72
43
73
41
0
VERTEX
8
OBJECT__4
10
0
20
0
30
0
70
128
71
8
72
44
73
43
0
VERTEX
8
OBJECT__4
10
0
20
0
30
0
70
128
71
8
72
12
73
45
0
VERTEX
8
OBJECT__4
10
0
20
0
30
0
70
128
71
12
72
14
73
46
0
VERTEX
8
OBJECT__4
10
0
20
0
30
0
70
128
71
14
72
15
73
47
0
VERTEX
8
OBJECT__4
10
0
20
0
30
0
70
128
71
19
72
48
73
47
0
VERTEX
8
OBJECT__4
10
0
20
0
30
0
70
128
71
21
72
49
73
48
0
VERTEX
8
OBJECT__4
10
0
20
0
30
0
70
128
71
23
72
50
73
49
0
VERTEX
8
OBJECT__4
10
0
20
0
30
0
70
128
71
24
72
51
73
50
0
VERTEX
8
OBJECT__4
10
0
20
0
30
0
70
128
71
28
72
52
73
51
0
VERTEX
8
OBJECT__4
10
0
20
0
30
0
70
128
71
31
72
53
73
52
0
VERTEX
8
OBJECT__4
10
0
20
0
30
0
70
128
71
32
72
54
73
53
0
VERTEX
8
OBJECT__4
10
0
20
0
30
0
70
128
71
32
72
36
73
55
0
VERTEX
8
OBJECT__4
10
0
20
0
30
0
70
128
71
36
72
39
73
56
0
VERTEX
8
OBJECT__4
10
0
20
0
30
0
70
128
71
39
72
1
73
42
0
VERTEX
8
OBJECT__4
10
0
20
0
30
0
70
128
71
42
72
56
73
39
0
VERTEX
8
OBJECT__4
10
0
20
0
30
0
70
128
71
56
72
55
73
36
0
VERTEX
8
OBJECT__4
10
0
20
0
30
0
70
128
71
55
72
54
73
32
0
VERTEX
8
OBJECT__4
10
0
20
0
30
0
70
128
71
53
72
31
73
32
0
VERTEX
8
OBJECT__4
10
0
20
0
30
0
70
128
71
52
72
28
73
31
0
VERTEX
8
OBJECT__4
10
0
20
0
30
0
70
128
71
51
72
24
73
28
0
VERTEX
8
OBJECT__4
10
0
20
0
30
0
70
128
71
50
72
23
73
24
0
VERTEX
8
OBJECT__4
10
0
20
0
30
0
70
128
71
49
72
21
73
23
0
VERTEX
8
OBJECT__4
10
0
20
0
30
0
70
128
71
48
72
19
73
21
0
VERTEX
8
OBJECT__4
10
0
20
0
30
0
70
128
71
47
72
15
73
19
0
VERTEX
8
OBJECT__4
10
0
20
0
30
0
70
128
71
47
72
46
73
14
0
VERTEX
8
OBJECT__4
10
0
20
0
30
0
70
128
71
46
72
45
73
12
0
VERTEX
8
OBJECT__4
10
0
20
0
30
0
70
128
71
45
72
44
73
8
0
VERTEX
8
OBJECT__4
10
0
20
0
30
0
70
128
71
43
72
7
73
8
0
VERTEX
8
OBJECT__4
10
0
20
0
30
0
70
128
71
41
72
4
73
7
0
VERTEX
8
OBJECT__4
10
0
20
0
30
0
70
128
71
42
72
1
73
4
0
VERTEX
8
OBJECT__4
10
0
20
0
30
0
70
128
71
40
72
2
73
1
0
VERTEX
8
OBJECT__4
10
0
20
0
30
0
70
128
71
39
72
36
73
37
0
VERTEX
8
OBJECT__4
10
0
20
0
30
0
70
128
71
35
72
37
73
36
0
VERTEX
8
OBJECT__4
10
0
20
0
30
0
70
128
71
33
72
34
73
32
0
VERTEX
8
OBJECT__4
10
0
20
0
30
0
70
128
71
31
72
28
73
29
0
VERTEX
8
OBJECT__4
10
0
20
0
30
0
70
128
71
27
72
29
73
28
0
VERTEX
8
OBJECT__4
10
0
20
0
30
0
70
128
71
25
72
26
73
24
0
VERTEX
8
OBJECT__4
10
0
20
0
30
0
70
128
71
23
72
21
73
20
0
VERTEX
8
OBJECT__4
10
0
20
0
30
0
70
128
71
19
72
57
73
20
0
VERTEX
8
OBJECT__4
10
0
20
0
30
0
70
128
71
18
72
57
73
19
0
VERTEX
8
OBJECT__4
10
0
20
0
30
0
70
128
71
16
72
17
73
15
0
VERTEX
8
OBJECT__4
10
0
20
0
30
0
70
128
71
12
72
58
73
13
0
VERTEX
8
OBJECT__4
10
0
20
0
30
0
70
128
71
11
72
58
73
12
0
VERTEX
8
OBJECT__4
10
0
20
0
30
0
70
128
71
9
72
10
73
8
0
VERTEX
8
OBJECT__4
10
0
20
0
30
0
70
128
71
7
72
4
73
5
0
VERTEX
8
OBJECT__4
10
0
20
0
30
0
70
128
71
3
72
5
73
4
0
SEQEND
8
OBJECT__4
0
POLYLINE
8
OBJECT__5
66
1
70
64
71
10
72
8
62
253
0
VERTEX
8
OBJECT__5
10
4.755000
20
1.545000
30
0.000000
70
192
0
VERTEX
8
OBJECT__5
10
4.755000
20
-1.545000
30
0.000000
70
192
0
VERTEX
8
OBJECT__5
10
2.939000
20
-4.045000
30
0.000000
70
192
0
VERTEX
8
OBJECT__5
10
0.000000
20
-5.000000
30
0.000000
70
192
0
VERTEX
8
OBJECT__5
10
0.000000
20
5.000000
30
0.000000
70
192
0
VERTEX
8
OBJECT__5
10
2.939000
20
4.045000
30
0.000000
70
192
0
VERTEX
8
OBJECT__5
10
-4.755000
20
-1.545000
30
0.000000
70
192
0
VERTEX
8
OBJECT__5
10
-4.755000
20
1.545000
30
0.000000
70
192
0
VERTEX
8
OBJECT__5
10
-2.939000
20
-4.045000
30
0.000000
70
192
0
VERTEX
8
OBJECT__5
10
-2.939000
20
4.045000
30
0.000000
70
192
0
VERTEX
8
OBJECT__5
10
0
20
0
30
0
70
128
71
1
72
2
73
3
0
VERTEX
8
OBJECT__5
10
0
20
0
30
0
70
128
71
4
72
5
73
6
0
VERTEX
8
OBJECT__5
10
0
20
0
30
0
70
128
71
5
72
7
73
8
0
VERTEX
8
OBJECT__5
10
0
20
0
30
0
70
128
71
5
72
4
73
9
0
VERTEX
8
OBJECT__5
10
0
20
0
30
0
70
128
71
6
72
1
73
4
0
VERTEX
8
OBJECT__5
10
0
20
0
30
0
70
128
71
9
72
7
73
5
0
VERTEX
8
OBJECT__5
10
0
20
0
30
0
70
128
71
8
72
10
73
5
0
VERTEX
8
OBJECT__5
10
0
20
0
30
0
70
128
71
3
72
4
73
1
0
SEQEND
8
OBJECT__5
0
POLYLINE
8
OBJECT__6
66
1
70
64
71
20
72
20
62
253
0
VERTEX
8
OBJECT__6
10
3.527000
20
-4.854000
30
1.000000
70
192
0
VERTEX
8
OBJECT__6
10
0.000000
20
-6.000000
30
1.000000
70
192
0
VERTEX
8
OBJECT__6
10
0.000000
20
-5.000000
30
0.000000
70
192
0
VERTEX
8
OBJECT__6
10
5.706000
20
-1.854000
30
1.000000
70
192
0
VERTEX
8
OBJECT__6
10
2.939000
20
-4.045000
30
0.000000
70
192
0
VERTEX
8
OBJECT__6
10
5.706000
20
1.854000
30
1.000000
70
192
0
VERTEX
8
OBJECT__6
10
4.755000
20
-1.545000
30
0.000000
70
192
0
VERTEX
8
OBJECT__6
10
3.527000
20
4.854000
30
1.000000
70
192
0
VERTEX
8
OBJECT__6
10
4.755000
20
1.545000
30
0.000000
70
192
0
VERTEX
8
OBJECT__6
10
0.000000
20
6.000000
30
1.000000
70
192
0
VERTEX
8
OBJECT__6
10
2.939000
20
4.045000
30
0.000000
70
192
0
VERTEX
8
OBJECT__6
10
-3.527000
20
4.854000
30
1.000000
70
192
0
VERTEX
8
OBJECT__6
10
0.000000
20
5.000000
30
0.000000
70
192
0
VERTEX
8
OBJECT__6
10
-2.939000
20
4.045000
30
0.000000
70
192
0
VERTEX
8
OBJECT__6
10
-4.755000
20
1.545000
30
0.000000
70
192
0
VERTEX
8
OBJECT__6
10
-5.706000
20
1.854000
30
1.000000
70
192
0
VERTEX
8
OBJECT__6
10
-4.755000
20
-1.545000
30
0.000000
70
192
0
VERTEX
8
OBJECT__6
10
-3.527000
20
-4.854000
30
1.000000
70
192
0
VERTEX
8
OBJECT__6
10
-5.706000
20
-1.854000
30
1.000000
70
192
0
VERTEX
8
OBJECT__6
10
-2.939000
20
-4.045000
30
0.000000
70
192
0
VERTEX
8
OBJECT__6
10
0
20
0
30
0
70
128
71
1
72
2
73
3
0
VERTEX
8
OBJECT__6
10
0
20
0
30
0
70
128
71
4
72
1
73
5
0
VERTEX
8
OBJECT__6
10
0
20
0
30
0
70
128
71
6
72
4
73
7
0
VERTEX
8
OBJECT__6
10
0
20
0
30
0
70
128
71
8
72
6
73
9
0
VERTEX
8
OBJECT__6
10
0
20
0
30
0
70
128
71
10
72
8
73
11
0
VERTEX
8
OBJECT__6
10
0
20
0
30
0
70
128
71
12
72
10
73
13
0
VERTEX
8
OBJECT__6
10
0
20
0
30
0
70
128
71
12
72
14
73
15
0
VERTEX
8
OBJECT__6
10
0
20
0
30
0
70
128
71
16
72
15
73
17
0
VERTEX
8
OBJECT__6
10
0
20
0
30
0
70
128
71
18
72
19
73
17
0
VERTEX
8
OBJECT__6
10
0
20
0
30
0
70
128
71
18
72
20
73
3
0
VERTEX
8
OBJECT__6
10
0
20
0
30
0
70
128
71
3
72
2
73
18
0
VERTEX
8
OBJECT__6
10
0
20
0
30
0
70
128
71
17
72
20
73
18
0
VERTEX
8
OBJECT__6
10
0
20
0
30
0
70
128
71
17
72
19
73
16
0
VERTEX
8
OBJECT__6
10
0
20
0
30
0
70
128
71
15
72
16
73
12
0
VERTEX
8
OBJECT__6
10
0
20
0
30
0
70
128
71
13
72
14
73
12
0
VERTEX
8
OBJECT__6
10
0
20
0
30
0
70
128
71
11
72
13
73
10
0
VERTEX
8
OBJECT__6
10
0
20
0
30
0
70
128
71
9
72
11
73
8
0
VERTEX
8
OBJECT__6
10
0
20
0
30
0
70
128
71
7
72
9
73
6
0
VERTEX
8
OBJECT__6
10
0
20
0
30
0
70
128
71
5
72
7
73
4
0
VERTEX
8
OBJECT__6
10
0
20
0
30
0
70
128
71
3
72
5
73
1
0
SEQEND
8
OBJECT__6
0
POLYLINE
8
OBJECT__8
66
1
70
64
71
21
72
21
62
253
0
VERTEX
8
OBJECT__8
10
0.000000
20
6.000000
30
1.000000
70
192
0
VERTEX
8
OBJECT__8
10
-3.527000
20
4.854000
30
1.000000
70
192
0
VERTEX
8
OBJECT__8
10
-3.527000
20
4.854000
30
40.076000
70
192
0
VERTEX
8
OBJECT__8
10
-5.706000
20
1.854000
30
1.000000
70
192
0
VERTEX
8
OBJECT__8
10
-5.706000
20
1.854000
30
40.076000
70
192
0
VERTEX
8
OBJECT__8
10
-5.706000
20
-1.854000
30
1.000000
70
192
0
VERTEX
8
OBJECT__8
10
-5.706000
20
-1.854000
30
40.076000
70
192
0
VERTEX
8
OBJECT__8
10
-3.527000
20
-4.854000
30
1.000000
70
192
0
VERTEX
8
OBJECT__8
10
-3.527000
20
-4.854000
30
40.076000
70
192
0
VERTEX
8
OBJECT__8
10
0.000000
20
-6.000000
30
1.000000
70
192
0
VERTEX
8
OBJECT__8
10
0.000000
20
-6.000000
30
40.076000
70
192
0
VERTEX
8
OBJECT__8
10
3.527000
20
-4.854000
30
1.000000
70
192
0
VERTEX
8
OBJECT__8
10
3.527000
20
-4.854000
30
40.076000
70
192
0
VERTEX
8
OBJECT__8
10
5.706000
20
-1.854000
30
1.000000
70
192
0
VERTEX
8
OBJECT__8
10
5.706000
20
-1.854000
30
40.076000
70
192
0
VERTEX
8
OBJECT__8
10
5.706000
20
1.854000
30
1.000000
70
192
0
VERTEX
8
OBJECT__8
10
5.706000
20
1.854000
30
40.076000
70
192
0
VERTEX
8
OBJECT__8
10
6.000000
20
0.000000
30
40.076000
70
192
0
VERTEX
8
OBJECT__8
10
3.527000
20
4.854000
30
1.000000
70
192
0
VERTEX
8
OBJECT__8
10
3.527000
20
4.854000
30
40.076000
70
192
0
VERTEX
8
OBJECT__8
10
0.000000
20
6.000000
30
40.076000
70
192
0
VERTEX
8
OBJECT__8
10
0
20
0
30
0
70
128
71
1
72
2
73
3
0
VERTEX
8
OBJECT__8
10
0
20
0
30
0
70
128
71
2
72
4
73
5
0
VERTEX
8
OBJECT__8
10
0
20
0
30
0
70
128
71
6
72
7
73
5
0
VERTEX
8
OBJECT__8
10
0
20
0
30
0
70
128
71
8
72
9
73
7
0
VERTEX
8
OBJECT__8
10
0
20
0
30
0
70
128
71
8
72
10
73
11
0
VERTEX
8
OBJECT__8
10
0
20
0
30
0
70
128
71
12
72
13
73
11
0
VERTEX
8
OBJECT__8
10
0
20
0
30
0
70
128
71
14
72
15
73
13
0
VERTEX
8
OBJECT__8
10
0
20
0
30
0
70
128
71
16
72
17
73
18
0
VERTEX
8
OBJECT__8
10
0
20
0
30
0
70
128
71
18
72
14
73
16
0
VERTEX
8
OBJECT__8
10
0
20
0
30
0
70
128
71
16
72
19
73
20
0
VERTEX
8
OBJECT__8
10
0
20
0
30
0
70
128
71
1
72
21
73
20
0
VERTEX
8
OBJECT__8
10
0
20
0
30
0
70
128
71
20
72
19
73
1
0
VERTEX
8
OBJECT__8
10
0
20
0
30
0
70
128
71
20
72
17
73
16
0
VERTEX
8
OBJECT__8
10
0
20
0
30
0
70
128
71
18
72
15
73
14
0
VERTEX
8
OBJECT__8
10
0
20
0
30
0
70
128
71
13
72
12
73
14
0
VERTEX
8
OBJECT__8
10
0
20
0
30
0
70
128
71
11
72
10
73
12
0
VERTEX
8
OBJECT__8
10
0
20
0
30
0
70
128
71
11
72
9
73
8
0
VERTEX
8
OBJECT__8
10
0
20
0
30
0
70
128
71
7
72
6
73
8
0
VERTEX
8
OBJECT__8
10
0
20
0
30
0
70
128
71
5
72
4
73
6
0
VERTEX
8
OBJECT__8
10
0
20
0
30
0
70
128
71
5
72
3
73
2
0
VERTEX
8
OBJECT__8
10
0
20
0
30
0
70
128
71
3
72
21
73
1
0
SEQEND
8
OBJECT__8
0
POLYLINE
8
OBJECT__9
66
1
70
64
71
3
72
1
62
253
0
VERTEX
8
OBJECT__9
10
-13.215000
20
22.888000
30
50.134998
70
192
0
VERTEX
8
OBJECT__9
10
-8.675000
20
21.153000
30
48.255001
70
192
0
VERTEX
8
OBJECT__9
10
-13.981000
20
18.090000
30
48.255001
70
192
0
VERTEX
8
OBJECT__9
10
0
20
0
30
0
70
128
71
1
72
2
73
3
0
SEQEND
8
OBJECT__9
0
POLYLINE
8
OBJECT__10
66
1
70
64
71
8
72
6
62
253
0
VERTEX
8
OBJECT__10
10
-7.214000
20
28.940001
30
52.966000
70
192
0
VERTEX
8
OBJECT__10
10
0.000000
20
26.429001
30
50.134998
70
192
0
VERTEX
8
OBJECT__10
10
-3.063000
20
22.657000
30
48.255001
70
192
0
VERTEX
8
OBJECT__10
10
-8.222000
20
28.670000
30
52.966000
70
192
0
VERTEX
8
OBJECT__10
10
-8.675000
20
21.153000
30
48.255001
70
192
0
VERTEX
8
OBJECT__10
10
-13.215000
20
22.888000
30
50.134998
70
192
0
VERTEX
8
OBJECT__10
10
0.000000
20
27.326000
30
50.706001
70
192
0
VERTEX
8
OBJECT__10
10
-13.663000
20
23.665001
30
50.706001
70
192
0
VERTEX
8
OBJECT__10
10
0
20
0
30
0
70
128
71
1
72
2
73
3
0
VERTEX
8
OBJECT__10
10
0
20
0
30
0
70
128
71
4
72
5
73
6
0
VERTEX
8
OBJECT__10
10
0
20
0
30
0
70
128
71
1
72
7
73
2
0
VERTEX
8
OBJECT__10
10
0
20
0
30
0
70
128
71
6
72
8
73
4
0
VERTEX
8
OBJECT__10
10
0
20
0
30
0
70
128
71
4
72
1
73
5
0
VERTEX
8
OBJECT__10
10
0
20
0
30
0
70
128
71
3
72
5
73
1
0
SEQEND
8
OBJECT__10
0
POLYLINE
8
OBJECT__12
66
1
70
64
71
3
72
1
62
253
0
VERTEX
8
OBJECT__12
10
3.063000
20
22.657000
30
48.255001
70
192
0
VERTEX
8
OBJECT__12
10
-3.063000
20
22.657000
30
48.255001
70
192
0
VERTEX
8
OBJECT__12
10
0.000000
20
26.429001
30
50.134998
70
192
0
VERTEX
8
OBJECT__12
10
0
20
0
30
0
70
128
71
1
72
2
73
3
0
SEQEND
8
OBJECT__12
0
POLYLINE
8
OBJECT__13
66
1
70
64
71
5
72
3
62
253
0
VERTEX
8
OBJECT__13
10
-13.663000
20
23.665001
30
50.706001
70
192
0
VERTEX
8
OBJECT__13
10
-20.718000
20
21.455999
30
52.966000
70
192
0
VERTEX
8
OBJECT__13
10
-16.226000
20
25.947001
30
55.266998
70
192
0
VERTEX
8
OBJECT__13
10
-14.358000
20
27.025999
30
55.266998
70
192
0
VERTEX
8
OBJECT__13
10
-8.222000
20
28.670000
30
52.966000
70
192
0
VERTEX
8
OBJECT__13
10
0
20
0
30
0
70
128
71
1
72
2
73
3
0
VERTEX
8
OBJECT__13
10
0
20
0
30
0
70
128
71
3
72
4
73
1
0
VERTEX
8
OBJECT__13
10
0
20
0
30
0
70
128
71
4
72
5
73
1
0
SEQEND
8
OBJECT__13
0
POLYLINE
8
OBJECT__14
66
1
70
64
71
4
72
2
62
253
0
VERTEX
8
OBJECT__14
10
-16.226000
20
25.947001
30
55.266998
70
192
0
VERTEX
8
OBJECT__14
10
-16.226000
20
25.947001
30
57.235001
70
192
0
VERTEX
8
OBJECT__14
10
-14.358000
20
27.025999
30
57.235001
70
192
0
VERTEX
8
OBJECT__14
10
-14.358000
20
27.025999
30
55.266998
70
192
0
VERTEX
8
OBJECT__14
10
0
20
0
30
0
70
128
71
1
72
2
73
3
0
VERTEX
8
OBJECT__14
10
0
20
0
30
0
70
128
71
3
72
4
73
1
0
SEQEND
8
OBJECT__14
0
POLYLINE
8
OBJECT__15
66
1
70
64
71
5
72
3
62
253
0
VERTEX
8
OBJECT__15
10
-13.564000
20
23.493999
30
60.856998
70
192
0
VERTEX
8
OBJECT__15
10
-14.358000
20
27.025999
30
57.235001
70
192
0
VERTEX
8
OBJECT__15
10
-16.226000
20
25.947001
30
57.235001
70
192
0
VERTEX
8
OBJECT__15
10
-8.195000
20
28.677000
30
58.966000
70
192
0
VERTEX
8
OBJECT__15
10
-20.738001
20
21.436001
30
58.966000
70
192
0
VERTEX
8
OBJECT__15
10
0
20
0
30
0
70
128
71
1
72
2
73
3
0
VERTEX
8
OBJECT__15
10
0
20
0
30
0
70
128
71
1
72
4
73
2
0
VERTEX
8
OBJECT__15
10
0
20
0
30
0
70
128
71
3
72
5
73
1
0
SEQEND
8
OBJECT__15
0
POLYLINE
8
OBJECT__16
66
1
70
64
71
8
72
6
62
253
0
VERTEX
8
OBJECT__16
10
-7.242000
20
28.933001
30
58.966000
70
192
0
VERTEX
8
OBJECT__16
10
-1.079000
20
30.584000
30
57.235001
70
192
0
VERTEX
8
OBJECT__16
10
-1.079000
20
30.584000
30
55.266998
70
192
0
VERTEX
8
OBJECT__16
10
-8.195000
20
28.677000
30
58.966000
70
192
0
VERTEX
8
OBJECT__16
10
-8.222000
20
28.670000
30
52.966000
70
192
0
VERTEX
8
OBJECT__16
10
-14.358000
20
27.025999
30
55.266998
70
192
0
VERTEX
8
OBJECT__16
10
-7.214000
20
28.940001
30
52.966000
70
192
0
VERTEX
8
OBJECT__16
10
-14.358000
20
27.025999
30
57.235001
70
192
0
VERTEX
8
OBJECT__16
10
0
20
0
30
0
70
128
71
1
72
2
73
3
0
VERTEX
8
OBJECT__16
10
0
20
0
30
0
70
128
71
4
72
5
73
6
0
VERTEX
8
OBJECT__16
10
0
20
0
30
0
70
128
71
3
72
7
73
1
0
VERTEX
8
OBJECT__16
10
0
20
0
30
0
70
128
71
6
72
8
73
4
0
VERTEX
8
OBJECT__16
10
0
20
0
30
0
70
128
71
4
72
1
73
5
0
VERTEX
8
OBJECT__16
10
0
20
0
30
0
70
128
71
7
72
5
73
1
0
SEQEND
8
OBJECT__16
0
POLYLINE
8
OBJECT__17
66
1
70
64
71
5
72
3
62
253
0
VERTEX
8
OBJECT__17
10
0.000000
20
27.326000
30
50.706001
70
192
0
VERTEX
8
OBJECT__17
10
-1.079000
20
30.584000
30
55.266998
70
192
0
VERTEX
8
OBJECT__17
10
1.079000
20
30.584000
30
55.266998
70
192
0
VERTEX
8
OBJECT__17
10
-7.214000
20
28.940001
30
52.966000
70
192
0
VERTEX
8
OBJECT__17
10
7.214000
20
28.940001
30
52.966000
70
192
0
VERTEX
8
OBJECT__17
10
0
20
0
30
0
70
128
71
1
72
2
73
3
0
VERTEX
8
OBJECT__17
10
0
20
0
30
0
70
128
71
1
72
4
73
2
0
VERTEX
8
OBJECT__17
10
0
20
0
30
0
70
128
71
3
72
5
73
1
0
SEQEND
8
OBJECT__17
0
POLYLINE
8
OBJECT__18
66
1
70
64
71
4
72
2
62
253
0
VERTEX
8
OBJECT__18
10
-1.079000
20
30.584000
30
55.266998
70
192
0
VERTEX
8
OBJECT__18
10
-1.079000
20
30.584000
30
57.235001
70
192
0
VERTEX
8
OBJECT__18
10
1.079000
20
30.584000
30
57.235001
70
192
0
VERTEX
8
OBJECT__18
10
1.079000
20
30.584000
30
55.266998
70
192
0
VERTEX
8
OBJECT__18
10
0
20
0
30
0
70
128
71
1
72
2
73
3
0
VERTEX
8
OBJECT__18
10
0
20
0
30
0
70
128
71
3
72
4
73
1
0
SEQEND
8
OBJECT__18
0
POLYLINE
8
OBJECT__19
66
1
70
64
71
5
72
3
62
253
0
VERTEX
8
OBJECT__19
10
0.000000
20
27.128000
30
60.856998
70
192
0
VERTEX
8
OBJECT__19
10
7.242000
20
28.933001
30
58.966000
70
192
0
VERTEX
8
OBJECT__19
10
1.079000
20
30.584000
30
57.235001
70
192
0
VERTEX
8
OBJECT__19
10
-1.079000
20
30.584000
30
57.235001
70
192
0
VERTEX
8
OBJECT__19
10
-7.242000
20
28.933001
30
58.966000
70
192
0
VERTEX
8
OBJECT__19
10
0
20
0
30
0
70
128
71
1
72
2
73
3
0
VERTEX
8
OBJECT__19
10
0
20
0
30
0
70
128
71
3
72
4
73
1
0
VERTEX
8
OBJECT__19
10
0
20
0
30
0
70
128
71
4
72
5
73
1
0
SEQEND
8
OBJECT__19
0
POLYLINE
8
OBJECT__20
66
1
70
64
71
8
72
6
62
253
0
VERTEX
8
OBJECT__20
10
-7.242000
20
28.933001
30
58.966000
70
192
0
VERTEX
8
OBJECT__20
10
-6.204000
20
23.167999
30
62.018002
70
192
0
VERTEX
8
OBJECT__20
10
0.000000
20
27.124001
30
60.859001
70
192
0
VERTEX
8
OBJECT__20
10
-8.195000
20
28.677000
30
58.966000
70
192
0
VERTEX
8
OBJECT__20
10
-13.564000
20
23.493999
30
60.856998
70
192
0
VERTEX
8
OBJECT__20
10
-13.562000
20
23.490000
30
60.859001
70
192
0
VERTEX
8
OBJECT__20
10
-6.211000
20
23.166000
30
62.018002
70
192
0
VERTEX
8
OBJECT__20
10
0.000000
20
27.128000
30
60.856998
70
192
0
VERTEX
8
OBJECT__20
10
0
20
0
30
0
70
128
71
1
72
2
73
3
0
VERTEX
8
OBJECT__20
10
0
20
0
30
0
70
128
71
4
72
5
73
6
0
VERTEX
8
OBJECT__20
10
0
20
0
30
0
70
128
71
1
72
7
73
2
0
VERTEX
8
OBJECT__20
10
0
20
0
30
0
70
128
71
7
72
1
73
4
0
VERTEX
8
OBJECT__20
10
0
20
0
30
0
70
128
71
6
72
7
73
4
0
VERTEX
8
OBJECT__20
10
0
20
0
30
0
70
128
71
3
72
8
73
1
0
SEQEND
8
OBJECT__20
0
POLYLINE
8
OBJECT__21
66
1
70
64
71
4
72
2
62
253
0
VERTEX
8
OBJECT__21
10
-13.562000
20
23.490000
30
60.859001
70
192
0
VERTEX
8
OBJECT__21
10
-16.957001
20
16.962000
30
62.018002
70
192
0
VERTEX
8
OBJECT__21
10
-10.934000
20
18.938000
30
62.398998
70
192
0
VERTEX
8
OBJECT__21
10
-6.211000
20
23.166000
30
62.018002
70
192
0
VERTEX
8
OBJECT__21
10
0
20
0
30
0
70
128
71
1
72
2
73
3
0
VERTEX
8
OBJECT__21
10
0
20
0
30
0
70
128
71
3
72
4
73
1
0
SEQEND
8
OBJECT__21
0
POLYLINE
8
OBJECT__22
66
1
70
64
71
4
72
2
62
253
0
VERTEX
8
OBJECT__22
10
0.000000
20
27.124001
30
60.859001
70
192
0
VERTEX
8
OBJECT__22
10
-6.204000
20
23.167999
30
62.018002
70
192
0
VERTEX
8
OBJECT__22
10
0.000000
20
21.867001
30
62.398998
70
192
0
VERTEX
8
OBJECT__22
10
6.204000
20
23.167999
30
62.018002
70
192
0
VERTEX
8
OBJECT__22
10
0
20
0
30
0
70
128
71
1
72
2
73
3
0
VERTEX
8
OBJECT__22
10
0
20
0
30
0
70
128
71
3
72
4
73
1
0
SEQEND
8
OBJECT__22
0
POLYLINE
8
OBJECT__23
66
1
70
64
71
6
72
4
62
253
0
VERTEX
8
OBJECT__23
10
-6.211000
20
23.166000
30
62.018002
70
192
0
VERTEX
8
OBJECT__23
10
-10.934000
20
18.938000
30
62.398998
70
192
0
VERTEX
8
OBJECT__23
10
-2.135000
20
3.698000
30
64.661003
70
192
0
VERTEX
8
OBJECT__23
10
0.000000
20
4.270000
30
64.661003
70
192
0
VERTEX
8
OBJECT__23
10
0.000000
20
21.867001
30
62.398998
70
192
0
VERTEX
8
OBJECT__23
10
-6.204000
20
23.167999
30
62.018002
70
192
0
VERTEX
8
OBJECT__23
10
0
20
0
30
0
70
128
71
1
72
2
73
3
0
VERTEX
8
OBJECT__23
10
0
20
0
30
0
70
128
71
4
72
5
73
6
0
VERTEX
8
OBJECT__23
10
0
20
0
30
0
70
128
71
6
72
1
73
4
0
VERTEX
8
OBJECT__23
10
0
20
0
30
0
70
128
71
3
72
4
73
1
0
SEQEND
8
OBJECT__23
0
POLYLINE
8
OBJECT__24
66
1
70
64
71
6
72
4
62
253
0
VERTEX
8
OBJECT__24
10
-16.962000
20
16.957001
30
62.018002
70
192
0
VERTEX
8
OBJECT__24
10
-18.938000
20
10.934000
30
62.398998
70
192
0
VERTEX
8
OBJECT__24
10
-3.698000
20
2.135000
30
64.661003
70
192
0
VERTEX
8
OBJECT__24
10
-2.135000
20
3.698000
30
64.661003
70
192
0
VERTEX
8
OBJECT__24
10
-10.934000
20
18.938000
30
62.398998
70
192
0
VERTEX
8
OBJECT__24
10
-16.957001
20
16.962000
30
62.018002
70
192
0
VERTEX
8
OBJECT__24
10
0
20
0
30
0
70
128
71
1
72
2
73
3
0
VERTEX
8
OBJECT__24
10
0
20
0
30
0
70
128
71
4
72
5
73
6
0
VERTEX
8
OBJECT__24
10
0
20
0
30
0
70
128
71
6
72
1
73
4
0
VERTEX
8
OBJECT__24
10
0
20
0
30
0
70
128
71
3
72
4
73
1
0
SEQEND
8
OBJECT__24
0
POLYLINE
8
OBJECT__25
66
1
70
64
71
4
72
2
62
253
0
VERTEX
8
OBJECT__25
10
-23.490000
20
13.562000
30
60.859001
70
192
0
VERTEX
8
OBJECT__25
10
-23.166000
20
6.211000
30
62.018002
70
192
0
VERTEX
8
OBJECT__25
10
-18.938000
20
10.934000
30
62.398998
70
192
0
VERTEX
8
OBJECT__25
10
-16.962000
20
16.957001
30
62.018002
70
192
0
VERTEX
8
OBJECT__25
10
0
20
0
30
0
70
128
71
1
72
2
73
3
0
VERTEX
8
OBJECT__25
10
0
20
0
30
0
70
128
71
3
72
4
73
1
0
SEQEND
8
OBJECT__25
0
POLYLINE
8
OBJECT__26
66
1
70
64
71
8
72
6
62
253
0
VERTEX
8
OBJECT__26
10
-20.738001
20
21.436001
30
58.966000
70
192
0
VERTEX
8
OBJECT__26
10
-16.957001
20
16.962000
30
62.018002
70
192
0
VERTEX
8
OBJECT__26
10
-13.562000
20
23.490000
30
60.859001
70
192
0
VERTEX
8
OBJECT__26
10
-21.436001
20
20.738001
30
58.966000
70
192
0
VERTEX
8
OBJECT__26
10
-23.493999
20
13.564000
30
60.856998
70
192
0
VERTEX
8
OBJECT__26
10
-23.490000
20
13.562000
30
60.859001
70
192
0
VERTEX
8
OBJECT__26
10
-13.564000
20
23.493999
30
60.856998
70
192
0
VERTEX
8
OBJECT__26
10
-16.962000
20
16.957001
30
62.018002
70
192
0
VERTEX
8
OBJECT__26
10
0
20
0
30
0
70
128
71
1
72
2
73
3
0
VERTEX
8
OBJECT__26
10
0
20
0
30
0
70
128
71
4
72
5
73
6
0
VERTEX
8
OBJECT__26
10
0
20
0
30
0
70
128
71
3
72
7
73
1
0
VERTEX
8
OBJECT__26
10
0
20
0
30
0
70
128
71
6
72
8
73
4
0
VERTEX
8
OBJECT__26
10
0
20
0
30
0
70
128
71
8
72
2
73
4
0
VERTEX
8
OBJECT__26
10
0
20
0
30
0
70
128
71
1
72
4
73
2
0
SEQEND
8
OBJECT__26
0
POLYLINE
8
OBJECT__27
66
1
70
64
71
8
72
6
62
253
0
VERTEX
8
OBJECT__27
10
-20.738001
20
21.436001
30
58.966000
70
192
0
VERTEX
8
OBJECT__27
10
-16.226000
20
25.947001
30
57.235001
70
192
0
VERTEX
8
OBJECT__27
10
-16.226000
20
25.947001
30
55.266998
70
192
0
VERTEX
8
OBJECT__27
10
-21.436001
20
20.738001
30
58.966000
70
192
0
VERTEX
8
OBJECT__27
10
-21.455999
20
20.718000
30
52.966000
70
192
0
VERTEX
8
OBJECT__27
10
-25.947001
20
16.226000
30
55.266998
70
192
0
VERTEX
8
OBJECT__27
10
-20.718000
20
21.455999
30
52.966000
70
192
0
VERTEX
8
OBJECT__27
10
-25.947001
20
16.226000
30
57.235001
70
192
0
VERTEX
8
OBJECT__27
10
0
20
0
30
0
70
128
71
1
72
2
73
3
0
VERTEX
8
OBJECT__27
10
0
20
0
30
0
70
128
71
4
72
5
73
6
0
VERTEX
8
OBJECT__27
10
0
20
0
30
0
70
128
71
7
72
4
73
1
0
VERTEX
8
OBJECT__27
10
0
20
0
30
0
70
128
71
4
72
7
73
5
0
VERTEX
8
OBJECT__27
10
0
20
0
30
0
70
128
71
6
72
8
73
4
0
VERTEX
8
OBJECT__27
10
0
20
0
30
0
70
128
71
3
72
7
73
1
0
SEQEND
8
OBJECT__27
0
POLYLINE
8
OBJECT__28
66
1
70
64
71
5
72
3
62
253
0
VERTEX
8
OBJECT__28
10
-23.493999
20
13.564000
30
60.856998
70
192
0
VERTEX
8
OBJECT__28
10
-25.947001
20
16.226000
30
57.235001
70
192
0
VERTEX
8
OBJECT__28
10
-27.025999
20
14.358000
30
57.235001
70
192
0
VERTEX
8
OBJECT__28
10
-21.436001
20
20.738001
30
58.966000
70
192
0
VERTEX
8
OBJECT__28
10
-28.677000
20
8.195000
30
58.966000
70
192
0
VERTEX
8
OBJECT__28
10
0
20
0
30
0
70
128
71
1
72
2
73
3
0
VERTEX
8
OBJECT__28
10
0
20
0
30
0
70
128
71
1
72
4
73
2
0
VERTEX
8
OBJECT__28
10
0
20
0
30
0
70
128
71
3
72
5
73
1
0
SEQEND
8
OBJECT__28
0
POLYLINE
8
OBJECT__29
66
1
70
64
71
4
72
2
62
253
0
VERTEX
8
OBJECT__29
10
-25.947001
20
16.226000
30
55.266998
70
192
0
VERTEX
8
OBJECT__29
10
-27.025999
20
14.358000
30
55.266998
70
192
0
VERTEX
8
OBJECT__29
10
-27.025999
20
14.358000
30
57.235001
70
192
0
VERTEX
8
OBJECT__29
10
-25.947001
20
16.226000
30
57.235001
70
192
0
VERTEX
8
OBJECT__29
10
0
20
0
30
0
70
128
71
1
72
2
73
3
0
VERTEX
8
OBJECT__29
10
0
20
0
30
0
70
128
71
3
72
4
73
1
0
SEQEND
8
OBJECT__29
0
POLYLINE
8
OBJECT__30
66
1
70
64
71
5
72
3
62
253
0
VERTEX
8
OBJECT__30
10
-23.665001
20
13.663000
30
50.706001
70
192
0
VERTEX
8
OBJECT__30
10
-27.025999
20
14.358000
30
55.266998
70
192
0
VERTEX
8
OBJECT__30
10
-25.947001
20
16.226000
30
55.266998
70
192
0
VERTEX
8
OBJECT__30
10
-28.670000
20
8.222000
30
52.966000
70
192
0
VERTEX
8
OBJECT__30
10
-21.455999
20
20.718000
30
52.966000
70
192
0
VERTEX
8
OBJECT__30
10
0
20
0
30
0
70
128
71
1
72
2
73
3
0
VERTEX
8
OBJECT__30
10
0
20
0
30
0
70
128
71
1
72
4
73
2
0
VERTEX
8
OBJECT__30
10
0
20
0
30
0
70
128
71
3
72
5
73
1
0
SEQEND
8
OBJECT__30
0
POLYLINE
8
OBJECT__31
66
1
70
64
71
8
72
6
62
253
0
VERTEX
8
OBJECT__31
10
-20.718000
20
21.455999
30
52.966000
70
192
0
VERTEX
8
OBJECT__31
10
-13.215000
20
22.888000
30
50.134998
70
192
0
VERTEX
8
OBJECT__31
10
-13.981000
20
18.090000
30
48.255001
70
192
0
VERTEX
8
OBJECT__31
10
-21.455999
20
20.718000
30
52.966000
70
192
0
VERTEX
8
OBJECT__31
10
-18.090000
20
13.981000
30
48.255001
70
192
0
VERTEX
8
OBJECT__31
10
-22.888000
20
13.215000
30
50.134998
70
192
0
VERTEX
8
OBJECT__31
10
-13.663000
20
23.665001
30
50.706001
70
192
0
VERTEX
8
OBJECT__31
10
-23.665001
20
13.663000
30
50.706001
70
192
0
VERTEX
8
OBJECT__31
10
0
20
0
30
0
70
128
71
1
72
2
73
3
0
VERTEX
8
OBJECT__31
10
0
20
0
30
0
70
128
71
4
72
5
73
6
0
VERTEX
8
OBJECT__31
10
0
20
0
30
0
70
128
71
1
72
7
73
2
0
VERTEX
8
OBJECT__31
10
0
20
0
30
0
70
128
71
6
72
8
73
4
0
VERTEX
8
OBJECT__31
10
0
20
0
30
0
70
128
71
4
72
1
73
5
0
VERTEX
8
OBJECT__31
10
0
20
0
30
0
70
128
71
3
72
5
73
1
0
SEQEND
8
OBJECT__31
0
POLYLINE
8
OBJECT__32
66
1
70
64
71
3
72
1
62
253
0
VERTEX
8
OBJECT__32
10
-21.153000
20
8.675000
30
48.255001
70
192
0
VERTEX
8
OBJECT__32
10
-22.888000
20
13.215000
30
50.134998
70
192
0
VERTEX
8
OBJECT__32
10
-18.090000
20
13.981000
30
48.255001
70
192
0
VERTEX
8
OBJECT__32
10
0
20
0
30
0
70
128
71
1
72
2
73
3
0
SEQEND
8
OBJECT__32
0
POLYLINE
8
OBJECT__33
66
1
70
64
71
6
72
4
62
253
0
VERTEX
8
OBJECT__33
10
-4.270000
20
0.000000
30
64.661003
70
192
0
VERTEX
8
OBJECT__33
10
-23.166000
20
6.211000
30
62.018002
70
192
0
VERTEX
8
OBJECT__33
10
-23.167999
20
6.204000
30
62.018002
70
192
0
VERTEX
8
OBJECT__33
10
-3.698000
20
2.135000
30
64.661003
70
192
0
VERTEX
8
OBJECT__33
10
-18.938000
20
10.934000
30
62.398998
70
192
0
VERTEX
8
OBJECT__33
10
-21.867001
20
0.000000
30
62.398998
70
192
0
VERTEX
8
OBJECT__33
10
0
20
0
30
0
70
128
71
1
72
2
73
3
0
VERTEX
8
OBJECT__33
10
0
20
0
30
0
70
128
71
2
72
1
73
4
0
VERTEX
8
OBJECT__33
10
0
20
0
30
0
70
128
71
4
72
5
73
2
0
VERTEX
8
OBJECT__33
10
0
20
0
30
0
70
128
71
3
72
6
73
1
0
SEQEND
8
OBJECT__33
0
POLYLINE
8
OBJECT__34
66
1
70
64
71
4
72
2
62
253
0
VERTEX
8
OBJECT__34
10
-27.124001
20
0.000000
30
60.859001
70
192
0
VERTEX
8
OBJECT__34
10
-23.167999
20
-6.204000
30
62.018002
70
192
0
VERTEX
8
OBJECT__34
10
-21.867001
20
0.000000
30
62.398998
70
192
0
VERTEX
8
OBJECT__34
10
-23.167999
20
6.204000
30
62.018002
70
192
0
VERTEX
8
OBJECT__34
10
0
20
0
30
0
70
128
71
1
72
2
73
3
0
VERTEX
8
OBJECT__34
10
0
20
0
30
0
70
128
71
3
72
4
73
1
0
SEQEND
8
OBJECT__34
0
POLYLINE
8
OBJECT__35
66
1
70
64
71
8
72
6
62
253
0
VERTEX
8
OBJECT__35
10
-28.677000
20
8.195000
30
58.966000
70
192
0
VERTEX
8
OBJECT__35
10
-23.166000
20
6.211000
30
62.018002
70
192
0
VERTEX
8
OBJECT__35
10
-23.490000
20
13.562000
30
60.859001
70
192
0
VERTEX
8
OBJECT__35
10
-28.933001
20
7.242000
30
58.966000
70
192
0
VERTEX
8
OBJECT__35
10
-27.128000
20
0.000000
30
60.856998
70
192
0
VERTEX
8
OBJECT__35
10
-27.124001
20
0.000000
30
60.859001
70
192
0
VERTEX
8
OBJECT__35
10
-23.167999
20
6.204000
30
62.018002
70
192
0
VERTEX
8
OBJECT__35
10
-23.493999
20
13.564000
30
60.856998
70
192
0
VERTEX
8
OBJECT__35
10
0
20
0
30
0
70
128
71
1
72
2
73
3
0
VERTEX
8
OBJECT__35
10
0
20
0
30
0
70
128
71
4
72
5
73
6
0
VERTEX
8
OBJECT__35
10
0
20
0
30
0
70
128
71
1
72
7
73
2
0
VERTEX
8
OBJECT__35
10
0
20
0
30
0
70
128
71
7
72
1
73
4
0
VERTEX
8
OBJECT__35
10
0
20
0
30
0
70
128
71
6
72
7
73
4
0
VERTEX
8
OBJECT__35
10
0
20
0
30
0
70
128
71
3
72
8
73
1
0
SEQEND
8
OBJECT__35
0
POLYLINE
8
OBJECT__36
66
1
70
64
71
8
72
6
62
253
0
VERTEX
8
OBJECT__36
10
-28.677000
20
8.195000
30
58.966000
70
192
0
VERTEX
8
OBJECT__36
10
-27.025999
20
14.358000
30
57.235001
70
192
0
VERTEX
8
OBJECT__36
10
-27.025999
20
14.358000
30
55.266998
70
192
0
VERTEX
8
OBJECT__36
10
-28.933001
20
7.242000
30
58.966000
70
192
0
VERTEX
8
OBJECT__36
10
-28.940001
20
7.214000
30
52.966000
70
192
0
VERTEX
8
OBJECT__36
10
-30.584000
20
1.079000
30
55.266998
70
192
0
VERTEX
8
OBJECT__36
10
-28.670000
20
8.222000
30
52.966000
70
192
0
VERTEX
8
OBJECT__36
10
-30.584000
20
1.079000
30
57.235001
70
192
0
VERTEX
8
OBJECT__36
10
0
20
0
30
0
70
128
71
1
72
2
73
3
0
VERTEX
8
OBJECT__36
10
0
20
0
30
0
70
128
71
4
72
5
73
6
0
VERTEX
8
OBJECT__36
10
0
20
0
30
0
70
128
71
3
72
7
73
1
0
VERTEX
8
OBJECT__36
10
0
20
0
30
0
70
128
71
6
72
8
73
4
0
VERTEX
8
OBJECT__36
10
0
20
0
30
0
70
128
71
4
72
1
73
5
0
VERTEX
8
OBJECT__36
10
0
20
0
30
0
70
128
71
7
72
5
73
1
0
SEQEND
8
OBJECT__36
0
POLYLINE
8
OBJECT__37
66
1
70
64
71
5
72
3
62
253
0
VERTEX
8
OBJECT__37
10
-27.128000
20
0.000000
30
60.856998
70
192
0
VERTEX
8
OBJECT__37
10
-30.584000
20
1.079000
30
57.235001
70
192
0
VERTEX
8
OBJECT__37
10
-30.584000
20
-1.079000
30
57.235001
70
192
0
VERTEX
8
OBJECT__37
10
-28.933001
20
7.242000
30
58.966000
70
192
0
VERTEX
8
OBJECT__37
10
-28.933001
20
-7.242000
30
58.966000
70
192
0
VERTEX
8
OBJECT__37
10
0
20
0
30
0
70
128
71
1
72
2
73
3
0
VERTEX
8
OBJECT__37
10
0
20
0
30
0
70
128
71
1
72
4
73
2
0
VERTEX
8
OBJECT__37
10
0
20
0
30
0
70
128
71
3
72
5
73
1
0
SEQEND
8
OBJECT__37
0
POLYLINE
8
OBJECT__38
66
1
70
64
71
4
72
2
62
253
0
VERTEX
8
OBJECT__38
10
-30.584000
20
-1.079000
30
55.266998
70
192
0
VERTEX
8
OBJECT__38
10
-30.584000
20
-1.079000
30
57.235001
70
192
0
VERTEX
8
OBJECT__38
10
-30.584000
20
1.079000
30
57.235001
70
192
0
VERTEX
8
OBJECT__38
10
-30.584000
20
1.079000
30
55.266998
70
192
0
VERTEX
8
OBJECT__38
10
0
20
0
30
0
70
128
71
1
72
2
73
3
0
VERTEX
8
OBJECT__38
10
0
20
0
30
0
70
128
71
3
72
4
73
1
0
SEQEND
8
OBJECT__38
0
POLYLINE
8
OBJECT__39
66
1
70
64
71
5
72
3
62
253
0
VERTEX
8
OBJECT__39
10
-27.326000
20
0.000000
30
50.706001
70
192
0
VERTEX
8
OBJECT__39
10
-30.584000
20
-1.079000
30
55.266998
70
192
0
VERTEX
8
OBJECT__39
10
-30.584000
20
1.079000
30
55.266998
70
192
0
VERTEX
8
OBJECT__39
10
-28.940001
20
-7.214000
30
52.966000
70
192
0
VERTEX
8
OBJECT__39
10
-28.940001
20
7.214000
30
52.966000
70
192
0
VERTEX
8
OBJECT__39
10
0
20
0
30
0
70
128
71
1
72
2
73
3
0
VERTEX
8
OBJECT__39
10
0
20
0
30
0
70
128
71
1
72
4
73
2
0
VERTEX
8
OBJECT__39
10
0
20
0
30
0
70
128
71
3
72
5
73
1
0
SEQEND
8
OBJECT__39
0
POLYLINE
8
OBJECT__40
66
1
70
64
71
8
72
6
62
253
0
VERTEX
8
OBJECT__40
10
-28.670000
20
8.222000
30
52.966000
70
192
0
VERTEX
8
OBJECT__40
10
-23.665001
20
13.663000
30
50.706001
70
192
0
VERTEX
8
OBJECT__40
10
-22.888000
20
13.215000
30
50.134998
70
192
0
VERTEX
8
OBJECT__40
10
-28.940001
20
7.214000
30
52.966000
70
192
0
VERTEX
8
OBJECT__40
10
-21.153000
20
8.675000
30
48.255001
70
192
0
VERTEX
8
OBJECT__40
10
-22.657000
20
3.063000
30
48.255001
70
192
0
VERTEX
8
OBJECT__40
10
-26.429001
20
0.000000
30
50.134998
70
192
0
VERTEX
8
OBJECT__40
10
-27.326000
20
0.000000
30
50.706001
70
192
0
VERTEX
8
OBJECT__40
10
0
20
0
30
0
70
128
71
1
72
2
73
3
0
VERTEX
8
OBJECT__40
10
0
20
0
30
0
70
128
71
4
72
5
73
6
0
VERTEX
8
OBJECT__40
10
0
20
0
30
0
70
128
71
5
72
4
73
1
0
VERTEX
8
OBJECT__40
10
0
20
0
30
0
70
128
71
6
72
7
73
4
0
VERTEX
8
OBJECT__40
10
0
20
0
30
0
70
128
71
7
72
8
73
4
0
VERTEX
8
OBJECT__40
10
0
20
0
30
0
70
128
71
3
72
5
73
1
0
SEQEND
8
OBJECT__40
0
POLYLINE
8
OBJECT__41
66
1
70
64
71
3
72
1
62
253
0
VERTEX
8
OBJECT__41
10
-26.429001
20
0.000000
30
50.134998
70
192
0
VERTEX
8
OBJECT__41
10
-22.657000
20
3.063000
30
48.255001
70
192
0
VERTEX
8
OBJECT__41
10
-22.657000
20
-3.063000
30
48.255001
70
192
0
VERTEX
8
OBJECT__41
10
0
20
0
30
0
70
128
71
1
72
2
73
3
0
SEQEND
8
OBJECT__41
0
POLYLINE
8
OBJECT__42
66
1
70
64
71
6
72
4
62
253
0
VERTEX
8
OBJECT__42
10
-23.166000
20
-6.211000
30
62.018002
70
192
0
VERTEX
8
OBJECT__42
10
-18.938000
20
-10.934000
30
62.398998
70
192
0
VERTEX
8
OBJECT__42
10
-3.698000
20
-2.135000
30
64.661003
70
192
0
VERTEX
8
OBJECT__42
10
-4.270000
20
0.000000
30
64.661003
70
192
0
VERTEX
8
OBJECT__42
10
-21.867001
20
0.000000
30
62.398998
70
192
0
VERTEX
8
OBJECT__42
10
-23.167999
20
-6.204000
30
62.018002
70
192
0
VERTEX
8
OBJECT__42
10
0
20
0
30
0
70
128
71
1
72
2
73
3
0
VERTEX
8
OBJECT__42
10
0
20
0
30
0
70
128
71
4
72
5
73
6
0
VERTEX
8
OBJECT__42
10
0
20
0
30
0
70
128
71
6
72
1
73
4
0
VERTEX
8
OBJECT__42
10
0
20
0
30
0
70
128
71
3
72
4
73
1
0
SEQEND
8
OBJECT__42
0
POLYLINE
8
OBJECT__43
66
1
70
64
71
4
72
2
62
253
0
VERTEX
8
OBJECT__43
10
-23.490000
20
-13.562000
30
60.859001
70
192
0
VERTEX
8
OBJECT__43
10
-16.962000
20
-16.957001
30
62.018002
70
192
0
VERTEX
8
OBJECT__43
10
-18.938000
20
-10.934000
30
62.398998
70
192
0
VERTEX
8
OBJECT__43
10
-23.166000
20
-6.211000
30
62.018002
70
192
0
VERTEX
8
OBJECT__43
10
0
20
0
30
0
70
128
71
1
72
2
73
3
0
VERTEX
8
OBJECT__43
10
0
20
0
30
0
70
128
71
3
72
4
73
1
0
SEQEND
8
OBJECT__43
0
POLYLINE
8
OBJECT__44
66
1
70
64
71
8
72
6
62
253
0
VERTEX
8
OBJECT__44
10
-28.933001
20
-7.242000
30
58.966000
70
192
0
VERTEX
8
OBJECT__44
10
-23.167999
20
-6.204000
30
62.018002
70
192
0
VERTEX
8
OBJECT__44
10
-27.124001
20
0.000000
30
60.859001
70
192
0
VERTEX
8
OBJECT__44
10
-28.677000
20
-8.195000
30
58.966000
70
192
0
VERTEX
8
OBJECT__44
10
-23.493999
20
-13.564000
30
60.856998
70
192
0
VERTEX
8
OBJECT__44
10
-23.490000
20
-13.562000
30
60.859001
70
192
0
VERTEX
8
OBJECT__44
10
-27.128000
20
0.000000
30
60.856998
70
192
0
VERTEX
8
OBJECT__44
10
-23.166000
20
-6.211000
30
62.018002
70
192
0
VERTEX
8
OBJECT__44
10
0
20
0
30
0
70
128
71
1
72
2
73
3
0
VERTEX
8
OBJECT__44
10
0
20
0
30
0
70
128
71
4
72
5
73
6
0
VERTEX
8
OBJECT__44
10
0
20
0
30
0
70
128
71
3
72
7
73
1
0
VERTEX
8
OBJECT__44
10
0
20
0
30
0
70
128
71
6
72
8
73
4
0
VERTEX
8
OBJECT__44
10
0
20
0
30
0
70
128
71
8
72
2
73
4
0
VERTEX
8
OBJECT__44
10
0
20
0
30
0
70
128
71
1
72
4
73
2
0
SEQEND
8
OBJECT__44
0
POLYLINE
8
OBJECT__45
66
1
70
64
71
8
72
6
62
253
0
VERTEX
8
OBJECT__45
10
-28.933001
20
-7.242000
30
58.966000
70
192
0
VERTEX
8
OBJECT__45
10
-30.584000
20
-1.079000
30
57.235001
70
192
0
VERTEX
8
OBJECT__45
10
-30.584000
20
-1.079000
30
55.266998
70
192
0
VERTEX
8
OBJECT__45
10
-28.677000
20
-8.195000
30
58.966000
70
192
0
VERTEX
8
OBJECT__45
10
-28.670000
20
-8.222000
30
52.966000
70
192
0
VERTEX
8
OBJECT__45
10
-27.025999
20
-14.358000
30
55.266998
70
192
0
VERTEX
8
OBJECT__45
10
-28.940001
20
-7.214000
30
52.966000
70
192
0
VERTEX
8
OBJECT__45
10
-27.025999
20
-14.358000
30
57.235001
70
192
0
VERTEX
8
OBJECT__45
10
0
20
0
30
0
70
128
71
1
72
2
73
3
0
VERTEX
8
OBJECT__45
10
0
20
0
30
0
70
128
71
4
72
5
73
6
0
VERTEX
8
OBJECT__45
10
0
20
0
30
0
70
128
71
7
72
4
73
1
0
VERTEX
8
OBJECT__45
10
0
20
0
30
0
70
128
71
4
72
7
73
5
0
VERTEX
8
OBJECT__45
10
0
20
0
30
0
70
128
71
6
72
8
73
4
0
VERTEX
8
OBJECT__45
10
0
20
0
30
0
70
128
71
3
72
7
73
1
0
SEQEND
8
OBJECT__45
0
POLYLINE
8
OBJECT__46
66
1
70
64
71
5
72
3
62
253
0
VERTEX
8
OBJECT__46
10
-23.493999
20
-13.564000
30
60.856998
70
192
0
VERTEX
8
OBJECT__46
10
-27.025999
20
-14.358000
30
57.235001
70
192
0
VERTEX
8
OBJECT__46
10
-25.947001
20
-16.226000
30
57.235001
70
192
0
VERTEX
8
OBJECT__46
10
-28.677000
20
-8.195000
30
58.966000
70
192
0
VERTEX
8
OBJECT__46
10
-21.436001
20
-20.738001
30
58.966000
70
192
0
VERTEX
8
OBJECT__46
10
0
20
0
30
0
70
128
71
1
72
2
73
3
0
VERTEX
8
OBJECT__46
10
0
20
0
30
0
70
128
71
1
72
4
73
2
0
VERTEX
8
OBJECT__46
10
0
20
0
30
0
70
128
71
3
72
5
73
1
0
SEQEND
8
OBJECT__46
0
POLYLINE
8
OBJECT__47
66
1
70
64
71
4
72
2
62
253
0
VERTEX
8
OBJECT__47
10
-25.947001
20
-16.226000
30
55.266998
70
192
0
VERTEX
8
OBJECT__47
10
-25.947001
20
-16.226000
30
57.235001
70
192
0
VERTEX
8
OBJECT__47
10
-27.025999
20
-14.358000
30
57.235001
70
192
0
VERTEX
8
OBJECT__47
10
-27.025999
20
-14.358000
30
55.266998
70
192
0
VERTEX
8
OBJECT__47
10
0
20
0
30
0
70
128
71
1
72
2
73
3
0
VERTEX
8
OBJECT__47
10
0
20
0
30
0
70
128
71
3
72
4
73
1
0
SEQEND
8
OBJECT__47
0
POLYLINE
8
OBJECT__48
66
1
70
64
71
5
72
3
62
253
0
VERTEX
8
OBJECT__48
10
-23.665001
20
-13.663000
30
50.706001
70
192
0
VERTEX
8
OBJECT__48
10
-25.947001
20
-16.226000
30
55.266998
70
192
0
VERTEX
8
OBJECT__48
10
-27.025999
20
-14.358000
30
55.266998
70
192
0
VERTEX
8
OBJECT__48
10
-21.455999
20
-20.718000
30
52.966000
70
192
0
VERTEX
8
OBJECT__48
10
-28.670000
20
-8.222000
30
52.966000
70
192
0
VERTEX
8
OBJECT__48
10
0
20
0
30
0
70
128
71
1
72
2
73
3
0
VERTEX
8
OBJECT__48
10
0
20
0
30
0
70
128
71
1
72
4
73
2
0
VERTEX
8
OBJECT__48
10
0
20
0
30
0
70
128
71
3
72
5
73
1
0
SEQEND
8
OBJECT__48
0
POLYLINE
8
OBJECT__49
66
1
70
64
71
8
72
6
62
253
0
VERTEX
8
OBJECT__49
10
-28.940001
20
-7.214000
30
52.966000
70
192
0
VERTEX
8
OBJECT__49
10
-26.429001
20
0.000000
30
50.134998
70
192
0
VERTEX
8
OBJECT__49
10
-22.657000
20
-3.063000
30
48.255001
70
192
0
VERTEX
8
OBJECT__49
10
-28.670000
20
-8.222000
30
52.966000
70
192
0
VERTEX
8
OBJECT__49
10
-21.153000
20
-8.675000
30
48.255001
70
192
0
VERTEX
8
OBJECT__49
10
-22.888000
20
-13.215000
30
50.134998
70
192
0
VERTEX
8
OBJECT__49
10
-27.326000
20
0.000000
30
50.706001
70
192
0
VERTEX
8
OBJECT__49
10
-23.665001
20
-13.663000
30
50.706001
70
192
0
VERTEX
8
OBJECT__49
10
0
20
0
30
0
70
128
71
1
72
2
73
3
0
VERTEX
8
OBJECT__49
10
0
20
0
30
0
70
128
71
4
72
5
73
6
0
VERTEX
8
OBJECT__49
10
0
20
0
30
0
70
128
71
1
72
7
73
2
0
VERTEX
8
OBJECT__49
10
0
20
0
30
0
70
128
71
6
72
8
73
4
0
VERTEX
8
OBJECT__49
10
0
20
0
30
0
70
128
71
4
72
1
73
5
0
VERTEX
8
OBJECT__49
10
0
20
0
30
0
70
128
71
3
72
5
73
1
0
SEQEND
8
OBJECT__49
0
POLYLINE
8
OBJECT__50
66
1
70
64
71
3
72
1
62
253
0
VERTEX
8
OBJECT__50
10
-21.153000
20
-8.675000
30
48.255001
70
192
0
VERTEX
8
OBJECT__50
10
-18.090000
20
-13.981000
30
48.255001
70
192
0
VERTEX
8
OBJECT__50
10
-22.888000
20
-13.215000
30
50.134998
70
192
0
VERTEX
8
OBJECT__50
10
0
20
0
30
0
70
128
71
1
72
2
73
3
0
SEQEND
8
OBJECT__50
0
POLYLINE
8
OBJECT__51
66
1
70
64
71
6
72
4
62
253
0
VERTEX
8
OBJECT__51
10
-2.135000
20
-3.698000
30
64.661003
70
192
0
VERTEX
8
OBJECT__51
10
-16.962000
20
-16.957001
30
62.018002
70
192
0
VERTEX
8
OBJECT__51
10
-16.957001
20
-16.962000
30
62.018002
70
192
0
VERTEX
8
OBJECT__51
10
-3.698000
20
-2.135000
30
64.661003
70
192
0
VERTEX
8
OBJECT__51
10
-18.938000
20
-10.934000
30
62.398998
70
192
0
VERTEX
8
OBJECT__51
10
-10.934000
20
-18.938000
30
62.398998
70
192
0
VERTEX
8
OBJECT__51
10
0
20
0
30
0
70
128
71
1
72
2
73
3
0
VERTEX
8
OBJECT__51
10
0
20
0
30
0
70
128
71
2
72
1
73
4
0
VERTEX
8
OBJECT__51
10
0
20
0
30
0
70
128
71
4
72
5
73
2
0
VERTEX
8
OBJECT__51
10
0
20
0
30
0
70
128
71
3
72
6
73
1
0
SEQEND
8
OBJECT__51
0
POLYLINE
8
OBJECT__52
66
1
70
64
71
4
72
2
62
253
0
VERTEX
8
OBJECT__52
10
-13.562000
20
-23.490000
30
60.859001
70
192
0
VERTEX
8
OBJECT__52
10
-6.211000
20
-23.166000
30
62.018002
70
192
0
VERTEX
8
OBJECT__52
10
-10.934000
20
-18.938000
30
62.398998
70
192
0
VERTEX
8
OBJECT__52
10
-16.957001
20
-16.962000
30
62.018002
70
192
0
VERTEX
8
OBJECT__52
10
0
20
0
30
0
70
128
71
1
72
2
73
3
0
VERTEX
8
OBJECT__52
10
0
20
0
30
0
70
128
71
3
72
4
73
1
0
SEQEND
8
OBJECT__52
0
POLYLINE
8
OBJECT__53
66
1
70
64
71
8
72
6
62
253
0
VERTEX
8
OBJECT__53
10
-21.436001
20
-20.738001
30
58.966000
70
192
0
VERTEX
8
OBJECT__53
10
-16.962000
20
-16.957001
30
62.018002
70
192
0
VERTEX
8
OBJECT__53
10
-23.490000
20
-13.562000
30
60.859001
70
192
0
VERTEX
8
OBJECT__53
10
-20.738001
20
-21.436001
30
58.966000
70
192
0
VERTEX
8
OBJECT__53
10
-13.564000
20
-23.493999
30
60.856998
70
192
0
VERTEX
8
OBJECT__53
10
-13.562000
20
-23.490000
30
60.859001
70
192
0
VERTEX
8
OBJECT__53
10
-23.493999
20
-13.564000
30
60.856998
70
192
0
VERTEX
8
OBJECT__53
10
-16.957001
20
-16.962000
30
62.018002
70
192
0
VERTEX
8
OBJECT__53
10
0
20
0
30
0
70
128
71
1
72
2
73
3
0
VERTEX
8
OBJECT__53
10
0
20
0
30
0
70
128
71
4
72
5
73
6
0
VERTEX
8
OBJECT__53
10
0
20
0
30
0
70
128
71
3
72
7
73
1
0
VERTEX
8
OBJECT__53
10
0
20
0
30
0
70
128
71
6
72
8
73
4
0
VERTEX
8
OBJECT__53
10
0
20
0
30
0
70
128
71
8
72
2
73
4
0
VERTEX
8
OBJECT__53
10
0
20
0
30
0
70
128
71
1
72
4
73
2
0
SEQEND
8
OBJECT__53
0
POLYLINE
8
OBJECT__54
66
1
70
64
71
8
72
6
62
253
0
VERTEX
8
OBJECT__54
10
-21.436001
20
-20.738001
30
58.966000
70
192
0
VERTEX
8
OBJECT__54
10
-25.947001
20
-16.226000
30
57.235001
70
192
0
VERTEX
8
OBJECT__54
10
-25.947001
20
-16.226000
30
55.266998
70
192
0
VERTEX
8
OBJECT__54
10
-20.738001
20
-21.436001
30
58.966000
70
192
0
VERTEX
8
OBJECT__54
10
-20.718000
20
-21.455999
30
52.966000
70
192
0
VERTEX
8
OBJECT__54
10
-16.226000
20
-25.947001
30
55.266998
70
192
0
VERTEX
8
OBJECT__54
10
-21.455999
20
-20.718000
30
52.966000
70
192
0
VERTEX
8
OBJECT__54
10
-16.226000
20
-25.947001
30
57.235001
70
192
0
VERTEX
8
OBJECT__54
10
0
20
0
30
0
70
128
71
1
72
2
73
3
0
VERTEX
8
OBJECT__54
10
0
20
0
30
0
70
128
71
4
72
5
73
6
0
VERTEX
8
OBJECT__54
10
0
20
0
30
0
70
128
71
7
72
4
73
1
0
VERTEX
8
OBJECT__54
10
0
20
0
30
0
70
128
71
4
72
7
73
5
0
VERTEX
8
OBJECT__54
10
0
20
0
30
0
70
128
71
6
72
8
73
4
0
VERTEX
8
OBJECT__54
10
0
20
0
30
0
70
128
71
3
72
7
73
1
0
SEQEND
8
OBJECT__54
0
POLYLINE
8
OBJECT__55
66
1
70
64
71
5
72
3
62
253
0
VERTEX
8
OBJECT__55
10
-13.564000
20
-23.493999
30
60.856998
70
192
0
VERTEX
8
OBJECT__55
10
-16.226000
20
-25.947001
30
57.235001
70
192
0
VERTEX
8
OBJECT__55
10
-14.358000
20
-27.025999
30
57.235001
70
192
0
VERTEX
8
OBJECT__55
10
-20.738001
20
-21.436001
30
58.966000
70
192
0
VERTEX
8
OBJECT__55
10
-8.195000
20
-28.677000
30
58.966000
70
192
0
VERTEX
8
OBJECT__55
10
0
20
0
30
0
70
128
71
1
72
2
73
3
0
VERTEX
8
OBJECT__55
10
0
20
0
30
0
70
128
71
1
72
4
73
2
0
VERTEX
8
OBJECT__55
10
0
20
0
30
0
70
128
71
3
72
5
73
1
0
SEQEND
8
OBJECT__55
0
POLYLINE
8
OBJECT__56
66
1
70
64
71
4
72
2
62
253
0
VERTEX
8
OBJECT__56
10
-14.358000
20
-27.025999
30
55.266998
70
192
0
VERTEX
8
OBJECT__56
10
-14.358000
20
-27.025999
30
57.235001
70
192
0
VERTEX
8
OBJECT__56
10
-16.226000
20
-25.947001
30
57.235001
70
192
0
VERTEX
8
OBJECT__56
10
-16.226000
20
-25.947001
30
55.266998
70
192
0
VERTEX
8
OBJECT__56
10
0
20
0
30
0
70
128
71
1
72
2
73
3
0
VERTEX
8
OBJECT__56
10
0
20
0
30
0
70
128
71
3
72
4
73
1
0
SEQEND
8
OBJECT__56
0
POLYLINE
8
OBJECT__57
66
1
70
64
71
5
72
3
62
253
0
VERTEX
8
OBJECT__57
10
-13.663000
20
-23.665001
30
50.706001
70
192
0
VERTEX
8
OBJECT__57
10
-8.222000
20
-28.670000
30
52.966000
70
192
0
VERTEX
8
OBJECT__57
10
-14.358000
20
-27.025999
30
55.266998
70
192
0
VERTEX
8
OBJECT__57
10
-16.226000
20
-25.947001
30
55.266998
70
192
0
VERTEX
8
OBJECT__57
10
-20.718000
20
-21.455999
30
52.966000
70
192
0
VERTEX
8
OBJECT__57
10
0
20
0
30
0
70
128
71
1
72
2
73
3
0
VERTEX
8
OBJECT__57
10
0
20
0
30
0
70
128
71
3
72
4
73
1
0
VERTEX
8
OBJECT__57
10
0
20
0
30
0
70
128
71
4
72
5
73
1
0
SEQEND
8
OBJECT__57
0
POLYLINE
8
OBJECT__58
66
1
70
64
71
8
72
6
62
253
0
VERTEX
8
OBJECT__58
10
-21.455999
20
-20.718000
30
52.966000
70
192
0
VERTEX
8
OBJECT__58
10
-23.665001
20
-13.663000
30
50.706001
70
192
0
VERTEX
8
OBJECT__58
10
-22.888000
20
-13.215000
30
50.134998
70
192
0
VERTEX
8
OBJECT__58
10
-20.718000
20
-21.455999
30
52.966000
70
192
0
VERTEX
8
OBJECT__58
10
-18.090000
20
-13.981000
30
48.255001
70
192
0
VERTEX
8
OBJECT__58
10
-13.981000
20
-18.090000
30
48.255001
70
192
0
VERTEX
8
OBJECT__58
10
-13.215000
20
-22.888000
30
50.134998
70
192
0
VERTEX
8
OBJECT__58
10
-13.663000
20
-23.665001
30
50.706001
70
192
0
VERTEX
8
OBJECT__58
10
0
20
0
30
0
70
128
71
1
72
2
73
3
0
VERTEX
8
OBJECT__58
10
0
20
0
30
0
70
128
71
4
72
5
73
6
0
VERTEX
8
OBJECT__58
10
0
20
0
30
0
70
128
71
5
72
4
73
1
0
VERTEX
8
OBJECT__58
10
0
20
0
30
0
70
128
71
6
72
7
73
4
0
VERTEX
8
OBJECT__58
10
0
20
0
30
0
70
128
71
7
72
8
73
4
0
VERTEX
8
OBJECT__58
10
0
20
0
30
0
70
128
71
3
72
5
73
1
0
SEQEND
8
OBJECT__58
0
POLYLINE
8
OBJECT__59
66
1
70
64
71
3
72
1
62
253
0
VERTEX
8
OBJECT__59
10
-13.215000
20
-22.888000
30
50.134998
70
192
0
VERTEX
8
OBJECT__59
10
-13.981000
20
-18.090000
30
48.255001
70
192
0
VERTEX
8
OBJECT__59
10
-8.675000
20
-21.153000
30
48.255001
70
192
0
VERTEX
8
OBJECT__59
10
0
20
0
30
0
70
128
71
1
72
2
73
3
0
SEQEND
8
OBJECT__59
0
POLYLINE
8
OBJECT__60
66
1
70
64
71
6
72
4
62
253
0
VERTEX
8
OBJECT__60
10
0.000000
20
4.270000
30
64.661003
70
192
0
VERTEX
8
OBJECT__60
10
6.211000
20
23.166000
30
62.018002
70
192
0
VERTEX
8
OBJECT__60
10
6.204000
20
23.167999
30
62.018002
70
192
0
VERTEX
8
OBJECT__60
10
2.135000
20
3.698000
30
64.661003
70
192
0
VERTEX
8
OBJECT__60
10
10.934000
20
18.938000
30
62.398998
70
192
0
VERTEX
8
OBJECT__60
10
0.000000
20
21.867001
30
62.398998
70
192
0
VERTEX
8
OBJECT__60
10
0
20
0
30
0
70
128
71
1
72
2
73
3
0
VERTEX
8
OBJECT__60
10
0
20
0
30
0
70
128
71
2
72
1
73
4
0
VERTEX
8
OBJECT__60
10
0
20
0
30
0
70
128
71
4
72
5
73
2
0
VERTEX
8
OBJECT__60
10
0
20
0
30
0
70
128
71
3
72
6
73
1
0
SEQEND
8
OBJECT__60
0
POLYLINE
8
OBJECT__61
66
1
70
64
71
4
72
2
62
253
0
VERTEX
8
OBJECT__61
10
13.562000
20
23.490000
30
60.859001
70
192
0
VERTEX
8
OBJECT__61
10
6.211000
20
23.166000
30
62.018002
70
192
0
VERTEX
8
OBJECT__61
10
10.934000
20
18.938000
30
62.398998
70
192
0
VERTEX
8
OBJECT__61
10
16.957001
20
16.962000
30
62.018002
70
192
0
VERTEX
8
OBJECT__61
10
0
20
0
30
0
70
128
71
1
72
2
73
3
0
VERTEX
8
OBJECT__61
10
0
20
0
30
0
70
128
71
3
72
4
73
1
0
SEQEND
8
OBJECT__61
0
POLYLINE
8
OBJECT__62
66
1
70
64
71
8
72
6
62
253
0
VERTEX
8
OBJECT__62
10
8.195000
20
28.677000
30
58.966000
70
192
0
VERTEX
8
OBJECT__62
10
6.211000
20
23.166000
30
62.018002
70
192
0
VERTEX
8
OBJECT__62
10
13.562000
20
23.490000
30
60.859001
70
192
0
VERTEX
8
OBJECT__62
10
7.242000
20
28.933001
30
58.966000
70
192
0
VERTEX
8
OBJECT__62
10
0.000000
20
27.128000
30
60.856998
70
192
0
VERTEX
8
OBJECT__62
10
0.000000
20
27.124001
30
60.859001
70
192
0
VERTEX
8
OBJECT__62
10
6.204000
20
23.167999
30
62.018002
70
192
0
VERTEX
8
OBJECT__62
10
13.564000
20
23.493999
30
60.856998
70
192
0
VERTEX
8
OBJECT__62
10
0
20
0
30
0
70
128
71
1
72
2
73
3
0
VERTEX
8
OBJECT__62
10
0
20
0
30
0
70
128
71
4
72
5
73
6
0
VERTEX
8
OBJECT__62
10
0
20
0
30
0
70
128
71
1
72
7
73
2
0
VERTEX
8
OBJECT__62
10
0
20
0
30
0
70
128
71
7
72
1
73
4
0
VERTEX
8
OBJECT__62
10
0
20
0
30
0
70
128
71
6
72
7
73
4
0
VERTEX
8
OBJECT__62
10
0
20
0
30
0
70
128
71
3
72
8
73
1
0
SEQEND
8
OBJECT__62
0
POLYLINE
8
OBJECT__63
66
1
70
64
71
8
72
6
62
253
0
VERTEX
8
OBJECT__63
10
8.195000
20
28.677000
30
58.966000
70
192
0
VERTEX
8
OBJECT__63
10
14.358000
20
27.025999
30
57.235001
70
192
0
VERTEX
8
OBJECT__63
10
14.358000
20
27.025999
30
55.266998
70
192
0
VERTEX
8
OBJECT__63
10
7.242000
20
28.933001
30
58.966000
70
192
0
VERTEX
8
OBJECT__63
10
7.214000
20
28.940001
30
52.966000
70
192
0
VERTEX
8
OBJECT__63
10
1.079000
20
30.584000
30
55.266998
70
192
0
VERTEX
8
OBJECT__63
10
8.222000
20
28.670000
30
52.966000
70
192
0
VERTEX
8
OBJECT__63
10
1.079000
20
30.584000
30
57.235001
70
192
0
VERTEX
8
OBJECT__63
10
0
20
0
30
0
70
128
71
1
72
2
73
3
0
VERTEX
8
OBJECT__63
10
0
20
0
30
0
70
128
71
4
72
5
73
6
0
VERTEX
8
OBJECT__63
10
0
20
0
30
0
70
128
71
7
72
4
73
1
0
VERTEX
8
OBJECT__63
10
0
20
0
30
0
70
128
71
4
72
7
73
5
0
VERTEX
8
OBJECT__63
10
0
20
0
30
0
70
128
71
6
72
8
73
4
0
VERTEX
8
OBJECT__63
10
0
20
0
30
0
70
128
71
3
72
7
73
1
0
SEQEND
8
OBJECT__63
0
POLYLINE
8
OBJECT__64
66
1
70
64
71
5
72
3
62
253
0
VERTEX
8
OBJECT__64
10
13.564000
20
23.493999
30
60.856998
70
192
0
VERTEX
8
OBJECT__64
10
20.738001
20
21.436001
30
58.966000
70
192
0
VERTEX
8
OBJECT__64
10
16.226000
20
25.947001
30
57.235001
70
192
0
VERTEX
8
OBJECT__64
10
14.358000
20
27.025999
30
57.235001
70
192
0
VERTEX
8
OBJECT__64
10
8.195000
20
28.677000
30
58.966000
70
192
0
VERTEX
8
OBJECT__64
10
0
20
0
30
0
70
128
71
1
72
2
73
3
0
VERTEX
8
OBJECT__64
10
0
20
0
30
0
70
128
71
3
72
4
73
1
0
VERTEX
8
OBJECT__64
10
0
20
0
30
0
70
128
71
4
72
5
73
1
0
SEQEND
8
OBJECT__64
0
POLYLINE
8
OBJECT__65
66
1
70
64
71
4
72
2
62
253
0
VERTEX
8
OBJECT__65
10
16.226000
20
25.947001
30
55.266998
70
192
0
VERTEX
8
OBJECT__65
10
14.358000
20
27.025999
30
55.266998
70
192
0
VERTEX
8
OBJECT__65
10
14.358000
20
27.025999
30
57.235001
70
192
0
VERTEX
8
OBJECT__65
10
16.226000
20
25.947001
30
57.235001
70
192
0
VERTEX
8
OBJECT__65
10
0
20
0
30
0
70
128
71
1
72
2
73
3
0
VERTEX
8
OBJECT__65
10
0
20
0
30
0
70
128
71
3
72
4
73
1
0
SEQEND
8
OBJECT__65
0
POLYLINE
8
OBJECT__66
66
1
70
64
71
5
72
3
62
253
0
VERTEX
8
OBJECT__66
10
13.663000
20
23.665001
30
50.706001
70
192
0
VERTEX
8
OBJECT__66
10
8.222000
20
28.670000
30
52.966000
70
192
0
VERTEX
8
OBJECT__66
10
14.358000
20
27.025999
30
55.266998
70
192
0
VERTEX
8
OBJECT__66
10
16.226000
20
25.947001
30
55.266998
70
192
0
VERTEX
8
OBJECT__66
10
20.718000
20
21.455999
30
52.966000
70
192
0
VERTEX
8
OBJECT__66
10
0
20
0
30
0
70
128
71
1
72
2
73
3
0
VERTEX
8
OBJECT__66
10
0
20
0
30
0
70
128
71
3
72
4
73
1
0
VERTEX
8
OBJECT__66
10
0
20
0
30
0
70
128
71
4
72
5
73
1
0
SEQEND
8
OBJECT__66
0
POLYLINE
8
OBJECT__67
66
1
70
64
71
8
72
6
62
253
0
VERTEX
8
OBJECT__67
10
8.222000
20
28.670000
30
52.966000
70
192
0
VERTEX
8
OBJECT__67
10
13.215000
20
22.888000
30
50.134998
70
192
0
VERTEX
8
OBJECT__67
10
8.675000
20
21.153000
30
48.255001
70
192
0
VERTEX
8
OBJECT__67
10
7.214000
20
28.940001
30
52.966000
70
192
0
VERTEX
8
OBJECT__67
10
3.063000
20
22.657000
30
48.255001
70
192
0
VERTEX
8
OBJECT__67
10
0.000000
20
26.429001
30
50.134998
70
192
0
VERTEX
8
OBJECT__67
10
13.663000
20
23.665001
30
50.706001
70
192
0
VERTEX
8
OBJECT__67
10
0.000000
20
27.326000
30
50.706001
70
192
0
VERTEX
8
OBJECT__67
10
0
20
0
30
0
70
128
71
1
72
2
73
3
0
VERTEX
8
OBJECT__67
10
0
20
0
30
0
70
128
71
4
72
5
73
6
0
VERTEX
8
OBJECT__67
10
0
20
0
30
0
70
128
71
1
72
7
73
2
0
VERTEX
8
OBJECT__67
10
0
20
0
30
0
70
128
71
6
72
8
73
4
0
VERTEX
8
OBJECT__67
10
0
20
0
30
0
70
128
71
4
72
1
73
5
0
VERTEX
8
OBJECT__67
10
0
20
0
30
0
70
128
71
3
72
5
73
1
0
SEQEND
8
OBJECT__67
0
POLYLINE
8
OBJECT__68
66
1
70
64
71
3
72
1
62
253
0
VERTEX
8
OBJECT__68
10
13.215000
20
22.888000
30
50.134998
70
192
0
VERTEX
8
OBJECT__68
10
13.981000
20
18.090000
30
48.255001
70
192
0
VERTEX
8
OBJECT__68
10
8.675000
20
21.153000
30
48.255001
70
192
0
VERTEX
8
OBJECT__68
10
0
20
0
30
0
70
128
71
1
72
2
73
3
0
SEQEND
8
OBJECT__68
0
POLYLINE
8
OBJECT__69
66
1
70
64
71
6
72
4
62
253
0
VERTEX
8
OBJECT__69
10
16.957001
20
16.962000
30
62.018002
70
192
0
VERTEX
8
OBJECT__69
10
10.934000
20
18.938000
30
62.398998
70
192
0
VERTEX
8
OBJECT__69
10
2.135000
20
3.698000
30
64.661003
70
192
0
VERTEX
8
OBJECT__69
10
3.698000
20
2.135000
30
64.661003
70
192
0
VERTEX
8
OBJECT__69
10
18.938000
20
10.934000
30
62.398998
70
192
0
VERTEX
8
OBJECT__69
10
16.962000
20
16.957001
30
62.018002
70
192
0
VERTEX
8
OBJECT__69
10
0
20
0
30
0
70
128
71
1
72
2
73
3
0
VERTEX
8
OBJECT__69
10
0
20
0
30
0
70
128
71
4
72
5
73
6
0
VERTEX
8
OBJECT__69
10
0
20
0
30
0
70
128
71
6
72
1
73
4
0
VERTEX
8
OBJECT__69
10
0
20
0
30
0
70
128
71
3
72
4
73
1
0
SEQEND
8
OBJECT__69
0
POLYLINE
8
OBJECT__70
66
1
70
64
71
4
72
2
62
253
0
VERTEX
8
OBJECT__70
10
23.490000
20
13.562000
30
60.859001
70
192
0
VERTEX
8
OBJECT__70
10
16.962000
20
16.957001
30
62.018002
70
192
0
VERTEX
8
OBJECT__70
10
18.938000
20
10.934000
30
62.398998
70
192
0
VERTEX
8
OBJECT__70
10
23.166000
20
6.211000
30
62.018002
70
192
0
VERTEX
8
OBJECT__70
10
0
20
0
30
0
70
128
71
1
72
2
73
3
0
VERTEX
8
OBJECT__70
10
0
20
0
30
0
70
128
71
3
72
4
73
1
0
SEQEND
8
OBJECT__70
0
POLYLINE
8
OBJECT__71
66
1
70
64
71
8
72
6
62
253
0
VERTEX
8
OBJECT__71
10
21.436001
20
20.738001
30
58.966000
70
192
0
VERTEX
8
OBJECT__71
10
16.962000
20
16.957001
30
62.018002
70
192
0
VERTEX
8
OBJECT__71
10
23.490000
20
13.562000
30
60.859001
70
192
0
VERTEX
8
OBJECT__71
10
20.738001
20
21.436001
30
58.966000
70
192
0
VERTEX
8
OBJECT__71
10
13.564000
20
23.493999
30
60.856998
70
192
0
VERTEX
8
OBJECT__71
10
13.562000
20
23.490000
30
60.859001
70
192
0
VERTEX
8
OBJECT__71
10
23.493999
20
13.564000
30
60.856998
70
192
0
VERTEX
8
OBJECT__71
10
16.957001
20
16.962000
30
62.018002
70
192
0
VERTEX
8
OBJECT__71
10
0
20
0
30
0
70
128
71
1
72
2
73
3
0
VERTEX
8
OBJECT__71
10
0
20
0
30
0
70
128
71
4
72
5
73
6
0
VERTEX
8
OBJECT__71
10
0
20
0
30
0
70
128
71
3
72
7
73
1
0
VERTEX
8
OBJECT__71
10
0
20
0
30
0
70
128
71
6
72
8
73
4
0
VERTEX
8
OBJECT__71
10
0
20
0
30
0
70
128
71
8
72
2
73
4
0
VERTEX
8
OBJECT__71
10
0
20
0
30
0
70
128
71
1
72
4
73
2
0
SEQEND
8
OBJECT__71
0
POLYLINE
8
OBJECT__72
66
1
70
64
71
8
72
6
62
253
0
VERTEX
8
OBJECT__72
10
21.436001
20
20.738001
30
58.966000
70
192
0
VERTEX
8
OBJECT__72
10
25.947001
20
16.226000
30
57.235001
70
192
0
VERTEX
8
OBJECT__72
10
25.947001
20
16.226000
30
55.266998
70
192
0
VERTEX
8
OBJECT__72
10
20.738001
20
21.436001
30
58.966000
70
192
0
VERTEX
8
OBJECT__72
10
20.718000
20
21.455999
30
52.966000
70
192
0
VERTEX
8
OBJECT__72
10
16.226000
20
25.947001
30
55.266998
70
192
0
VERTEX
8
OBJECT__72
10
21.455999
20
20.718000
30
52.966000
70
192
0
VERTEX
8
OBJECT__72
10
16.226000
20
25.947001
30
57.235001
70
192
0
VERTEX
8
OBJECT__72
10
0
20
0
30
0
70
128
71
1
72
2
73
3
0
VERTEX
8
OBJECT__72
10
0
20
0
30
0
70
128
71
4
72
5
73
6
0
VERTEX
8
OBJECT__72
10
0
20
0
30
0
70
128
71
3
72
7
73
1
0
VERTEX
8
OBJECT__72
10
0
20
0
30
0
70
128
71
6
72
8
73
4
0
VERTEX
8
OBJECT__72
10
0
20
0
30
0
70
128
71
4
72
1
73
5
0
VERTEX
8
OBJECT__72
10
0
20
0
30
0
70
128
71
7
72
5
73
1
0
SEQEND
8
OBJECT__72
0
POLYLINE
8
OBJECT__73
66
1
70
64
71
5
72
3
62
253
0
VERTEX
8
OBJECT__73
10
23.493999
20
13.564000
30
60.856998
70
192
0
VERTEX
8
OBJECT__73
10
27.025999
20
14.358000
30
57.235001
70
192
0
VERTEX
8
OBJECT__73
10
25.947001
20
16.226000
30
57.235001
70
192
0
VERTEX
8
OBJECT__73
10
28.677000
20
8.195000
30
58.966000
70
192
0
VERTEX
8
OBJECT__73
10
21.436001
20
20.738001
30
58.966000
70
192
0
VERTEX
8
OBJECT__73
10
0
20
0
30
0
70
128
71
1
72
2
73
3
0
VERTEX
8
OBJECT__73
10
0
20
0
30
0
70
128
71
1
72
4
73
2
0
VERTEX
8
OBJECT__73
10
0
20
0
30
0
70
128
71
3
72
5
73
1
0
SEQEND
8
OBJECT__73
0
POLYLINE
8
OBJECT__74
66
1
70
64
71
4
72
2
62
253
0
VERTEX
8
OBJECT__74
10
25.947001
20
16.226000
30
55.266998
70
192
0
VERTEX
8
OBJECT__74
10
25.947001
20
16.226000
30
57.235001
70
192
0
VERTEX
8
OBJECT__74
10
27.025999
20
14.358000
30
57.235001
70
192
0
VERTEX
8
OBJECT__74
10
27.025999
20
14.358000
30
55.266998
70
192
0
VERTEX
8
OBJECT__74
10
0
20
0
30
0
70
128
71
1
72
2
73
3
0
VERTEX
8
OBJECT__74
10
0
20
0
30
0
70
128
71
3
72
4
73
1
0
SEQEND
8
OBJECT__74
0
POLYLINE
8
OBJECT__75
66
1
70
64
71
5
72
3
62
253
0
VERTEX
8
OBJECT__75
10
23.665001
20
13.663000
30
50.706001
70
192
0
VERTEX
8
OBJECT__75
10
25.947001
20
16.226000
30
55.266998
70
192
0
VERTEX
8
OBJECT__75
10
27.025999
20
14.358000
30
55.266998
70
192
0
VERTEX
8
OBJECT__75
10
21.455999
20
20.718000
30
52.966000
70
192
0
VERTEX
8
OBJECT__75
10
28.670000
20
8.222000
30
52.966000
70
192
0
VERTEX
8
OBJECT__75
10
0
20
0
30
0
70
128
71
1
72
2
73
3
0
VERTEX
8
OBJECT__75
10
0
20
0
30
0
70
128
71
1
72
4
73
2
0
VERTEX
8
OBJECT__75
10
0
20
0
30
0
70
128
71
3
72
5
73
1
0
SEQEND
8
OBJECT__75
0
POLYLINE
8
OBJECT__76
66
1
70
64
71
8
72
6
62
253
0
VERTEX
8
OBJECT__76
10
21.455999
20
20.718000
30
52.966000
70
192
0
VERTEX
8
OBJECT__76
10
22.888000
20
13.215000
30
50.134998
70
192
0
VERTEX
8
OBJECT__76
10
18.090000
20
13.981000
30
48.255001
70
192
0
VERTEX
8
OBJECT__76
10
20.718000
20
21.455999
30
52.966000
70
192
0
VERTEX
8
OBJECT__76
10
13.981000
20
18.090000
30
48.255001
70
192
0
VERTEX
8
OBJECT__76
10
13.215000
20
22.888000
30
50.134998
70
192
0
VERTEX
8
OBJECT__76
10
23.665001
20
13.663000
30
50.706001
70
192
0
VERTEX
8
OBJECT__76
10
13.663000
20
23.665001
30
50.706001
70
192
0
VERTEX
8
OBJECT__76
10
0
20
0
30
0
70
128
71
1
72
2
73
3
0
VERTEX
8
OBJECT__76
10
0
20
0
30
0
70
128
71
4
72
5
73
6
0
VERTEX
8
OBJECT__76
10
0
20
0
30
0
70
128
71
1
72
7
73
2
0
VERTEX
8
OBJECT__76
10
0
20
0
30
0
70
128
71
6
72
8
73
4
0
VERTEX
8
OBJECT__76
10
0
20
0
30
0
70
128
71
4
72
1
73
5
0
VERTEX
8
OBJECT__76
10
0
20
0
30
0
70
128
71
3
72
5
73
1
0
SEQEND
8
OBJECT__76
0
POLYLINE
8
OBJECT__77
66
1
70
64
71
3
72
1
62
253
0
VERTEX
8
OBJECT__77
10
21.153000
20
8.675000
30
48.255001
70
192
0
VERTEX
8
OBJECT__77
10
18.090000
20
13.981000
30
48.255001
70
192
0
VERTEX
8
OBJECT__77
10
22.888000
20
13.215000
30
50.134998
70
192
0
VERTEX
8
OBJECT__77
10
0
20
0
30
0
70
128
71
1
72
2
73
3
0
SEQEND
8
OBJECT__77
0
POLYLINE
8
OBJECT__78
66
1
70
64
71
6
72
4
62
253
0
VERTEX
8
OBJECT__78
10
23.166000
20
6.211000
30
62.018002
70
192
0
VERTEX
8
OBJECT__78
10
18.938000
20
10.934000
30
62.398998
70
192
0
VERTEX
8
OBJECT__78
10
3.698000
20
2.135000
30
64.661003
70
192
0
VERTEX
8
OBJECT__78
10
4.270000
20
0.000000
30
64.661003
70
192
0
VERTEX
8
OBJECT__78
10
21.867001
20
0.000000
30
62.398998
70
192
0
VERTEX
8
OBJECT__78
10
23.167999
20
6.204000
30
62.018002
70
192
0
VERTEX
8
OBJECT__78
10
0
20
0
30
0
70
128
71
1
72
2
73
3
0
VERTEX
8
OBJECT__78
10
0
20
0
30
0
70
128
71
4
72
5
73
6
0
VERTEX
8
OBJECT__78
10
0
20
0
30
0
70
128
71
6
72
1
73
4
0
VERTEX
8
OBJECT__78
10
0
20
0
30
0
70
128
71
3
72
4
73
1
0
SEQEND
8
OBJECT__78
0
POLYLINE
8
OBJECT__79
66
1
70
64
71
4
72
2
62
253
0
VERTEX
8
OBJECT__79
10
27.124001
20
0.000000
30
60.859001
70
192
0
VERTEX
8
OBJECT__79
10
23.167999
20
6.204000
30
62.018002
70
192
0
VERTEX
8
OBJECT__79
10
21.867001
20
0.000000
30
62.398998
70
192
0
VERTEX
8
OBJECT__79
10
23.167999
20
-6.204000
30
62.018002
70
192
0
VERTEX
8
OBJECT__79
10
0
20
0
30
0
70
128
71
1
72
2
73
3
0
VERTEX
8
OBJECT__79
10
0
20
0
30
0
70
128
71
3
72
4
73
1
0
SEQEND
8
OBJECT__79
0
POLYLINE
8
OBJECT__80
66
1
70
64
71
8
72
6
62
253
0
VERTEX
8
OBJECT__80
10
28.933001
20
7.242000
30
58.966000
70
192
0
VERTEX
8
OBJECT__80
10
23.167999
20
6.204000
30
62.018002
70
192
0
VERTEX
8
OBJECT__80
10
27.124001
20
0.000000
30
60.859001
70
192
0
VERTEX
8
OBJECT__80
10
28.677000
20
8.195000
30
58.966000
70
192
0
VERTEX
8
OBJECT__80
10
23.493999
20
13.564000
30
60.856998
70
192
0
VERTEX
8
OBJECT__80
10
23.490000
20
13.562000
30
60.859001
70
192
0
VERTEX
8
OBJECT__80
10
23.166000
20
6.211000
30
62.018002
70
192
0
VERTEX
8
OBJECT__80
10
27.128000
20
0.000000
30
60.856998
70
192
0
VERTEX
8
OBJECT__80
10
0
20
0
30
0
70
128
71
1
72
2
73
3
0
VERTEX
8
OBJECT__80
10
0
20
0
30
0
70
128
71
4
72
5
73
6
0
VERTEX
8
OBJECT__80
10
0
20
0
30
0
70
128
71
1
72
7
73
2
0
VERTEX
8
OBJECT__80
10
0
20
0
30
0
70
128
71
7
72
1
73
4
0
VERTEX
8
OBJECT__80
10
0
20
0
30
0
70
128
71
6
72
7
73
4
0
VERTEX
8
OBJECT__80
10
0
20
0
30
0
70
128
71
3
72
8
73
1
0
SEQEND
8
OBJECT__80
0
POLYLINE
8
OBJECT__81
66
1
70
64
71
12
72
10
62
253
0
VERTEX
8
OBJECT__81
10
-4.270000
20
0.000000
30
64.661003
70
192
0
VERTEX
8
OBJECT__81
10
2.135000
20
3.698000
30
64.661003
70
192
0
VERTEX
8
OBJECT__81
10
0.000000
20
4.270000
30
64.661003
70
192
0
VERTEX
8
OBJECT__81
10
-3.698000
20
-2.135000
30
64.661003
70
192
0
VERTEX
8
OBJECT__81
10
-2.135000
20
-3.698000
30
64.661003
70
192
0
VERTEX
8
OBJECT__81
10
0.000000
20
-4.270000
30
64.661003
70
192
0
VERTEX
8
OBJECT__81
10
-2.135000
20
3.698000
30
64.661003
70
192
0
VERTEX
8
OBJECT__81
10
4.270000
20
0.000000
30
64.661003
70
192
0
VERTEX
8
OBJECT__81
10
3.698000
20
2.135000
30
64.661003
70
192
0
VERTEX
8
OBJECT__81
10
2.135000
20
-3.698000
30
64.661003
70
192
0
VERTEX
8
OBJECT__81
10
3.698000
20
-2.135000
30
64.661003
70
192
0
VERTEX
8
OBJECT__81
10
-3.698000
20
2.135000
30
64.661003
70
192
0
VERTEX
8
OBJECT__81
10
0
20
0
30
0
70
128
71
1
72
2
73
3
0
VERTEX
8
OBJECT__81
10
0
20
0
30
0
70
128
71
4
72
5
73
6
0
VERTEX
8
OBJECT__81
10
0
20
0
30
0
70
128
71
3
72
7
73
1
0
VERTEX
8
OBJECT__81
10
0
20
0
30
0
70
128
71
1
72
8
73
9
0
VERTEX
8
OBJECT__81
10
0
20
0
30
0
70
128
71
1
72
10
73
11
0
VERTEX
8
OBJECT__81
10
0
20
0
30
0
70
128
71
10
72
1
73
4
0
VERTEX
8
OBJECT__81
10
0
20
0
30
0
70
128
71
9
72
2
73
1
0
VERTEX
8
OBJECT__81
10
0
20
0
30
0
70
128
71
6
72
10
73
4
0
VERTEX
8
OBJECT__81
10
0
20
0
30
0
70
128
71
11
72
8
73
1
0
VERTEX
8
OBJECT__81
10
0
20
0
30
0
70
128
71
7
72
12
73
1
0
SEQEND
8
OBJECT__81
0
POLYLINE
8
OBJECT__82
66
1
70
64
71
6
72
4
62
253
0
VERTEX
8
OBJECT__82
10
23.167999
20
-6.204000
30
62.018002
70
192
0
VERTEX
8
OBJECT__82
10
21.867001
20
0.000000
30
62.398998
70
192
0
VERTEX
8
OBJECT__82
10
4.270000
20
0.000000
30
64.661003
70
192
0
VERTEX
8
OBJECT__82
10
3.698000
20
-2.135000
30
64.661003
70
192
0
VERTEX
8
OBJECT__82
10
18.938000
20
-10.934000
30
62.398998
70
192
0
VERTEX
8
OBJECT__82
10
23.166000
20
-6.211000
30
62.018002
70
192
0
VERTEX
8
OBJECT__82
10
0
20
0
30
0
70
128
71
1
72
2
73
3
0
VERTEX
8
OBJECT__82
10
0
20
0
30
0
70
128
71
4
72
5
73
6
0
VERTEX
8
OBJECT__82
10
0
20
0
30
0
70
128
71
6
72
1
73
4
0
VERTEX
8
OBJECT__82
10
0
20
0
30
0
70
128
71
3
72
4
73
1
0
SEQEND
8
OBJECT__82
0
POLYLINE
8
OBJECT__83
66
1
70
64
71
6
72
4
62
253
0
VERTEX
8
OBJECT__83
10
-6.204000
20
-23.167999
30
62.018002
70
192
0
VERTEX
8
OBJECT__83
10
0.000000
20
-21.867001
30
62.398998
70
192
0
VERTEX
8
OBJECT__83
10
0.000000
20
-4.270000
30
64.661003
70
192
0
VERTEX
8
OBJECT__83
10
-2.135000
20
-3.698000
30
64.661003
70
192
0
VERTEX
8
OBJECT__83
10
-10.934000
20
-18.938000
30
62.398998
70
192
0
VERTEX
8
OBJECT__83
10
-6.211000
20
-23.166000
30
62.018002
70
192
0
VERTEX
8
OBJECT__83
10
0
20
0
30
0
70
128
71
1
72
2
73
3
0
VERTEX
8
OBJECT__83
10
0
20
0
30
0
70
128
71
4
72
5
73
6
0
VERTEX
8
OBJECT__83
10
0
20
0
30
0
70
128
71
6
72
1
73
4
0
VERTEX
8
OBJECT__83
10
0
20
0
30
0
70
128
71
3
72
4
73
1
0
SEQEND
8
OBJECT__83
0
POLYLINE
8
OBJECT__84
66
1
70
64
71
4
72
2
62
253
0
VERTEX
8
OBJECT__84
10
23.490000
20
-13.562000
30
60.859001
70
192
0
VERTEX
8
OBJECT__84
10
23.166000
20
-6.211000
30
62.018002
70
192
0
VERTEX
8
OBJECT__84
10
18.938000
20
-10.934000
30
62.398998
70
192
0
VERTEX
8
OBJECT__84
10
16.962000
20
-16.957001
30
62.018002
70
192
0
VERTEX
8
OBJECT__84
10
0
20
0
30
0
70
128
71
1
72
2
73
3
0
VERTEX
8
OBJECT__84
10
0
20
0
30
0
70
128
71
3
72
4
73
1
0
SEQEND
8
OBJECT__84
0
POLYLINE
8
OBJECT__85
66
1
70
64
71
6
72
4
62
253
0
VERTEX
8
OBJECT__85
10
16.962000
20
-16.957001
30
62.018002
70
192
0
VERTEX
8
OBJECT__85
10
18.938000
20
-10.934000
30
62.398998
70
192
0
VERTEX
8
OBJECT__85
10
3.698000
20
-2.135000
30
64.661003
70
192
0
VERTEX
8
OBJECT__85
10
2.135000
20
-3.698000
30
64.661003
70
192
0
VERTEX
8
OBJECT__85
10
10.934000
20
-18.938000
30
62.398998
70
192
0
VERTEX
8
OBJECT__85
10
16.957001
20
-16.962000
30
62.018002
70
192
0
VERTEX
8
OBJECT__85
10
0
20
0
30
0
70
128
71
1
72
2
73
3
0
VERTEX
8
OBJECT__85
10
0
20
0
30
0
70
128
71
4
72
5
73
6
0
VERTEX
8
OBJECT__85
10
0
20
0
30
0
70
128
71
6
72
1
73
4
0
VERTEX
8
OBJECT__85
10
0
20
0
30
0
70
128
71
3
72
4
73
1
0
SEQEND
8
OBJECT__85
0
POLYLINE
8
OBJECT__86
66
1
70
64
71
6
72
4
62
253
0
VERTEX
8
OBJECT__86
10
6.211000
20
-23.166000
30
62.018002
70
192
0
VERTEX
8
OBJECT__86
10
10.934000
20
-18.938000
30
62.398998
70
192
0
VERTEX
8
OBJECT__86
10
2.135000
20
-3.698000
30
64.661003
70
192
0
VERTEX
8
OBJECT__86
10
0.000000
20
-4.270000
30
64.661003
70
192
0
VERTEX
8
OBJECT__86
10
0.000000
20
-21.867001
30
62.398998
70
192
0
VERTEX
8
OBJECT__86
10
6.204000
20
-23.167999
30
62.018002
70
192
0
VERTEX
8
OBJECT__86
10
0
20
0
30
0
70
128
71
1
72
2
73
3
0
VERTEX
8
OBJECT__86
10
0
20
0
30
0
70
128
71
4
72
5
73
6
0
VERTEX
8
OBJECT__86
10
0
20
0
30
0
70
128
71
6
72
1
73
4
0
VERTEX
8
OBJECT__86
10
0
20
0
30
0
70
128
71
3
72
4
73
1
0
SEQEND
8
OBJECT__86
0
POLYLINE
8
OBJECT__87
66
1
70
64
71
4
72
2
62
253
0
VERTEX
8
OBJECT__87
10
13.562000
20
-23.490000
30
60.859001
70
192
0
VERTEX
8
OBJECT__87
10
16.957001
20
-16.962000
30
62.018002
70
192
0
VERTEX
8
OBJECT__87
10
10.934000
20
-18.938000
30
62.398998
70
192
0
VERTEX
8
OBJECT__87
10
6.211000
20
-23.166000
30
62.018002
70
192
0
VERTEX
8
OBJECT__87
10
0
20
0
30
0
70
128
71
1
72
2
73
3
0
VERTEX
8
OBJECT__87
10
0
20
0
30
0
70
128
71
3
72
4
73
1
0
SEQEND
8
OBJECT__87
0
POLYLINE
8
OBJECT__88
66
1
70
64
71
4
72
2
62
253
0
VERTEX
8
OBJECT__88
10
0.000000
20
-27.124001
30
60.859001
70
192
0
VERTEX
8
OBJECT__88
10
6.204000
20
-23.167999
30
62.018002
70
192
0
VERTEX
8
OBJECT__88
10
0.000000
20
-21.867001
30
62.398998
70
192
0
VERTEX
8
OBJECT__88
10
-6.204000
20
-23.167999
30
62.018002
70
192
0
VERTEX
8
OBJECT__88
10
0
20
0
30
0
70
128
71
1
72
2
73
3
0
VERTEX
8
OBJECT__88
10
0
20
0
30
0
70
128
71
3
72
4
73
1
0
SEQEND
8
OBJECT__88
0
POLYLINE
8
OBJECT__89
66
1
70
64
71
8
72
6
62
253
0
VERTEX
8
OBJECT__89
10
-8.195000
20
-28.677000
30
58.966000
70
192
0
VERTEX
8
OBJECT__89
10
-6.211000
20
-23.166000
30
62.018002
70
192
0
VERTEX
8
OBJECT__89
10
-13.562000
20
-23.490000
30
60.859001
70
192
0
VERTEX
8
OBJECT__89
10
-7.242000
20
-28.933001
30
58.966000
70
192
0
VERTEX
8
OBJECT__89
10
0.000000
20
-27.128000
30
60.856998
70
192
0
VERTEX
8
OBJECT__89
10
0.000000
20
-27.124001
30
60.859001
70
192
0
VERTEX
8
OBJECT__89
10
-13.564000
20
-23.493999
30
60.856998
70
192
0
VERTEX
8
OBJECT__89
10
-6.204000
20
-23.167999
30
62.018002
70
192
0
VERTEX
8
OBJECT__89
10
0
20
0
30
0
70
128
71
1
72
2
73
3
0
VERTEX
8
OBJECT__89
10
0
20
0
30
0
70
128
71
4
72
5
73
6
0
VERTEX
8
OBJECT__89
10
0
20
0
30
0
70
128
71
3
72
7
73
1
0
VERTEX
8
OBJECT__89
10
0
20
0
30
0
70
128
71
6
72
8
73
4
0
VERTEX
8
OBJECT__89
10
0
20
0
30
0
70
128
71
8
72
2
73
4
0
VERTEX
8
OBJECT__89
10
0
20
0
30
0
70
128
71
1
72
4
73
2
0
SEQEND
8
OBJECT__89
0
POLYLINE
8
OBJECT__90
66
1
70
64
71
8
72
6
62
253
0
VERTEX
8
OBJECT__90
10
28.933001
20
7.242000
30
58.966000
70
192
0
VERTEX
8
OBJECT__90
10
30.584000
20
1.079000
30
57.235001
70
192
0
VERTEX
8
OBJECT__90
10
30.584000
20
1.079000
30
55.266998
70
192
0
VERTEX
8
OBJECT__90
10
28.677000
20
8.195000
30
58.966000
70
192
0
VERTEX
8
OBJECT__90
10
28.670000
20
8.222000
30
52.966000
70
192
0
VERTEX
8
OBJECT__90
10
27.025999
20
14.358000
30
55.266998
70
192
0
VERTEX
8
OBJECT__90
10
28.940001
20
7.214000
30
52.966000
70
192
0
VERTEX
8
OBJECT__90
10
27.025999
20
14.358000
30
57.235001
70
192
0
VERTEX
8
OBJECT__90
10
0
20
0
30
0
70
128
71
1
72
2
73
3
0
VERTEX
8
OBJECT__90
10
0
20
0
30
0
70
128
71
4
72
5
73
6
0
VERTEX
8
OBJECT__90
10
0
20
0
30
0
70
128
71
3
72
7
73
1
0
VERTEX
8
OBJECT__90
10
0
20
0
30
0
70
128
71
6
72
8
73
4
0
VERTEX
8
OBJECT__90
10
0
20
0
30
0
70
128
71
4
72
1
73
5
0
VERTEX
8
OBJECT__90
10
0
20
0
30
0
70
128
71
7
72
5
73
1
0
SEQEND
8
OBJECT__90
0
POLYLINE
8
OBJECT__91
66
1
70
64
71
5
72
3
62
253
0
VERTEX
8
OBJECT__91
10
27.128000
20
0.000000
30
60.856998
70
192
0
VERTEX
8
OBJECT__91
10
28.933001
20
-7.242000
30
58.966000
70
192
0
VERTEX
8
OBJECT__91
10
30.584000
20
-1.079000
30
57.235001
70
192
0
VERTEX
8
OBJECT__91
10
30.584000
20
1.079000
30
57.235001
70
192
0
VERTEX
8
OBJECT__91
10
28.933001
20
7.242000
30
58.966000
70
192
0
VERTEX
8
OBJECT__91
10
0
20
0
30
0
70
128
71
1
72
2
73
3
0
VERTEX
8
OBJECT__91
10
0
20
0
30
0
70
128
71
3
72
4
73
1
0
VERTEX
8
OBJECT__91
10
0
20
0
30
0
70
128
71
4
72
5
73
1
0
SEQEND
8
OBJECT__91
0
POLYLINE
8
OBJECT__92
66
1
70
64
71
4
72
2
62
253
0
VERTEX
8
OBJECT__92
10
30.584000
20
-1.079000
30
55.266998
70
192
0
VERTEX
8
OBJECT__92
10
30.584000
20
1.079000
30
55.266998
70
192
0
VERTEX
8
OBJECT__92
10
30.584000
20
1.079000
30
57.235001
70
192
0
VERTEX
8
OBJECT__92
10
30.584000
20
-1.079000
30
57.235001
70
192
0
VERTEX
8
OBJECT__92
10
0
20
0
30
0
70
128
71
1
72
2
73
3
0
VERTEX
8
OBJECT__92
10
0
20
0
30
0
70
128
71
3
72
4
73
1
0
SEQEND
8
OBJECT__92
0
POLYLINE
8
OBJECT__93
66
1
70
64
71
8
72
6
62
253
0
VERTEX
8
OBJECT__93
10
28.677000
20
-8.195000
30
58.966000
70
192
0
VERTEX
8
OBJECT__93
10
23.166000
20
-6.211000
30
62.018002
70
192
0
VERTEX
8
OBJECT__93
10
23.490000
20
-13.562000
30
60.859001
70
192
0
VERTEX
8
OBJECT__93
10
28.933001
20
-7.242000
30
58.966000
70
192
0
VERTEX
8
OBJECT__93
10
27.128000
20
0.000000
30
60.856998
70
192
0
VERTEX
8
OBJECT__93
10
27.124001
20
0.000000
30
60.859001
70
192
0
VERTEX
8
OBJECT__93
10
23.493999
20
-13.564000
30
60.856998
70
192
0
VERTEX
8
OBJECT__93
10
23.167999
20
-6.204000
30
62.018002
70
192
0
VERTEX
8
OBJECT__93
10
0
20
0
30
0
70
128
71
1
72
2
73
3
0
VERTEX
8
OBJECT__93
10
0
20
0
30
0
70
128
71
4
72
5
73
6
0
VERTEX
8
OBJECT__93
10
0
20
0
30
0
70
128
71
3
72
7
73
1
0
VERTEX
8
OBJECT__93
10
0
20
0
30
0
70
128
71
6
72
8
73
4
0
VERTEX
8
OBJECT__93
10
0
20
0
30
0
70
128
71
8
72
2
73
4
0
VERTEX
8
OBJECT__93
10
0
20
0
30
0
70
128
71
1
72
4
73
2
0
SEQEND
8
OBJECT__93
0
POLYLINE
8
OBJECT__94
66
1
70
64
71
5
72
3
62
253
0
VERTEX
8
OBJECT__94
10
27.326000
20
0.000000
30
50.706001
70
192
0
VERTEX
8
OBJECT__94
10
30.584000
20
1.079000
30
55.266998
70
192
0
VERTEX
8
OBJECT__94
10
30.584000
20
-1.079000
30
55.266998
70
192
0
VERTEX
8
OBJECT__94
10
28.940001
20
7.214000
30
52.966000
70
192
0
VERTEX
8
OBJECT__94
10
28.940001
20
-7.214000
30
52.966000
70
192
0
VERTEX
8
OBJECT__94
10
0
20
0
30
0
70
128
71
1
72
2
73
3
0
VERTEX
8
OBJECT__94
10
0
20
0
30
0
70
128
71
1
72
4
73
2
0
VERTEX
8
OBJECT__94
10
0
20
0
30
0
70
128
71
3
72
5
73
1
0
SEQEND
8
OBJECT__94
0
POLYLINE
8
OBJECT__95
66
1
70
64
71
8
72
6
62
253
0
VERTEX
8
OBJECT__95
10
28.940001
20
7.214000
30
52.966000
70
192
0
VERTEX
8
OBJECT__95
10
26.429001
20
0.000000
30
50.134998
70
192
0
VERTEX
8
OBJECT__95
10
22.657000
20
3.063000
30
48.255001
70
192
0
VERTEX
8
OBJECT__95
10
28.670000
20
8.222000
30
52.966000
70
192
0
VERTEX
8
OBJECT__95
10
21.153000
20
8.675000
30
48.255001
70
192
0
VERTEX
8
OBJECT__95
10
22.888000
20
13.215000
30
50.134998
70
192
0
VERTEX
8
OBJECT__95
10
27.326000
20
0.000000
30
50.706001
70
192
0
VERTEX
8
OBJECT__95
10
23.665001
20
13.663000
30
50.706001
70
192
0
VERTEX
8
OBJECT__95
10
0
20
0
30
0
70
128
71
1
72
2
73
3
0
VERTEX
8
OBJECT__95
10
0
20
0
30
0
70
128
71
4
72
5
73
6
0
VERTEX
8
OBJECT__95
10
0
20
0
30
0
70
128
71
1
72
7
73
2
0
VERTEX
8
OBJECT__95
10
0
20
0
30
0
70
128
71
6
72
8
73
4
0
VERTEX
8
OBJECT__95
10
0
20
0
30
0
70
128
71
4
72
1
73
5
0
VERTEX
8
OBJECT__95
10
0
20
0
30
0
70
128
71
3
72
5
73
1
0
SEQEND
8
OBJECT__95
0
POLYLINE
8
OBJECT__96
66
1
70
64
71
3
72
1
62
253
0
VERTEX
8
OBJECT__96
10
26.429001
20
0.000000
30
50.134998
70
192
0
VERTEX
8
OBJECT__96
10
22.657000
20
-3.063000
30
48.255001
70
192
0
VERTEX
8
OBJECT__96
10
22.657000
20
3.063000
30
48.255001
70
192
0
VERTEX
8
OBJECT__96
10
0
20
0
30
0
70
128
71
1
72
2
73
3
0
SEQEND
8
OBJECT__96
0
POLYLINE
8
OBJECT__97
66
1
70
64
71
8
72
6
62
253
0
VERTEX
8
OBJECT__97
10
28.677000
20
-8.195000
30
58.966000
70
192
0
VERTEX
8
OBJECT__97
10
27.025999
20
-14.358000
30
57.235001
70
192
0
VERTEX
8
OBJECT__97
10
27.025999
20
-14.358000
30
55.266998
70
192
0
VERTEX
8
OBJECT__97
10
28.933001
20
-7.242000
30
58.966000
70
192
0
VERTEX
8
OBJECT__97
10
28.940001
20
-7.214000
30
52.966000
70
192
0
VERTEX
8
OBJECT__97
10
30.584000
20
-1.079000
30
55.266998
70
192
0
VERTEX
8
OBJECT__97
10
28.670000
20
-8.222000
30
52.966000
70
192
0
VERTEX
8
OBJECT__97
10
30.584000
20
-1.079000
30
57.235001
70
192
0
VERTEX
8
OBJECT__97
10
0
20
0
30
0
70
128
71
1
72
2
73
3
0
VERTEX
8
OBJECT__97
10
0
20
0
30
0
70
128
71
4
72
5
73
6
0
VERTEX
8
OBJECT__97
10
0
20
0
30
0
70
128
71
7
72
4
73
1
0
VERTEX
8
OBJECT__97
10
0
20
0
30
0
70
128
71
4
72
7
73
5
0
VERTEX
8
OBJECT__97
10
0
20
0
30
0
70
128
71
6
72
8
73
4
0
VERTEX
8
OBJECT__97
10
0
20
0
30
0
70
128
71
3
72
7
73
1
0
SEQEND
8
OBJECT__97
0
POLYLINE
8
OBJECT__98
66
1
70
64
71
5
72
3
62
253
0
VERTEX
8
OBJECT__98
10
23.493999
20
-13.564000
30
60.856998
70
192
0
VERTEX
8
OBJECT__98
10
21.436001
20
-20.738001
30
58.966000
70
192
0
VERTEX
8
OBJECT__98
10
25.947001
20
-16.226000
30
57.235001
70
192
0
VERTEX
8
OBJECT__98
10
27.025999
20
-14.358000
30
57.235001
70
192
0
VERTEX
8
OBJECT__98
10
28.677000
20
-8.195000
30
58.966000
70
192
0
VERTEX
8
OBJECT__98
10
0
20
0
30
0
70
128
71
1
72
2
73
3
0
VERTEX
8
OBJECT__98
10
0
20
0
30
0
70
128
71
3
72
4
73
1
0
VERTEX
8
OBJECT__98
10
0
20
0
30
0
70
128
71
4
72
5
73
1
0
SEQEND
8
OBJECT__98
0
POLYLINE
8
OBJECT__99
66
1
70
64
71
4
72
2
62
253
0
VERTEX
8
OBJECT__99
10
25.947001
20
-16.226000
30
55.266998
70
192
0
VERTEX
8
OBJECT__99
10
27.025999
20
-14.358000
30
55.266998
70
192
0
VERTEX
8
OBJECT__99
10
27.025999
20
-14.358000
30
57.235001
70
192
0
VERTEX
8
OBJECT__99
10
25.947001
20
-16.226000
30
57.235001
70
192
0
VERTEX
8
OBJECT__99
10
0
20
0
30
0
70
128
71
1
72
2
73
3
0
VERTEX
8
OBJECT__99
10
0
20
0
30
0
70
128
71
3
72
4
73
1
0
SEQEND
8
OBJECT__99
0
POLYLINE
8
OBJECT__100
66
1
70
64
71
8
72
6
62
253
0
VERTEX
8
OBJECT__100
10
20.738001
20
-21.436001
30
58.966000
70
192
0
VERTEX
8
OBJECT__100
10
16.957001
20
-16.962000
30
62.018002
70
192
0
VERTEX
8
OBJECT__100
10
13.562000
20
-23.490000
30
60.859001
70
192
0
VERTEX
8
OBJECT__100
10
21.436001
20
-20.738001
30
58.966000
70
192
0
VERTEX
8
OBJECT__100
10
23.493999
20
-13.564000
30
60.856998
70
192
0
VERTEX
8
OBJECT__100
10
23.490000
20
-13.562000
30
60.859001
70
192
0
VERTEX
8
OBJECT__100
10
13.564000
20
-23.493999
30
60.856998
70
192
0
VERTEX
8
OBJECT__100
10
16.962000
20
-16.957001
30
62.018002
70
192
0
VERTEX
8
OBJECT__100
10
0
20
0
30
0
70
128
71
1
72
2
73
3
0
VERTEX
8
OBJECT__100
10
0
20
0
30
0
70
128
71
4
72
5
73
6
0
VERTEX
8
OBJECT__100
10
0
20
0
30
0
70
128
71
3
72
7
73
1
0
VERTEX
8
OBJECT__100
10
0
20
0
30
0
70
128
71
6
72
8
73
4
0
VERTEX
8
OBJECT__100
10
0
20
0
30
0
70
128
71
8
72
2
73
4
0
VERTEX
8
OBJECT__100
10
0
20
0
30
0
70
128
71
1
72
4
73
2
0
SEQEND
8
OBJECT__100
0
POLYLINE
8
OBJECT__101
66
1
70
64
71
8
72
6
62
253
0
VERTEX
8
OBJECT__101
10
7.242000
20
-28.933001
30
58.966000
70
192
0
VERTEX
8
OBJECT__101
10
6.204000
20
-23.167999
30
62.018002
70
192
0
VERTEX
8
OBJECT__101
10
0.000000
20
-27.124001
30
60.859001
70
192
0
VERTEX
8
OBJECT__101
10
8.195000
20
-28.677000
30
58.966000
70
192
0
VERTEX
8
OBJECT__101
10
13.564000
20
-23.493999
30
60.856998
70
192
0
VERTEX
8
OBJECT__101
10
13.562000
20
-23.490000
30
60.859001
70
192
0
VERTEX
8
OBJECT__101
10
6.211000
20
-23.166000
30
62.018002
70
192
0
VERTEX
8
OBJECT__101
10
0.000000
20
-27.128000
30
60.856998
70
192
0
VERTEX
8
OBJECT__101
10
0
20
0
30
0
70
128
71
1
72
2
73
3
0
VERTEX
8
OBJECT__101
10
0
20
0
30
0
70
128
71
4
72
5
73
6
0
VERTEX
8
OBJECT__101
10
0
20
0
30
0
70
128
71
1
72
7
73
2
0
VERTEX
8
OBJECT__101
10
0
20
0
30
0
70
128
71
7
72
1
73
4
0
VERTEX
8
OBJECT__101
10
0
20
0
30
0
70
128
71
6
72
7
73
4
0
VERTEX
8
OBJECT__101
10
0
20
0
30
0
70
128
71
3
72
8
73
1
0
SEQEND
8
OBJECT__101
0
POLYLINE
8
OBJECT__102
66
1
70
64
71
5
72
3
62
253
0
VERTEX
8
OBJECT__102
10
23.665001
20
-13.663000
30
50.706001
70
192
0
VERTEX
8
OBJECT__102
10
28.670000
20
-8.222000
30
52.966000
70
192
0
VERTEX
8
OBJECT__102
10
27.025999
20
-14.358000
30
55.266998
70
192
0
VERTEX
8
OBJECT__102
10
25.947001
20
-16.226000
30
55.266998
70
192
0
VERTEX
8
OBJECT__102
10
21.455999
20
-20.718000
30
52.966000
70
192
0
VERTEX
8
OBJECT__102
10
0
20
0
30
0
70
128
71
1
72
2
73
3
0
VERTEX
8
OBJECT__102
10
0
20
0
30
0
70
128
71
3
72
4
73
1
0
VERTEX
8
OBJECT__102
10
0
20
0
30
0
70
128
71
4
72
5
73
1
0
SEQEND
8
OBJECT__102
0
POLYLINE
8
OBJECT__103
66
1
70
64
71
8
72
6
62
253
0
VERTEX
8
OBJECT__103
10
28.670000
20
-8.222000
30
52.966000
70
192
0
VERTEX
8
OBJECT__103
10
22.888000
20
-13.215000
30
50.134998
70
192
0
VERTEX
8
OBJECT__103
10
21.153000
20
-8.675000
30
48.255001
70
192
0
VERTEX
8
OBJECT__103
10
28.940001
20
-7.214000
30
52.966000
70
192
0
VERTEX
8
OBJECT__103
10
22.657000
20
-3.063000
30
48.255001
70
192
0
VERTEX
8
OBJECT__103
10
26.429001
20
0.000000
30
50.134998
70
192
0
VERTEX
8
OBJECT__103
10
23.665001
20
-13.663000
30
50.706001
70
192
0
VERTEX
8
OBJECT__103
10
27.326000
20
0.000000
30
50.706001
70
192
0
VERTEX
8
OBJECT__103
10
0
20
0
30
0
70
128
71
1
72
2
73
3
0
VERTEX
8
OBJECT__103
10
0
20
0
30
0
70
128
71
4
72
5
73
6
0
VERTEX
8
OBJECT__103
10
0
20
0
30
0
70
128
71
1
72
7
73
2
0
VERTEX
8
OBJECT__103
10
0
20
0
30
0
70
128
71
6
72
8
73
4
0
VERTEX
8
OBJECT__103
10
0
20
0
30
0
70
128
71
4
72
1
73
5
0
VERTEX
8
OBJECT__103
10
0
20
0
30
0
70
128
71
3
72
5
73
1
0
SEQEND
8
OBJECT__103
0
POLYLINE
8
OBJECT__104
66
1
70
64
71
3
72
1
62
253
0
VERTEX
8
OBJECT__104
10
18.090000
20
-13.981000
30
48.255001
70
192
0
VERTEX
8
OBJECT__104
10
21.153000
20
-8.675000
30
48.255001
70
192
0
VERTEX
8
OBJECT__104
10
22.888000
20
-13.215000
30
50.134998
70
192
0
VERTEX
8
OBJECT__104
10
0
20
0
30
0
70
128
71
1
72
2
73
3
0
SEQEND
8
OBJECT__104
0
POLYLINE
8
OBJECT__105
66
1
70
64
71
5
72
3
62
253
0
VERTEX
8
OBJECT__105
10
13.564000
20
-23.493999
30
60.856998
70
192
0
VERTEX
8
OBJECT__105
10
14.358000
20
-27.025999
30
57.235001
70
192
0
VERTEX
8
OBJECT__105
10
16.226000
20
-25.947001
30
57.235001
70
192
0
VERTEX
8
OBJECT__105
10
8.195000
20
-28.677000
30
58.966000
70
192
0
VERTEX
8
OBJECT__105
10
20.738001
20
-21.436001
30
58.966000
70
192
0
VERTEX
8
OBJECT__105
10
0
20
0
30
0
70
128
71
1
72
2
73
3
0
VERTEX
8
OBJECT__105
10
0
20
0
30
0
70
128
71
1
72
4
73
2
0
VERTEX
8
OBJECT__105
10
0
20
0
30
0
70
128
71
3
72
5
73
1
0
SEQEND
8
OBJECT__105
0
POLYLINE
8
OBJECT__106
66
1
70
64
71
8
72
6
62
253
0
VERTEX
8
OBJECT__106
10
20.738001
20
-21.436001
30
58.966000
70
192
0
VERTEX
8
OBJECT__106
10
16.226000
20
-25.947001
30
57.235001
70
192
0
VERTEX
8
OBJECT__106
10
16.226000
20
-25.947001
30
55.266998
70
192
0
VERTEX
8
OBJECT__106
10
21.436001
20
-20.738001
30
58.966000
70
192
0
VERTEX
8
OBJECT__106
10
21.455999
20
-20.718000
30
52.966000
70
192
0
VERTEX
8
OBJECT__106
10
25.947001
20
-16.226000
30
55.266998
70
192
0
VERTEX
8
OBJECT__106
10
20.718000
20
-21.455999
30
52.966000
70
192
0
VERTEX
8
OBJECT__106
10
25.947001
20
-16.226000
30
57.235001
70
192
0
VERTEX
8
OBJECT__106
10
0
20
0
30
0
70
128
71
1
72
2
73
3
0
VERTEX
8
OBJECT__106
10
0
20
0
30
0
70
128
71
4
72
5
73
6
0
VERTEX
8
OBJECT__106
10
0
20
0
30
0
70
128
71
7
72
4
73
1
0
VERTEX
8
OBJECT__106
10
0
20
0
30
0
70
128
71
4
72
7
73
5
0
VERTEX
8
OBJECT__106
10
0
20
0
30
0
70
128
71
6
72
8
73
4
0
VERTEX
8
OBJECT__106
10
0
20
0
30
0
70
128
71
3
72
7
73
1
0
SEQEND
8
OBJECT__106
0
POLYLINE
8
OBJECT__107
66
1
70
64
71
4
72
2
62
253
0
VERTEX
8
OBJECT__107
10
14.358000
20
-27.025999
30
55.266998
70
192
0
VERTEX
8
OBJECT__107
10
16.226000
20
-25.947001
30
55.266998
70
192
0
VERTEX
8
OBJECT__107
10
16.226000
20
-25.947001
30
57.235001
70
192
0
VERTEX
8
OBJECT__107
10
14.358000
20
-27.025999
30
57.235001
70
192
0
VERTEX
8
OBJECT__107
10
0
20
0
30
0
70
128
71
1
72
2
73
3
0
VERTEX
8
OBJECT__107
10
0
20
0
30
0
70
128
71
3
72
4
73
1
0
SEQEND
8
OBJECT__107
0
POLYLINE
8
OBJECT__108
66
1
70
64
71
5
72
3
62
253
0
VERTEX
8
OBJECT__108
10
13.663000
20
-23.665001
30
50.706001
70
192
0
VERTEX
8
OBJECT__108
10
16.226000
20
-25.947001
30
55.266998
70
192
0
VERTEX
8
OBJECT__108
10
14.358000
20
-27.025999
30
55.266998
70
192
0
VERTEX
8
OBJECT__108
10
20.718000
20
-21.455999
30
52.966000
70
192
0
VERTEX
8
OBJECT__108
10
8.222000
20
-28.670000
30
52.966000
70
192
0
VERTEX
8
OBJECT__108
10
0
20
0
30
0
70
128
71
1
72
2
73
3
0
VERTEX
8
OBJECT__108
10
0
20
0
30
0
70
128
71
1
72
4
73
2
0
VERTEX
8
OBJECT__108
10
0
20
0
30
0
70
128
71
3
72
5
73
1
0
SEQEND
8
OBJECT__108
0
POLYLINE
8
OBJECT__109
66
1
70
64
71
8
72
6
62
253
0
VERTEX
8
OBJECT__109
10
20.718000
20
-21.455999
30
52.966000
70
192
0
VERTEX
8
OBJECT__109
10
13.215000
20
-22.888000
30
50.134998
70
192
0
VERTEX
8
OBJECT__109
10
13.981000
20
-18.090000
30
48.255001
70
192
0
VERTEX
8
OBJECT__109
10
21.455999
20
-20.718000
30
52.966000
70
192
0
VERTEX
8
OBJECT__109
10
18.090000
20
-13.981000
30
48.255001
70
192
0
VERTEX
8
OBJECT__109
10
22.888000
20
-13.215000
30
50.134998
70
192
0
VERTEX
8
OBJECT__109
10
13.663000
20
-23.665001
30
50.706001
70
192
0
VERTEX
8
OBJECT__109
10
23.665001
20
-13.663000
30
50.706001
70
192
0
VERTEX
8
OBJECT__109
10
0
20
0
30
0
70
128
71
1
72
2
73
3
0
VERTEX
8
OBJECT__109
10
0
20
0
30
0
70
128
71
4
72
5
73
6
0
VERTEX
8
OBJECT__109
10
0
20
0
30
0
70
128
71
1
72
7
73
2
0
VERTEX
8
OBJECT__109
10
0
20
0
30
0
70
128
71
6
72
8
73
4
0
VERTEX
8
OBJECT__109
10
0
20
0
30
0
70
128
71
4
72
1
73
5
0
VERTEX
8
OBJECT__109
10
0
20
0
30
0
70
128
71
3
72
5
73
1
0
SEQEND
8
OBJECT__109
0
POLYLINE
8
OBJECT__110
66
1
70
64
71
3
72
1
62
253
0
VERTEX
8
OBJECT__110
10
13.215000
20
-22.888000
30
50.134998
70
192
0
VERTEX
8
OBJECT__110
10
8.675000
20
-21.153000
30
48.255001
70
192
0
VERTEX
8
OBJECT__110
10
13.981000
20
-18.090000
30
48.255001
70
192
0
VERTEX
8
OBJECT__110
10
0
20
0
30
0
70
128
71
1
72
2
73
3
0
SEQEND
8
OBJECT__110
0
POLYLINE
8
OBJECT__111
66
1
70
64
71
24
72
22
62
253
0
VERTEX
8
OBJECT__111
10
21.153000
20
-8.675000
30
48.255001
70
192
0
VERTEX
8
OBJECT__111
10
13.981000
20
-18.090000
30
48.255001
70
192
0
VERTEX
8
OBJECT__111
10
8.675000
20
-21.153000
30
48.255001
70
192
0
VERTEX
8
OBJECT__111
10
8.675000
20
21.153000
30
48.255001
70
192
0
VERTEX
8
OBJECT__111
10
-8.675000
20
21.153000
30
48.255001
70
192
0
VERTEX
8
OBJECT__111
10
-3.063000
20
22.657000
30
48.255001
70
192
0
VERTEX
8
OBJECT__111
10
-18.090000
20
13.981000
30
48.255001
70
192
0
VERTEX
8
OBJECT__111
10
-13.981000
20
18.090000
30
48.255001
70
192
0
VERTEX
8
OBJECT__111
10
-8.675000
20
-21.153000
30
48.255001
70
192
0
VERTEX
8
OBJECT__111
10
-13.981000
20
-18.090000
30
48.255001
70
192
0
VERTEX
8
OBJECT__111
10
3.063000
20
-22.657000
30
48.255001
70
192
0
VERTEX
8
OBJECT__111
10
-3.063000
20
-22.657000
30
48.255001
70
192
0
VERTEX
8
OBJECT__111
10
18.090000
20
-13.981000
30
48.255001
70
192
0
VERTEX
8
OBJECT__111
10
21.153000
20
8.675000
30
48.255001
70
192
0
VERTEX
8
OBJECT__111
10
-22.657000
20
-3.063000
30
48.255001
70
192
0
VERTEX
8
OBJECT__111
10
-22.657000
20
3.063000
30
48.255001
70
192
0
VERTEX
8
OBJECT__111
10
-18.090000
20
-13.981000
30
48.255001
70
192
0
VERTEX
8
OBJECT__111
10
-21.153000
20
-8.675000
30
48.255001
70
192
0
VERTEX
8
OBJECT__111
10
22.657000
20
3.063000
30
48.255001
70
192
0
VERTEX
8
OBJECT__111
10
13.981000
20
18.090000
30
48.255001
70
192
0
VERTEX
8
OBJECT__111
10
18.090000
20
13.981000
30
48.255001
70
192
0
VERTEX
8
OBJECT__111
10
3.063000
20
22.657000
30
48.255001
70
192
0
VERTEX
8
OBJECT__111
10
-21.153000
20
8.675000
30
48.255001
70
192
0
VERTEX
8
OBJECT__111
10
22.657000
20
-3.063000
30
48.255001
70
192
0
VERTEX
8
OBJECT__111
10
0
20
0
30
0
70
128
71
1
72
2
73
3
0
VERTEX
8
OBJECT__111
10
0
20
0
30
0
70
128
71
4
72
5
73
6
0
VERTEX
8
OBJECT__111
10
0
20
0
30
0
70
128
71
4
72
7
73
8
0
VERTEX
8
OBJECT__111
10
0
20
0
30
0
70
128
71
1
72
9
73
10
0
VERTEX
8
OBJECT__111
10
0
20
0
30
0
70
128
71
1
72
11
73
12
0
VERTEX
8
OBJECT__111
10
0
20
0
30
0
70
128
71
1
72
13
73
2
0
VERTEX
8
OBJECT__111
10
0
20
0
30
0
70
128
71
8
72
5
73
4
0
VERTEX
8
OBJECT__111
10
0
20
0
30
0
70
128
71
14
72
15
73
16
0
VERTEX
8
OBJECT__111
10
0
20
0
30
0
70
128
71
10
72
17
73
1
0
VERTEX
8
OBJECT__111
10
0
20
0
30
0
70
128
71
3
72
11
73
1
0
VERTEX
8
OBJECT__111
10
0
20
0
30
0
70
128
71
18
72
14
73
19
0
VERTEX
8
OBJECT__111
10
0
20
0
30
0
70
128
71
7
72
20
73
21
0
VERTEX
8
OBJECT__111
10
0
20
0
30
0
70
128
71
6
72
22
73
4
0
VERTEX
8
OBJECT__111
10
0
20
0
30
0
70
128
71
16
72
23
73
14
0
VERTEX
8
OBJECT__111
10
0
20
0
30
0
70
128
71
12
72
9
73
1
0
VERTEX
8
OBJECT__111
10
0
20
0
30
0
70
128
71
19
72
24
73
18
0
VERTEX
8
OBJECT__111
10
0
20
0
30
0
70
128
71
4
72
20
73
7
0
VERTEX
8
OBJECT__111
10
0
20
0
30
0
70
128
71
14
72
18
73
15
0
VERTEX
8
OBJECT__111
10
0
20
0
30
0
70
128
71
24
72
1
73
18
0
VERTEX
8
OBJECT__111
10
0
20
0
30
0
70
128
71
23
72
7
73
14
0
VERTEX
8
OBJECT__111
10
0
20
0
30
0
70
128
71
21
72
14
73
7
0
VERTEX
8
OBJECT__111
10
0
20
0
30
0
70
128
71
17
72
18
73
1
0
SEQEND
8
OBJECT__111
0
POLYLINE
8
OBJECT__112
66
1
70
64
71
3
72
1
62
253
0
VERTEX
8
OBJECT__112
10
-3.063000
20
-22.657000
30
48.255001
70
192
0
VERTEX
8
OBJECT__112
10
3.063000
20
-22.657000
30
48.255001
70
192
0
VERTEX
8
OBJECT__112
10
0.000000
20
-26.429001
30
50.134998
70
192
0
VERTEX
8
OBJECT__112
10
0
20
0
30
0
70
128
71
1
72
2
73
3
0
SEQEND
8
OBJECT__112
0
POLYLINE
8
OBJECT__113
66
1
70
64
71
8
72
6
62
253
0
VERTEX
8
OBJECT__113
10
7.214000
20
-28.940001
30
52.966000
70
192
0
VERTEX
8
OBJECT__113
10
0.000000
20
-27.326000
30
50.706001
70
192
0
VERTEX
8
OBJECT__113
10
0.000000
20
-26.429001
30
50.134998
70
192
0
VERTEX
8
OBJECT__113
10
8.222000
20
-28.670000
30
52.966000
70
192
0
VERTEX
8
OBJECT__113
10
3.063000
20
-22.657000
30
48.255001
70
192
0
VERTEX
8
OBJECT__113
10
8.675000
20
-21.153000
30
48.255001
70
192
0
VERTEX
8
OBJECT__113
10
13.215000
20
-22.888000
30
50.134998
70
192
0
VERTEX
8
OBJECT__113
10
13.663000
20
-23.665001
30
50.706001
70
192
0
VERTEX
8
OBJECT__113
10
0
20
0
30
0
70
128
71
1
72
2
73
3
0
VERTEX
8
OBJECT__113
10
0
20
0
30
0
70
128
71
4
72
5
73
6
0
VERTEX
8
OBJECT__113
10
0
20
0
30
0
70
128
71
5
72
4
73
1
0
VERTEX
8
OBJECT__113
10
0
20
0
30
0
70
128
71
6
72
7
73
4
0
VERTEX
8
OBJECT__113
10
0
20
0
30
0
70
128
71
7
72
8
73
4
0
VERTEX
8
OBJECT__113
10
0
20
0
30
0
70
128
71
3
72
5
73
1
0
SEQEND
8
OBJECT__113
0
POLYLINE
8
OBJECT__114
66
1
70
64
71
8
72
6
62
253
0
VERTEX
8
OBJECT__114
10
-8.222000
20
-28.670000
30
52.966000
70
192
0
VERTEX
8
OBJECT__114
10
-13.663000
20
-23.665001
30
50.706001
70
192
0
VERTEX
8
OBJECT__114
10
-13.215000
20
-22.888000
30
50.134998
70
192
0
VERTEX
8
OBJECT__114
10
-7.214000
20
-28.940001
30
52.966000
70
192
0
VERTEX
8
OBJECT__114
10
-8.675000
20
-21.153000
30
48.255001
70
192
0
VERTEX
8
OBJECT__114
10
-3.063000
20
-22.657000
30
48.255001
70
192
0
VERTEX
8
OBJECT__114
10
0.000000
20
-26.429001
30
50.134998
70
192
0
VERTEX
8
OBJECT__114
10
0.000000
20
-27.326000
30
50.706001
70
192
0
VERTEX
8
OBJECT__114
10
0
20
0
30
0
70
128
71
1
72
2
73
3
0
VERTEX
8
OBJECT__114
10
0
20
0
30
0
70
128
71
4
72
5
73
6
0
VERTEX
8
OBJECT__114
10
0
20
0
30
0
70
128
71
5
72
4
73
1
0
VERTEX
8
OBJECT__114
10
0
20
0
30
0
70
128
71
6
72
7
73
4
0
VERTEX
8
OBJECT__114
10
0
20
0
30
0
70
128
71
7
72
8
73
4
0
VERTEX
8
OBJECT__114
10
0
20
0
30
0
70
128
71
3
72
5
73
1
0
SEQEND
8
OBJECT__114
0
POLYLINE
8
OBJECT__115
66
1
70
64
71
8
72
6
62
253
0
VERTEX
8
OBJECT__115
10
7.242000
20
-28.933001
30
58.966000
70
192
0
VERTEX
8
OBJECT__115
10
1.079000
20
-30.584000
30
57.235001
70
192
0
VERTEX
8
OBJECT__115
10
1.079000
20
-30.584000
30
55.266998
70
192
0
VERTEX
8
OBJECT__115
10
8.195000
20
-28.677000
30
58.966000
70
192
0
VERTEX
8
OBJECT__115
10
8.222000
20
-28.670000
30
52.966000
70
192
0
VERTEX
8
OBJECT__115
10
14.358000
20
-27.025999
30
55.266998
70
192
0
VERTEX
8
OBJECT__115
10
7.214000
20
-28.940001
30
52.966000
70
192
0
VERTEX
8
OBJECT__115
10
14.358000
20
-27.025999
30
57.235001
70
192
0
VERTEX
8
OBJECT__115
10
0
20
0
30
0
70
128
71
1
72
2
73
3
0
VERTEX
8
OBJECT__115
10
0
20
0
30
0
70
128
71
4
72
5
73
6
0
VERTEX
8
OBJECT__115
10
0
20
0
30
0
70
128
71
7
72
4
73
1
0
VERTEX
8
OBJECT__115
10
0
20
0
30
0
70
128
71
4
72
7
73
5
0
VERTEX
8
OBJECT__115
10
0
20
0
30
0
70
128
71
6
72
8
73
4
0
VERTEX
8
OBJECT__115
10
0
20
0
30
0
70
128
71
3
72
7
73
1
0
SEQEND
8
OBJECT__115
0
POLYLINE
8
OBJECT__116
66
1
70
64
71
8
72
6
62
253
0
VERTEX
8
OBJECT__116
10
-8.195000
20
-28.677000
30
58.966000
70
192
0
VERTEX
8
OBJECT__116
10
-14.358000
20
-27.025999
30
57.235001
70
192
0
VERTEX
8
OBJECT__116
10
-14.358000
20
-27.025999
30
55.266998
70
192
0
VERTEX
8
OBJECT__116
10
-7.242000
20
-28.933001
30
58.966000
70
192
0
VERTEX
8
OBJECT__116
10
-7.214000
20
-28.940001
30
52.966000
70
192
0
VERTEX
8
OBJECT__116
10
-1.079000
20
-30.584000
30
55.266998
70
192
0
VERTEX
8
OBJECT__116
10
-8.222000
20
-28.670000
30
52.966000
70
192
0
VERTEX
8
OBJECT__116
10
-1.079000
20
-30.584000
30
57.235001
70
192
0
VERTEX
8
OBJECT__116
10
0
20
0
30
0
70
128
71
1
72
2
73
3
0
VERTEX
8
OBJECT__116
10
0
20
0
30
0
70
128
71
4
72
5
73
6
0
VERTEX
8
OBJECT__116
10
0
20
0
30
0
70
128
71
3
72
7
73
1
0
VERTEX
8
OBJECT__116
10
0
20
0
30
0
70
128
71
6
72
8
73
4
0
VERTEX
8
OBJECT__116
10
0
20
0
30
0
70
128
71
4
72
1
73
5
0
VERTEX
8
OBJECT__116
10
0
20
0
30
0
70
128
71
7
72
5
73
1
0
SEQEND
8
OBJECT__116
0
POLYLINE
8
OBJECT__117
66
1
70
64
71
5
72
3
62
253
0
VERTEX
8
OBJECT__117
10
0.000000
20
-27.128000
30
60.856998
70
192
0
VERTEX
8
OBJECT__117
10
-7.242000
20
-28.933001
30
58.966000
70
192
0
VERTEX
8
OBJECT__117
10
-1.079000
20
-30.584000
30
57.235001
70
192
0
VERTEX
8
OBJECT__117
10
1.079000
20
-30.584000
30
57.235001
70
192
0
VERTEX
8
OBJECT__117
10
7.242000
20
-28.933001
30
58.966000
70
192
0
VERTEX
8
OBJECT__117
10
0
20
0
30
0
70
128
71
1
72
2
73
3
0
VERTEX
8
OBJECT__117
10
0
20
0
30
0
70
128
71
3
72
4
73
1
0
VERTEX
8
OBJECT__117
10
0
20
0
30
0
70
128
71
4
72
5
73
1
0
SEQEND
8
OBJECT__117
0
POLYLINE
8
OBJECT__118
66
1
70
64
71
5
72
3
62
253
0
VERTEX
8
OBJECT__118
10
0.000000
20
-27.326000
30
50.706001
70
192
0
VERTEX
8
OBJECT__118
10
7.214000
20
-28.940001
30
52.966000
70
192
0
VERTEX
8
OBJECT__118
10
1.079000
20
-30.584000
30
55.266998
70
192
0
VERTEX
8
OBJECT__118
10
-1.079000
20
-30.584000
30
55.266998
70
192
0
VERTEX
8
OBJECT__118
10
-7.214000
20
-28.940001
30
52.966000
70
192
0
VERTEX
8
OBJECT__118
10
0
20
0
30
0
70
128
71
1
72
2
73
3
0
VERTEX
8
OBJECT__118
10
0
20
0
30
0
70
128
71
3
72
4
73
1
0
VERTEX
8
OBJECT__118
10
0
20
0
30
0
70
128
71
4
72
5
73
1
0
SEQEND
8
OBJECT__118
0
POLYLINE
8
OBJECT__119
66
1
70
64
71
4
72
2
62
253
0
VERTEX
8
OBJECT__119
10
-1.079000
20
-30.584000
30
55.266998
70
192
0
VERTEX
8
OBJECT__119
10
1.079000
20
-30.584000
30
55.266998
70
192
0
VERTEX
8
OBJECT__119
10
1.079000
20
-30.584000
30
57.235001
70
192
0
VERTEX
8
OBJECT__119
10
-1.079000
20
-30.584000
30
57.235001
70
192
0
VERTEX
8
OBJECT__119
10
0
20
0
30
0
70
128
71
1
72
2
73
3
0
VERTEX
8
OBJECT__119
10
0
20
0
30
0
70
128
71
3
72
4
73
1
0
SEQEND
8
OBJECT__119
0
ENDSEC
0
EOF
