  0
SECTION
  2
HEADER
  9
$ACADVER
  1
AC1015
  9
$ACADMAINTVER
 70
     6
  9
$DWGCODEPAGE
  3
ANSI_1252
  9
$INSBASE
 10
0.0
 20
0.0
 30
0.0
  9
$EXTMIN
 10
0.0
 20
0.0
 30
0.0
  9
$EXTMAX
 10
3000.0
 20
4500.0
 30
0.0
  9
$LIMMIN
 10
0.0
 20
0.0
  9
$LIMMAX
 10
3000.0
 20
4500.0
  9
$ORTHOMODE
 70
     0
  9
$REGENMODE
 70
     1
  9
$FILLMODE
 70
     1
  9
$QTEXTMODE
 70
     0
  9
$MIRRTEXT
 70
     1
  9
$LTSCALE
 40
1.0
  9
$ATTMODE
 70
     1
  9
$TEXTSIZE
 40
2.5
  9
$TRACEWID
 40
1.0
  9
$TEXTSTYLE
  7
Standard
  9
$CLAYER
  8
0
  9
$CELTYPE
  6
ByLayer
  9
$CECOLOR
 62
   256
  9
$CELTSCALE
 40
1.0
  9
$DISPSILH
 70
     0
  9
$DIMSCALE
 40
1.0
  9
$DIMASZ
 40
2.5
  9
$DIMEXO
 40
0.625
  9
$DIMDLI
 40
3.75
  9
$DIMRND
 40
0.0
  9
$DIMDLE
 40
0.0
  9
$DIMEXE
 40
1.25
  9
$DIMTP
 40
0.0
  9
$DIMTM
 40
0.0
  9
$DIMTXT
 40
2.5
  9
$DIMCEN
 40
2.5
  9
$DIMTSZ
 40
0.0
  9
$DIMTOL
 70
     0
  9
$DIMLIM
 70
     0
  9
$DIMTIH
 70
     0
  9
$DIMTOH
 70
     0
  9
$DIMSE1
 70
     0
  9
$DIMSE2
 70
     0
  9
$DIMTAD
 70
     1
  9
$DIMZIN
 70
     8
  9
$DIMBLK
  1

  9
$DIMASO
 70
     1
  9
$DIMSHO
 70
     1
  9
$DIMPOST
  1

  9
$DIMAPOST
  1

  9
$DIMALT
 70
     0
  9
$DIMALTD
 70
     3
  9
$DIMALTF
 40
0.0393700787
  9
$DIMLFAC
 40
1.0
  9
$DIMTOFL
 70
     1
  9
$DIMTVP
 40
0.0
  9
$DIMTIX
 70
     0
  9
$DIMSOXD
 70
     0
  9
$DIMSAH
 70
     0
  9
$DIMBLK1
  1

  9
$DIMBLK2
  1

  9
$DIMSTYLE
  2
ISO-25
  9
$DIMCLRD
 70
     0
  9
$DIMCLRE
 70
     0
  9
$DIMCLRT
 70
     0
  9
$DIMTFAC
 40
1.0
  9
$DIMGAP
 40
0.625
  9
$DIMJUST
 70
     0
  9
$DIMSD1
 70
     0
  9
$DIMSD2
 70
     0
  9
$DIMTOLJ
 70
     0
  9
$DIMTZIN
 70
     8
  9
$DIMALTZ
 70
     0
  9
$DIMALTTZ
 70
     0
  9
$DIMUPT
 70
     0
  9
$DIMDEC
 70
     2
  9
$DIMTDEC
 70
     2
  9
$DIMALTU
 70
     2
  9
$DIMALTTD
 70
     3
  9
$DIMTXSTY
  7
Standard
  9
$DIMAUNIT
 70
     0
  9
$DIMADEC
 70
     0
  9
$DIMALTRND
 40
0.0
  9
$DIMAZIN
 70
     0
  9
$DIMDSEP
 70
    44
  9
$DIMATFIT
 70
     3
  9
$DIMFRAC
 70
     0
  9
$DIMLDRBLK
  1

  9
$DIMLUNIT
 70
     2
  9
$DIMLWD
 70
    -2
  9
$DIMLWE
 70
    -2
  9
$DIMTMOVE
 70
     0
  9
$LUNITS
 70
     2
  9
$LUPREC
 70
     4
  9
$SKETCHINC
 40
1.0
  9
$FILLETRAD
 40
10.0
  9
$AUNITS
 70
     0
  9
$AUPREC
 70
     0
  9
$MENU
  1
.
  9
$ELEVATION
 40
0.0
  9
$PELEVATION
 40
0.0
  9
$THICKNESS
 40
0.0
  9
$LIMCHECK
 70
     0
  9
$CHAMFERA
 40
10.0
  9
$CHAMFERB
 40
10.0
  9
$CHAMFERC
 40
20.0
  9
$CHAMFERD
 40
0.0
  9
$SKPOLY
 70
     0
  9
$TDCREATE
 40
2456464.453018345
  9
$TDUCREATE
 40
2456464.369685011
  9
$TDUPDATE
 40
2456464.453018357
  9
$TDUUPDATE
 40
2456464.369685023
  9
$TDINDWG
 40
0.0000000116
  9
$TDUSRTIMER
 40
0.0000000116
  9
$USRTIMER
 70
     1
  9
$ANGBASE
 50
0.0
  9
$ANGDIR
 70
     0
  9
$PDMODE
 70
     0
  9
$PDSIZE
 40
0.0
  9
$PLINEWID
 40
0.0
  9
$SPLFRAME
 70
     0
  9
$SPLINETYPE
 70
     6
  9
$SPLINESEGS
 70
     8
  9
$HANDSEED
  5
414
  9
$SURFTAB1
 70
     6
  9
$SURFTAB2
 70
     6
  9
$SURFTYPE
 70
     6
  9
$SURFU
 70
     6
  9
$SURFV
 70
     6
  9
$UCSBASE
  2

  9
$UCSNAME
  2

  9
$UCSORG
 10
0.0
 20
0.0
 30
0.0
  9
$UCSXDIR
 10
1.0
 20
0.0
 30
0.0
  9
$UCSYDIR
 10
0.0
 20
1.0
 30
0.0
  9
$UCSORTHOREF
  2

  9
$UCSORTHOVIEW
 70
     0
  9
$UCSORGTOP
 10
0.0
 20
0.0
 30
0.0
  9
$UCSORGBOTTOM
 10
0.0
 20
0.0
 30
0.0
  9
$UCSORGLEFT
 10
0.0
 20
0.0
 30
0.0
  9
$UCSORGRIGHT
 10
0.0
 20
0.0
 30
0.0
  9
$UCSORGFRONT
 10
0.0
 20
0.0
 30
0.0
  9
$UCSORGBACK
 10
0.0
 20
0.0
 30
0.0
  9
$PUCSBASE
  2

  9
$PUCSNAME
  2

  9
$PUCSORG
 10
0.0
 20
0.0
 30
0.0
  9
$PUCSXDIR
 10
1.0
 20
0.0
 30
0.0
  9
$PUCSYDIR
 10
0.0
 20
1.0
 30
0.0
  9
$PUCSORTHOREF
  2

  9
$PUCSORTHOVIEW
 70
     0
  9
$PUCSORGTOP
 10
0.0
 20
0.0
 30
0.0
  9
$PUCSORGBOTTOM
 10
0.0
 20
0.0
 30
0.0
  9
$PUCSORGLEFT
 10
0.0
 20
0.0
 30
0.0
  9
$PUCSORGRIGHT
 10
0.0
 20
0.0
 30
0.0
  9
$PUCSORGFRONT
 10
0.0
 20
0.0
 30
0.0
  9
$PUCSORGBACK
 10
0.0
 20
0.0
 30
0.0
  9
$USERI1
 70
     0
  9
$USERI2
 70
     0
  9
$USERI3
 70
     0
  9
$USERI4
 70
     0
  9
$USERI5
 70
     0
  9
$USERR1
 40
0.0
  9
$USERR2
 40
0.0
  9
$USERR3
 40
0.0
  9
$USERR4
 40
0.0
  9
$USERR5
 40
0.0
  9
$WORLDVIEW
 70
     1
  9
$SHADEDGE
 70
     3
  9
$SHADEDIF
 70
    70
  9
$TILEMODE
 70
     1
  9
$MAXACTVP
 70
    64
  9
$PINSBASE
 10
0.0
 20
0.0
 30
0.0
  9
$PLIMCHECK
 70
     0
  9
$PEXTMIN
 10
0.0
 20
0.0
 30
0.0
  9
$PEXTMAX
 10
3000.0
 20
4500.0
 30
0.0
  9
$PLIMMIN
 10
0.0
 20
0.0
  9
$PLIMMAX
 10
3000.0
 20
4500.0
  9
$UNITMODE
 70
     0
  9
$VISRETAIN
 70
     1
  9
$PLINEGEN
 70
     0
  9
$PSLTSCALE
 70
     1
  9
$TREEDEPTH
 70
  3020
  9
$CMLSTYLE
  2
Standard
  9
$CMLJUST
 70
     0
  9
$CMLSCALE
 40
20.0
  9
$PROXYGRAPHICS
 70
     1
  9
$MEASUREMENT
 70
     1
  9
$CELWEIGHT
370
    -1
  9
$ENDCAPS
280
     0
  9
$JOINSTYLE
280
     0
  9
$LWDISPLAY
290
     0
  9
$INSUNITS
 70
     4
  9
$HYPERLINKBASE
  1

  9
$STYLESHEET
  1

  9
$XEDIT
290
     1
  9
$CEPSNTYPE
380
     0
  9
$PSTYLEMODE
290
     1
  9
$FINGERPRINTGUID
  2
{7C195D6E-95FA-48B0-BEE0-F178C69290D3}
  9
$VERSIONGUID
  2
{FAEB1C32-E019-11D5-929B-00C0DF256EC4}
  9
$EXTNAMES
290
     1
  9
$PSVPSCALE
 40
0.0
  9
$OLESTARTUP
290
     0
  0
ENDSEC
  0
SECTION
  2
CLASSES
  0
CLASS
  1
ACDBDICTIONARYWDFLT
  2
AcDbDictionaryWithDefault
  3
ObjectDBX Classes
 90
        0
280
     0
281
     0
  0
CLASS
  1
VISUALSTYLE
  2
AcDbVisualStyle
  3
ObjectDBX Classes
 90
     4095
280
     0
281
     0
  0
CLASS
  1
SCALE
  2
AcDbScale
  3
ObjectDBX Classes
 90
     1153
280
     0
281
     0
  0
CLASS
  1
DICTIONARYVAR
  2
AcDbDictionaryVar
  3
ObjectDBX Classes
 90
        0
280
     0
281
     0
  0
CLASS
  1
ACDBPLACEHOLDER
  2
AcDbPlaceHolder
  3
ObjectDBX Classes
 90
        0
280
     0
281
     0
  0
CLASS
  1
LAYOUT
  2
AcDbLayout
  3
ObjectDBX Classes
 90
        0
280
     0
281
     0
  0
ENDSEC
  0
SECTION
  2
TABLES
  0
TABLE
  2
VPORT
  5
8
330
0
100
AcDbSymbolTable
 70
     1
  0
VPORT
  5
29
330
8
100
AcDbSymbolTableRecord
100
AcDbViewportTableRecord
  2
*Active
 70
     0
 10
0.0
 20
0.0
 11
1.0
 21
1.0
 12
344.1869158879
 22
148.5
 13
0.0
 23
0.0
 14
10.0
 24
10.0
 15
10.0
 25
10.0
 16
0.0
 26
0.0
 36
1.0
 17
0.0
 27
0.0
 37
0.0
 40
297.0
 41
1.9729729729
 42
50.0
 43
0.0
 44
0.0
 50
0.0
 51
0.0
 71
     0
 72
   100
 73
     1
 74
     3
 75
     0
 76
     0
 77
     0
 78
     0
281
     0
 65
     1
110
0.0
120
0.0
130
0.0
111
1.0
121
0.0
131
0.0
112
0.0
122
1.0
132
0.0
 79
     0
146
0.0
  0
ENDTAB
  0
TABLE
  2
LTYPE
  5
5
330
0
100
AcDbSymbolTable
 70
     2
  0
LTYPE
  5
14
330
5
100
AcDbSymbolTableRecord
100
AcDbLinetypeTableRecord
  2
ByBlock
 70
     0
  3

 72
    65
 73
     0
 40
0.0
  0
LTYPE
  5
15
330
5
100
AcDbSymbolTableRecord
100
AcDbLinetypeTableRecord
  2
ByLayer
 70
     0
  3

 72
    65
 73
     0
 40
0.0
  0
LTYPE
  5
16
330
5
100
AcDbSymbolTableRecord
100
AcDbLinetypeTableRecord
  2
Continuous
 70
     0
  3
Solid line
 72
    65
 73
     0
 40
0.0
  0
LTYPE
  5
60
330
5
100
AcDbSymbolTableRecord
100
AcDbLinetypeTableRecord
  2
CENTER2
 70
     0
  3
Center (.5x) ___ _ ___ _ ___ _ ___ _ ___ _ ___
 72
    65
 73
     4
 40
28.575
 49
19.05
 74
     4
 75
     0
340
0
 46
0.0
 50
0.0
 44
0.0
 45
0.0
 49
-3.175
 74
     4
 75
     0
340
0
 46
0.0
 50
0.0
 44
0.0
 45
0.0
 49
3.175
 74
     4
 75
     0
340
0
 46
0.0
 50
0.0
 44
0.0
 45
0.0
 49
-3.175
 74
     4
 75
     0
340
0
 46
0.0
 50
0.0
 44
0.0
 45
0.0
  0
ENDTAB
  0
TABLE
  2
LAYER
  5
2
330
0
100
AcDbSymbolTable
 70
     5
  0
LAYER
  5
10
330
2
100
AcDbSymbolTableRecord
100
AcDbLayerTableRecord
  2
0
 70
     0
 62
     7
  6
Continuous
370
    -3
390
F
  0
LAYER
  5
5D
330
2
100
AcDbSymbolTableRecord
100
AcDbLayerTableRecord
  2
Default
 70
     0
 62
     7
  6
Continuous
370
    -3
390
F
  0
LAYER
  5
74
330
2
100
AcDbSymbolTableRecord
100
AcDbLayerTableRecord
  2
DV1_Default
 70
     0
 62
     7
  6
Continuous
370
    -3
390
F
  0
LAYER
  5
1F4
330
2
100
AcDbSymbolTableRecord
100
AcDbLayerTableRecord
  2
DV2_Default
 70
     0
 62
     7
  6
Continuous
370
    -3
390
F
  0
LAYER
  5
2E3
330
2
100
AcDbSymbolTableRecord
100
AcDbLayerTableRecord
  2
DV3_Default
 70
     0
 62
     7
  6
Continuous
370
    -3
390
F
  0
ENDTAB
  0
TABLE
  2
STYLE
  5
3
330
0
100
AcDbSymbolTable
 70
     2
  0
STYLE
  5
11
330
3
100
AcDbSymbolTableRecord
100
AcDbTextStyleTableRecord
  2
Standard
 70
     0
 40
0.0
 41
1.0
 50
0.0
 71
     0
 42
2.5
  3
txt
  4

  0
STYLE
  5
403
330
3
100
AcDbSymbolTableRecord
100
AcDbTextStyleTableRecord
  2
SEACAD_seiso_ttf
 70
     0
 40
0.0
 41
1.0
 50
0.0
 71
     0
 42
0.2
  3
seiso.ttf
  4

  0
ENDTAB
  0
TABLE
  2
VIEW
  5
6
330
0
100
AcDbSymbolTable
 70
     0
  0
ENDTAB
  0
TABLE
  2
UCS
  5
7
330
0
100
AcDbSymbolTable
 70
     0
  0
ENDTAB
  0
TABLE
  2
APPID
  5
9
330
0
100
AcDbSymbolTable
 70
     1
  0
APPID
  5
12
330
9
100
AcDbSymbolTableRecord
100
AcDbRegAppTableRecord
  2
ACAD
 70
     0
  0
ENDTAB
  0
TABLE
  2
DIMSTYLE
  5
A
330
0
100
AcDbSymbolTable
 70
     1
100
AcDbDimStyleTable
  0
DIMSTYLE
105
27
330
A
100
AcDbSymbolTableRecord
100
AcDbDimStyleTableRecord
  2
ISO-25
 70
     0
 41
2.5
 42
0.625
 43
3.75
 44
1.25
 73
     0
 74
     0
 77
     1
 78
     8
140
2.5
141
2.5
143
0.0393700787
147
0.625
171
     3
172
     1
271
     2
272
     2
274
     3
278
    44
283
     0
284
     8
340
11
  0
ENDTAB
  0
TABLE
  2
BLOCK_RECORD
  5
1
330
0
100
AcDbSymbolTable
 70
     7
  0
BLOCK_RECORD
  5
1F
330
1
100
AcDbSymbolTableRecord
100
AcDbBlockTableRecord
  2
*Model_Space
340
22
  0
BLOCK_RECORD
  5
1B
330
1
100
AcDbSymbolTableRecord
100
AcDbBlockTableRecord
  2
*Paper_Space
340
1E
  0
BLOCK_RECORD
  5
5E
330
1
100
AcDbSymbolTableRecord
100
AcDbBlockTableRecord
  2
SEANNOT_GROUP
340
0
102
{BLKREFS
331
5F
102
}
  0
BLOCK_RECORD
  5
65
330
1
100
AcDbSymbolTableRecord
100
AcDbBlockTableRecord
  2
SEANNOT_GROUP1
340
0
102
{BLKREFS
331
66
102
}
  0
BLOCK_RECORD
  5
6C
330
1
100
AcDbSymbolTableRecord
100
AcDbBlockTableRecord
  2
SEANNOT_GROUP2
340
0
102
{BLKREFS
331
6D
102
}
  0
BLOCK_RECORD
  5
72
330
1
100
AcDbSymbolTableRecord
100
AcDbBlockTableRecord
  2
SE
340
0
102
{BLKREFS
331
73
102
}
  0
BLOCK_RECORD
  5
1F2
330
1
100
AcDbSymbolTableRecord
100
AcDbBlockTableRecord
  2
SE1
340
0
102
{BLKREFS
331
1F3
102
}
  0
BLOCK_RECORD
  5
2E1
330
1
100
AcDbSymbolTableRecord
100
AcDbBlockTableRecord
  2
SE2
340
0
102
{BLKREFS
331
2E2
102
}
  0
ENDTAB
  0
ENDSEC
  0
SECTION
  2
BLOCKS
  0
BLOCK
  5
20
330
1F
100
AcDbEntity
  8
0
100
AcDbBlockBegin
  2
*Model_Space
 70
     0
 10
0.0
 20
0.0
 30
0.0
  3
*Model_Space
  1

  0
ENDBLK
  5
21
330
1F
100
AcDbEntity
  8
0
100
AcDbBlockEnd
  0
BLOCK
  5
1C
330
1B
100
AcDbEntity
 67
     1
  8
0
100
AcDbBlockBegin
  2
*Paper_Space
 70
     0
 10
0.0
 20
0.0
 30
0.0
  3
*Paper_Space
  1

  0
ENDBLK
  5
1D
330
1B
100
AcDbEntity
 67
     1
  8
0
100
AcDbBlockEnd
  0
BLOCK
  5
63
330
5E
100
AcDbEntity
  8
0
100
AcDbBlockBegin
  2
SEANNOT_GROUP
 70
     0
 10
0.0
 20
0.0
 30
0.0
  3
SEANNOT_GROUP
  1

  0
LINE
  5
61
330
5E
100
AcDbEntity
  8
Default
  6
CENTER2
 62
     7
100
AcDbLine
 10
62.1585109274
 20
164.6069893209
 30
0.0
 11
22.1585118215
 21
164.6069893209
 31
0.0
  0
LINE
  5
62
330
5E
100
AcDbEntity
  8
Default
  6
CENTER2
 62
     7
100
AcDbLine
 10
42.1585113744
 20
184.6069888739
 30
0.0
 11
42.1585113744
 21
144.6069897679
 31
0.0
  0
ENDBLK
  5
64
330
5E
100
AcDbEntity
  8
0
100
AcDbBlockEnd
  0
BLOCK
  5
69
330
65
100
AcDbEntity
  8
0
100
AcDbBlockBegin
  2
SEANNOT_GROUP1
 70
     0
 10
0.0
 20
0.0
 30
0.0
  3
SEANNOT_GROUP1
  1

  0
LINE
  5
67
330
65
100
AcDbEntity
  8
Default
  6
CENTER2
 62
     7
100
AcDbLine
 10
160.7746514854
 20
249.0745998594
 30
0.0
 11
120.7746523795
 21
249.0745998594
 31
0.0
  0
LINE
  5
68
330
65
100
AcDbEntity
  8
Default
  6
CENTER2
 62
     7
100
AcDbLine
 10
140.7746519325
 20
269.0745994123
 30
0.0
 11
140.7746519325
 21
229.0746003064
 31
0.0
  0
ENDBLK
  5
6A
330
65
100
AcDbEntity
  8
0
100
AcDbBlockEnd
  0
BLOCK
  5
70
330
6C
100
AcDbEntity
  8
0
100
AcDbBlockBegin
  2
SEANNOT_GROUP2
 70
     0
 10
0.0
 20
0.0
 30
0.0
  3
SEANNOT_GROUP2
  1

  0
LINE
  5
6E
330
6C
100
AcDbEntity
  8
Default
  6
CENTER2
 62
     7
100
AcDbLine
 10
62.1585109274
 20
249.0745998594
 30
0.0
 11
22.1585118215
 21
249.0745998594
 31
0.0
  0
LINE
  5
6F
330
6C
100
AcDbEntity
  8
Default
  6
CENTER2
 62
     7
100
AcDbLine
 10
42.1585113744
 20
269.0745994123
 30
0.0
 11
42.1585113744
 21
229.0746003064
 31
0.0
  0
ENDBLK
  5
71
330
6C
100
AcDbEntity
  8
0
100
AcDbBlockEnd
  0
BLOCK
  5
1F0
330
72
100
AcDbEntity
  8
0
100
AcDbBlockBegin
  2
SE
 70
     0
 10
0.0
 20
0.0
 30
0.0
  3
SE
  1

  0
SPLINE
  5
75
330
72
100
AcDbEntity
  8
DV1_Default
  6
Continuous
 62
     7
100
AcDbSpline
210
0.0
220
0.0
230
1.0
 70
    12
 71
     3
 72
     9
 73
     5
 74
     0
 42
0.0000001823517428
 43
0.0000000001
 40
0.0
 40
0.0
 40
0.0
 40
0.0
 40
0.3420162153260331
 40
0.9999999999999999
 40
0.9999999999999999
 40
0.9999999999999999
 40
0.9999999999999999
 10
13.73948839096898
 20
253.5727774459455
 30
0.0
 41
1.0
 10
13.73571782470648
 20
253.5774914928476
 30
0.0
 41
1.0
 10
13.72385655063192
 20
253.5910803658552
 30
0.0
 41
1.0
 10
13.71044417370834
 20
253.6042044949727
 30
0.0
 41
1.0
 10
13.70188429357413
 20
253.6126144124442
 30
0.0
 41
1.0
  0
ARC
  5
76
330
72
100
AcDbEntity
  8
DV1_Default
  6
Continuous
 62
     7
100
AcDbCircle
 10
13.5133242751
 20
253.4410903408
 30
0.0
 40
0.2549027024507242
100
AcDbArc
 50
42.2912978063
 51
55.7254637204
  0
ELLIPSE
  5
77
330
72
100
AcDbEntity
  8
DV1_Default
  6
Continuous
 62
     7
100
AcDbEllipse
 10
51.8468950111
 20
254.4892495813
 30
0.0
 11
0.2447854211819894
 21
0.05079160565835128
 31
0.0
210
0.0
220
0.0
230
1.0
 40
0.9914612142
 41
3.141590216213457
 42
3.531786225406537
  0
SPLINE
  5
78
330
72
100
AcDbEntity
  8
DV1_Default
  6
Continuous
 62
     7
100
AcDbSpline
210
0.0
220
0.0
230
1.0
 70
     8
 71
     3
 72
    13
 73
     9
 74
     0
 42
0.0000000626925782
 43
0.0000000001
 40
0.0
 40
0.0
 40
0.0
 40
0.0
 40
0.1811248377538355
 40
0.2592712190316203
 40
0.5091044600562744
 40
0.7533546977480264
 40
0.8759186220377155
 40
1.0
 40
1.0
 40
1.0
 40
1.0
 10
18.65724112422975
 20
253.6300993068614
 30
0.0
 10
18.64461551385416
 20
253.6303306579425
 30
0.0
 10
18.62654349974929
 20
253.6306499225281
 30
0.0
 10
18.59338926903012
 20
253.6332696393098
 30
0.0
 10
18.55905686558449
 20
253.6382000512274
 30
0.0
 10
18.53006134727908
 20
253.6467090625982
 30
0.0
 10
18.51279028236071
 20
253.654952415706
 30
0.0
 10
18.50668232111875
 20
253.6595859653296
 30
0.0
 10
18.50361131296012
 20
253.6618936512719
 30
0.0
  0
SPLINE
  5
79
330
72
100
AcDbEntity
  8
DV1_Default
  6
Continuous
 62
     7
100
AcDbSpline
210
0.0
220
0.0
230
1.0
 70
     8
 71
     3
 72
    21
 73
    17
 74
     0
 42
0.0000000002127561
 43
0.0000000001
 40
0.0
 40
0.0
 40
0.0
 40
0.0
 40
0.0678959810742968
 40
0.1363469094521546
 40
0.2053492177092672
 40
0.2748991724477107
 40
0.3449931257681167
 40
0.4156277966014575
 40
0.4868005837229211
 40
0.5585100736345227
 40
0.6307564879178925
 40
0.7035395281851129
 40
0.7768578344637864
 40
0.8507092201348765
 40
0.9250909412217295
 40
1.0
 40
1.0
 40
1.0
 40
1.0
 10
65.65940952381999
 20
253.630093002618
 30
0.0
 10
64.61276406222221
 20
253.6300918888859
 30
0.0
 10
62.51091716998199
 20
253.6300738893023
 30
0.0
 10
59.31833899564556
 20
253.6300521727782
 30
0.0
 10
56.08407438962796
 20
253.6300341885394
 30
0.0
 10
52.80904979208877
 20
253.6300203489222
 30
0.0
 10
49.49712991027386
 20
253.6300105626487
 30
0.0
 10
46.15159343912912
 20
253.6300048741124
 30
0.0
 10
42.7760861467484
 20
253.6300032891029
 30
0.0
 10
39.37437819687636
 20
253.6300058257014
 30
0.0
 10
35.95040266003782
 20
253.6300124737552
 30
0.0
 10
32.50825094959464
 20
253.6300232253146
 30
0.0
 10
29.05195573084362
 20
253.6300380413982
 30
0.0
 10
25.58659312277222
 20
253.6300569943386
 30
0.0
 10
22.11416585317552
 20
253.6300797262074
 30
0.0
 10
19.81225927883163
 20
253.6300981723454
 30
0.0
 10
18.65724112422975
 20
253.6300993068614
 30
0.0
  0
SPLINE
  5
7A
330
72
100
AcDbEntity
  8
DV1_Default
  6
Continuous
 62
     7
100
AcDbSpline
210
0.0
220
0.0
230
1.0
 70
     8
 71
     3
 72
    12
 73
     8
 74
     0
 42
0.0000000625000159
 43
0.0000000001
 40
0.0
 40
0.0
 40
0.0
 40
0.0
 40
0.2463369161892617
 40
0.3680094178568927
 40
0.4908980096809404
 40
0.740848576126042
 40
1.0
 40
1.0
 40
1.0
 40
1.0
 10
65.81352629021056
 20
253.6618847776574
 30
0.0
 10
65.80684946084699
 20
253.6573439526848
 30
0.0
 10
65.79687213163331
 20
253.6505254111496
 30
0.0
 10
65.77541661865729
 20
253.6433119720726
 30
0.0
 10
65.75063555442298
 20
253.6371525199879
 30
0.0
 10
65.71279908986688
 20
253.6314551712937
 30
0.0
 10
65.67741960995802
 20
253.630558016834
 30
0.0
 10
65.65940952381999
 20
253.630093002618
 30
0.0
  0
SPLINE
  5
7B
330
72
100
AcDbEntity
  8
DV1_Default
  6
Continuous
 62
     7
100
AcDbSpline
210
0.0
220
0.0
230
1.0
 70
     8
 71
     3
 72
     8
 73
     4
 74
     0
 42
0.0000015242392859
 43
0.0000000001
 40
0.0
 40
0.0
 40
0.0
 40
0.0
 40
1.0
 40
1.0
 40
1.0
 40
1.0
 10
66.15766156606834
 20
253.1771116960427
 30
0.0
 10
66.15836124046831
 20
253.1750123379218
 30
0.0
 10
66.15879269141695
 20
253.172878477983
 30
0.0
 10
66.15894799785274
 20
253.1707133147941
 30
0.0
  0
ARC
  5
7C
330
72
100
AcDbEntity
  8
DV1_Default
  6
Continuous
 62
     7
100
AcDbCircle
 10
65.8265192252
 20
253.431828066
 30
0.0
 40
0.2633979816664925
100
AcDbArc
 50
28.3863566478
 51
43.1537382547
  0
SPLINE
  5
7D
330
72
100
AcDbEntity
  8
DV1_Default
  6
Continuous
 62
     7
100
AcDbSpline
210
0.0
220
0.0
230
1.0
 70
    12
 71
     3
 72
     8
 73
     4
 74
     0
 42
0.0000000002123348
 43
0.0000000001
 40
0.0
 40
0.0
 40
0.0
 40
0.0
 40
1.0
 40
1.0
 40
1.0
 40
1.0
 10
65.70613236627126
 20
253.4396419718085
 30
0.0
 41
1.0
 10
50.15263267271278
 20
253.4394644854665
 30
0.0
 41
0.9818715868615959
 10
34.16417350797107
 20
253.4394639911351
 30
0.0
 41
0.9818715868615959
 10
18.61069255693474
 20
253.4397976012742
 30
0.0
 41
1.0
  0
SPLINE
  5
7E
330
72
100
AcDbEntity
  8
DV1_Default
  6
Continuous
 62
     7
100
AcDbSpline
210
0.0
220
0.0
230
1.0
 70
     8
 71
     3
 72
     8
 73
     4
 74
     0
 42
0.0000000015229909
 43
0.0000000001
 40
0.0
 40
0.0
 40
0.0
 40
0.0
 40
1.0
 40
1.0
 40
1.0
 40
1.0
 10
11.16724632206363
 20
252.120296727779
 30
0.0
 10
13.33397745200784
 20
252.120724235342
 30
0.0
 10
15.52451441734322
 20
252.1205705878537
 30
0.0
 10
17.73327378741021
 20
252.1203843454273
 30
0.0
  0
SPLINE
  5
7F
330
72
100
AcDbEntity
  8
DV1_Default
  6
Continuous
 62
     7
100
AcDbSpline
210
0.0
220
0.0
230
1.0
 70
     8
 71
     3
 72
     8
 73
     4
 74
     0
 42
0.0000000015228197
 43
0.0000000001
 40
0.0
 40
0.0
 40
0.0
 40
0.0
 40
1.0
 40
1.0
 40
1.0
 40
1.0
 10
66.58374763812303
 20
252.1203157663056
 30
0.0
 10
68.79247228649345
 20
252.1205733855192
 30
0.0
 10
70.98301299657999
 20
252.1207271975554
 30
0.0
 10
73.15051309686103
 20
252.1203139976151
 30
0.0
  0
ARC
  5
80
330
72
100
AcDbEntity
  8
DV1_Default
  6
Continuous
 62
     7
100
AcDbCircle
 10
66.6093346538
 20
252.7685863384
 30
0.0
 40
0.6487753308979654
100
AcDbArc
 50
183.1357708391
 51
267.7397286019
  0
ARC
  5
81
330
72
100
AcDbEntity
  8
DV1_Default
  6
Continuous
 62
     7
100
AcDbCircle
 10
17.7090837782
 20
252.7665904796
 30
0.0
 40
0.6466587387403732
100
AcDbArc
 50
272.1438029011
 51
357.0308595086
  0
LINE
  5
82
330
72
100
AcDbEntity
  8
DV1_Default
  6
Continuous
 62
     7
100
AcDbLine
 10
11.2551769878
 20
252.352825311
 30
0.0
 11
17.8031420682
 21
252.3528363956
 31
0.0
  0
SPLINE
  5
83
330
72
100
AcDbEntity
  8
DV1_Default
  6
Continuous
 62
     7
100
AcDbSpline
210
0.0
220
0.0
230
1.0
 70
     8
 71
     3
 72
     8
 73
     4
 74
     0
 42
0.0000013866830822
 43
0.0000000001
 40
0.0
 40
0.0
 40
0.0
 40
0.0
 40
1.0
 40
1.0
 40
1.0
 40
1.0
 10
11.24806134022355
 20
252.351916130552
 30
0.0
 10
11.2504126808322
 20
252.352519199589
 30
0.0
 10
11.25278590100579
 20
252.3528256183757
 30
0.0
 10
11.25517698783409
 20
252.3528253109995
 30
0.0
  0
SPLINE
  5
84
330
72
100
AcDbEntity
  8
DV1_Default
  6
Continuous
 62
     7
100
AcDbSpline
210
0.0
220
0.0
230
1.0
 70
     8
 71
     3
 72
     9
 73
     5
 74
     0
 42
0.0000001888658938
 43
0.0000000001
 40
0.0
 40
0.0
 40
0.0
 40
0.0
 40
0.0541486059952691
 40
1.0
 40
1.0
 40
1.0
 40
1.0
 10
11.2026044031345
 20
252.3581666055892
 30
0.0
 10
11.2035190522189
 20
252.3579859176935
 30
0.0
 10
11.22045984320796
 20
252.3547669756131
 30
0.0
 10
11.23830146499515
 20
252.3537719569937
 30
0.0
 10
11.25517698783409
 20
252.3528253109995
 30
0.0
  0
ARC
  5
85
330
72
100
AcDbEntity
  8
DV1_Default
  6
Continuous
 62
     7
100
AcDbCircle
 10
37.8317812784
 20
249.0745592969
 30
0.0
 40
31.4817812784355
100
AcDbArc
 50
175.4763944643
 51
181.8038644702
  0
ARC
  5
86
330
72
100
AcDbEntity
  8
DV1_Default
  6
Continuous
 62
     7
100
AcDbCircle
 10
6.9607615606
 20
244.7163069137
 30
0.0
 40
0.2601008386378998
100
AcDbArc
 50
212.3707755891
 51
225.0336453979
  0
SPLINE
  5
87
330
72
100
AcDbEntity
  8
DV1_Default
  6
Continuous
 62
     7
100
AcDbSpline
210
0.0
220
0.0
230
1.0
 70
    12
 71
     3
 72
     9
 73
     5
 74
     0
 42
0.0000001054478997
 43
0.0000000001
 40
0.0
 40
0.0
 40
0.0
 40
0.0
 40
0.4909347251204886
 40
0.9999999999999999
 40
0.9999999999999999
 40
0.9999999999999999
 40
0.9999999999999999
 10
6.656800862512108
 20
244.7148930173014
 30
0.0
 41
1.0
 10
6.652252477515851
 20
244.7292346330767
 30
0.0
 41
1.0
 10
6.648504527430495
 20
244.7601951670863
 30
0.0
 41
1.0
 10
6.652316316754607
 20
244.7924438688806
 30
0.0
 41
1.0
 10
6.654756631605981
 20
244.8083863938806
 30
0.0
 41
1.0
  0
SPLINE
  5
88
330
72
100
AcDbEntity
  8
DV1_Default
  6
Continuous
 62
     7
100
AcDbSpline
210
0.0
220
0.0
230
1.0
 70
     8
 71
     3
 72
    19
 73
    15
 74
     0
 42
0.0000000001425987
 43
0.0000000001
 40
0.0
 40
0.0
 40
0.0
 40
0.0
 40
0.0437889507075196
 40
0.0906993575408353
 40
0.1407307645222783
 40
0.1938827268877078
 40
0.2501547540244208
 40
0.4185889292552599
 40
0.5000117386455557
 40
0.5814457397733265
 40
0.7498687357045217
 40
0.8419133318519444
 40
0.9252912906471745
 40
1.0
 40
1.0
 40
1.0
 40
1.0
 10
77.22192453741845
 20
244.5192300827109
 30
0.0
 10
76.2381012927519
 20
244.5192264382299
 30
0.0
 10
74.20032712599942
 20
244.5191901847792
 30
0.0
 10
70.99469049858615
 20
244.5191716266667
 30
0.0
 10
67.54381731144247
 20
244.5191761367482
 30
0.0
 10
63.84208972125214
 20
244.519205511783
 30
0.0
 10
57.33851235854738
 20
244.5193040258102
 30
0.0
 10
50.06320367005306
 20
244.5194168194668
 30
0.0
 10
42.15822471169931
 20
244.5195448481727
 30
0.0
 10
34.25350602786003
 20
244.5194167377538
 30
0.0
 10
26.12808280359538
 20
244.5192856340087
 30
0.0
 10
18.09959577376667
 20
244.5191749403314
 30
0.0
 10
12.33803447461599
 20
244.5191602517208
 30
0.0
 10
8.777635836650969
 20
244.5192151482689
 30
0.0
 10
7.0950585480185
 20
244.5192272329082
 30
0.0
  0
SPLINE
  5
89
330
72
100
AcDbEntity
  8
DV1_Default
  6
Continuous
 62
     7
100
AcDbSpline
210
0.0
220
0.0
230
1.0
 70
     8
 71
     3
 72
    13
 73
     9
 74
     0
 42
0.0000000701651539
 43
0.0000000001
 40
0.0
 40
0.0
 40
0.0
 40
0.0
 40
0.142137034390583
 40
0.2804998123562015
 40
0.4882261932759836
 40
0.739133682886365
 40
0.8660740944920443
 40
1.0
 40
1.0
 40
1.0
 40
1.0
 10
6.958260838937074
 20
244.4901813272054
 30
0.0
 10
6.961189114100701
 20
244.4926209117499
 30
0.0
 10
6.966972734835437
 20
244.4974781427924
 30
0.0
 10
6.982524848759351
 20
244.5047878276004
 30
0.0
 10
7.007592332979019
 20
244.5120415299671
 30
0.0
 10
7.039006185467926
 20
244.5166109203316
 30
0.0
 10
7.069697086863648
 20
244.5187683882243
 30
0.0
 10
7.086454510462657
 20
244.5190661206085
 30
0.0
 10
7.0950585480185
 20
244.5192272329082
 30
0.0
  0
SPLINE
  5
8A
330
72
100
AcDbEntity
  8
DV1_Default
  6
Continuous
 62
     7
100
AcDbSpline
210
0.0
220
0.0
230
1.0
 70
     8
 71
     3
 72
    12
 73
     8
 74
     0
 42
0.0000000701141665
 43
0.0000000001
 40
0.0
 40
0.0
 40
0.0
 40
0.0
 40
0.2006589421909379
 40
0.3927783618105555
 40
0.6795997189644173
 40
0.8292860820826747
 40
1.0
 40
1.0
 40
1.0
 40
1.0
 10
77.35875368117806
 20
244.4901613001871
 30
0.0
 10
77.35428086676247
 20
244.4936161181385
 30
0.0
 10
77.34553515421658
 20
244.5002936727844
 30
0.0
 10
77.32036695149554
 20
244.5095733908851
 30
0.0
 10
77.28910109634501
 20
244.5155924750752
 30
0.0
 10
77.25328099110787
 20
244.5185344131776
 30
0.0
 10
77.23282317464245
 20
244.5189973054163
 30
0.0
 10
77.22192453741845
 20
244.5192300827109
 30
0.0
  0
ARC
  5
8B
330
72
100
AcDbEntity
  8
DV1_Default
  6
Continuous
 62
     7
100
AcDbCircle
 10
24.7940537787
 20
249.2738132389
 30
0.0
 40
27.3791887405854
100
AcDbArc
 50
348.2760894647
 51
348.3838722336
  0
ELLIPSE
  5
8C
330
72
100
AcDbEntity
  8
DV1_Default
  6
Continuous
 62
     7
100
AcDbEllipse
 10
51.8468460569
 20
243.6596793461
 30
0.0
 11
-0.2447854735734331
 21
0.05079431520681795
 31
0.0
210
0.0
220
0.0
230
1.0
 40
0.9914705431
 41
5.903637360664039
 42
6.283185307179586
  0
SPLINE
  5
8D
330
72
100
AcDbEntity
  8
DV1_Default
  6
Continuous
 62
     7
100
AcDbSpline
210
0.0
220
0.0
230
1.0
 70
    12
 71
     3
 72
    10
 73
     6
 74
     0
 42
0.0000006897828734
 43
0.0000000001
 40
0.0
 40
0.0
 40
0.0
 40
0.0
 40
0.221594871142349
 40
0.9081205981547196
 40
1.0
 40
1.0
 40
1.0
 40
1.0
 10
51.5948657656905
 20
243.6982099432309
 30
0.0
 41
1.183929618628994
 10
51.59574005287502
 20
243.6991291781149
 30
0.0
 41
1.183929618628994
 10
51.59901636580526
 20
243.7028873370495
 30
0.0
 41
1.183929618628994
 10
51.60122325903345
 20
243.7069760415277
 30
0.0
 41
1.183929618628994
 10
51.60198376497424
 20
243.710103700253
 30
0.0
 41
1.183929618628994
 10
51.6020605849216
 20
243.7104736689035
 30
0.0
 41
1.183929618628995
  0
ARC
  5
8E
330
72
100
AcDbEntity
  8
DV1_Default
  6
Continuous
 62
     7
100
AcDbCircle
 10
53.924264755
 20
255.6097492766
 30
0.0
 40
12.2712467734832
100
AcDbArc
 50
257.7991357147
 51
258.9472138571
  0
LINE
  5
8F
330
72
100
AcDbEntity
  8
DV1_Default
  6
Continuous
 62
     7
100
AcDbLine
 10
51.5406415904
 20
243.4222308548
 30
0.0
 11
51.5301757795
 21
243.3746004164
 31
0.0
  0
ARC
  5
90
330
72
100
AcDbEntity
  8
DV1_Default
  6
Continuous
 62
     7
100
AcDbCircle
 10
24.5011796119
 20
249.3346106514
 30
0.0
 40
27.67830809396579
100
AcDbArc
 50
347.665973406
 51
347.9706988456
  0
ARC
  5
91
330
72
100
AcDbEntity
  8
DV1_Default
  6
Continuous
 62
     7
100
AcDbCircle
 10
24.0050669069
 20
248.7088804706
 30
0.0
 40
28.18554112007669
100
AcDbArc
 50
11.7288738572
 51
12.3337505386
  0
LINE
  5
92
330
72
100
AcDbEntity
  8
DV1_Default
  6
Continuous
 62
     7
100
AcDbLine
 10
51.5561729835
 20
243.4937140937
 30
0.0
 11
51.5406415904
 21
243.4222308548
 31
0.0
  0
LINE
  5
93
330
72
100
AcDbEntity
  8
DV1_Default
  6
Continuous
 62
     7
100
AcDbLine
 10
51.5623730408
 20
243.5225068842
 30
0.0
 11
51.5561729835
 21
243.4937140937
 31
0.0
  0
LINE
  5
94
330
72
100
AcDbEntity
  8
DV1_Default
  6
Continuous
 62
     7
100
AcDbLine
 10
51.5705859823
 20
243.5608789163
 30
0.0
 11
51.5623730408
 21
243.5225068842
 31
0.0
  0
LINE
  5
95
330
72
100
AcDbEntity
  8
DV1_Default
  6
Continuous
 62
     7
100
AcDbLine
 10
51.6020772333
 20
243.7104702197
 30
0.0
 11
51.5719460584
 21
243.5660715985
 31
0.0
  0
ARC
  5
96
330
72
100
AcDbEntity
  8
DV1_Default
  6
Continuous
 62
     7
100
AcDbCircle
 10
23.4942443178
 20
249.5714618208
 30
0.0
 40
28.71261994650506
100
AcDbArc
 50
342.2777040257
 51
347.5361485966
  0
LINE
  5
97
330
72
100
AcDbEntity
  8
DV1_Default
  6
Continuous
 62
     7
100
AcDbLine
 10
50.8442522808
 20
240.8312324979
 30
0.0
 11
50.8131974519
 21
240.7344032274
 31
0.0
  0
LINE
  5
98
330
72
100
AcDbEntity
  8
DV1_Default
  6
Continuous
 62
     7
100
AcDbLine
 10
50.8131974519
 20
240.7344032274
 30
0.0
 11
50.7832228519
 21
240.6420243621
 31
0.0
  0
ARC
  5
99
330
72
100
AcDbEntity
  8
DV1_Default
  6
Continuous
 62
     7
100
AcDbCircle
 10
25.5485930764
 20
249.0745734159
 30
0.0
 40
26.60485048275312
100
AcDbArc
 50
341.9829157647
 51
348.4198589416
  0
LINE
  5
9A
330
72
100
AcDbEntity
  8
DV1_Default
  6
Continuous
 62
     7
100
AcDbLine
 10
50.8131993871
 20
257.414749057
 30
0.0
 11
50.783224217
 21
257.5071367626
 31
0.0
  0
LINE
  5
9B
330
72
100
AcDbEntity
  8
DV1_Default
  6
Continuous
 62
     7
100
AcDbLine
 10
50.8131993871
 20
257.414749057
 30
0.0
 11
50.8442513231
 21
257.3179287919
 31
0.0
  0
ARC
  5
9C
330
72
100
AcDbEntity
  8
DV1_Default
  6
Continuous
 62
     7
100
AcDbCircle
 10
23.4712109506
 20
248.5714844559
 30
0.0
 40
28.73645120324916
100
AcDbArc
 50
12.4660367317
 51
17.7201205313
  0
LINE
  5
9D
330
72
100
AcDbEntity
  8
DV1_Default
  6
Continuous
 62
     7
100
AcDbLine
 10
51.5301754506
 20
254.7745594147
 30
0.0
 11
51.5400834175
 21
254.7294779488
 31
0.0
  0
ARC
  5
9E
330
72
100
AcDbEntity
  8
DV1_Default
  6
Continuous
 62
     7
100
AcDbCircle
 10
46.4852444891
 20
249.0745622034
 30
0.0
 40
31.48175059510228
100
AcDbArc
 50
355.4766710786
 51
1.8039957735
  0
SPLINE
  5
9F
330
72
100
AcDbEntity
  8
DV1_Default
  6
Continuous
 62
     7
100
AcDbSpline
210
0.0
220
0.0
230
1.0
 70
    12
 71
     3
 72
     9
 73
     5
 74
     0
 42
0.0000001054886235
 43
0.0000000001
 40
0.0
 40
0.0
 40
0.0
 40
0.0
 40
0.4908010958268392
 40
1.0
 40
1.0
 40
1.0
 40
1.0
 10
77.66019585585407
 20
253.4342629579945
 30
0.0
 41
1.0
 10
77.66474311198756
 20
253.4199302429854
 30
0.0
 41
1.0
 10
77.66849391941547
 20
253.3889821098281
 30
0.0
 41
1.0
 10
77.66468470248094
 20
253.3567466627314
 30
0.0
 41
1.0
 10
77.66224457629464
 20
253.340806488913
 30
0.0
 41
1.0
  0
ARC
  5
A0
330
72
100
AcDbEntity
  8
DV1_Default
  6
Continuous
 62
     7
100
AcDbCircle
 10
77.3562943762
 20
253.4327876568
 30
0.0
 40
0.2600980552728046
100
AcDbArc
 50
32.3637449555
 51
45.0328312889
  0
LINE
  5
A1
330
72
100
AcDbEntity
  8
DV1_Default
  6
Continuous
 62
     7
100
AcDbLine
 10
73.0618177392
 20
252.3528280918
 30
0.0
 11
70.0846728048
 21
252.3528330772
 31
0.0
  0
SPLINE
  5
A2
330
72
100
AcDbEntity
  8
DV1_Default
  6
Continuous
 62
     7
100
AcDbSpline
210
0.0
220
0.0
230
1.0
 70
     8
 71
     3
 72
     9
 73
     5
 74
     0
 42
0.0000001884937088
 43
0.0000000001
 40
0.0
 40
0.0
 40
0.0
 40
0.0
 40
0.6375005152247005
 40
1.0
 40
1.0
 40
1.0
 40
1.0
 10
73.06181773918405
 20
252.3528280918296
 30
0.0
 10
73.07324660924625
 20
252.353260290095
 30
0.0
 10
73.09117423406724
 20
252.3539298906069
 30
0.0
 10
73.1083453738883
 20
252.3568677187384
 30
0.0
 10
73.11446089448351
 20
252.3581782193711
 30
0.0
  0
SPLINE
  5
A3
330
72
100
AcDbEntity
  8
DV1_Default
  6
Continuous
 62
     7
100
AcDbSpline
210
0.0
220
0.0
230
1.0
 70
     8
 71
     3
 72
     8
 73
     4
 74
     0
 42
0.0000013877506707
 43
0.0000000001
 40
0.0
 40
0.0
 40
0.0
 40
0.0
 40
1.0
 40
1.0
 40
1.0
 40
1.0
 10
73.06181773918405
 20
252.3528280918296
 30
0.0
 10
73.06420698507895
 20
252.352828390737
 30
0.0
 10
73.06657839156792
 20
252.3525224388521
 30
0.0
 10
73.06892808556178
 20
252.3519203895615
 30
0.0
  0
LINE
  5
A4
330
72
100
AcDbEntity
  8
DV1_Default
  6
Continuous
 62
     7
100
AcDbLine
 10
66.5138523046
 20
252.3528382308
 30
0.0
 11
73.0618177392
 21
252.3528280918
 31
0.0
  0
SPLINE
  5
A5
330
72
100
AcDbEntity
  8
DV1_Default
  6
Continuous
 62
     7
100
AcDbSpline
210
0.0
220
0.0
230
1.0
 70
    12
 71
     3
 72
     9
 73
     5
 74
     0
 42
0.000000182034702
 43
0.0000000001
 40
0.0
 40
0.0
 40
0.0
 40
0.0
 40
0.3538930133731815
 40
1.0
 40
1.0
 40
1.0
 40
1.0
 10
70.57754678498146
 20
253.5726585424844
 30
0.0
 41
1.0
 10
70.5814322335507
 20
253.5774663982144
 30
0.0
 41
1.0
 10
70.59334165705907
 20
253.5908534076893
 30
0.0
 41
1.0
 10
70.60692079106133
 20
253.6038762571674
 30
0.0
 41
1.0
 10
70.6154941161364
 20
253.6123020684262
 30
0.0
 41
1.0
  0
ELLIPSE
  5
A6
330
72
100
AcDbEntity
  8
DV1_Default
  6
Continuous
 62
     7
100
AcDbEllipse
 10
32.47014666
 20
243.6596860191
 30
0.0
 11
0.2447857605250292
 21
0.05079423225225633
 31
0.0
210
0.0
220
0.0
230
1.0
 40
0.9914681302
 41
0.0
 42
0.379514819193993
  0
SPLINE
  5
A7
330
72
100
AcDbEntity
  8
DV1_Default
  6
Continuous
 62
     7
100
AcDbSpline
210
0.0
220
0.0
230
1.0
 70
    12
 71
     3
 72
    19
 73
    15
 74
     0
 42
0.0000000358282592
 43
0.0000000001
 40
0.0
 40
0.0
 40
0.0
 40
0.0
 40
0.0056236073887728
 40
0.1024224437126663
 40
0.1992151940806794
 40
0.296033057359763
 40
0.3928062539773352
 40
0.4896008826247387
 40
0.5863496501272937
 40
0.6831298206789371
 40
0.7799660459859292
 40
0.8767532485046919
 40
0.9735415473657052
 40
1.0
 40
1.0
 40
1.0
 40
1.0
 10
32.72216316915284
 20
243.6981782924599
 30
0.0
 41
1.183922891056489
 10
32.72232084668759
 20
243.698012855495
 30
0.0
 41
1.183922891056489
 10
32.72523678980949
 20
243.6949984853676
 30
0.0
 41
1.183922891056489
 10
32.73247041763972
 20
243.6890922706991
 30
0.0
 41
1.183922891056489
 10
32.74713157317812
 20
243.6804474341375
 30
0.0
 41
1.183922891056489
 10
32.76566859314921
 20
243.6718407812196
 30
0.0
 41
1.183922891056489
 10
32.78779863520637
 20
243.6633342974249
 30
0.0
 41
1.183922891056489
 10
32.81319332555699
 20
243.6549856514977
 30
0.0
 41
1.183922891056489
 10
32.84150431263399
 20
243.6468439282828
 30
0.0
 41
1.183922891056489
 10
32.8723549624232
 20
243.6389579230431
 30
0.0
 41
1.183922891056489
 10
32.90534407194494
 20
243.6313789009396
 30
0.0
 41
1.183922891056489
 10
32.94004708367169
 20
243.624162429003
 30
0.0
 41
1.183922891056489
 10
32.96730670268391
 20
243.6190153635318
 30
0.0
 41
1.183922891056489
 10
32.98279830970246
 20
243.6162650346332
 30
0.0
 41
1.183922891056489
 10
32.98612660335907
 20
243.6156760575625
 30
0.0
 41
1.183922891056489
  0
SPLINE
  5
A8
330
72
100
AcDbEntity
  8
DV1_Default
  6
Continuous
 62
     7
100
AcDbSpline
210
0.0
220
0.0
230
1.0
 70
     8
 71
     3
 72
    10
 73
     6
 74
     0
 42
0.0000000406062505
 43
0.0000000001
 40
0.0
 40
0.0
 40
0.0
 40
0.0
 40
0.5
 40
0.5
 40
1.0
 40
1.0
 40
1.0
 40
1.0
 10
32.74518981748413
 20
243.5655219196195
 30
0.0
 10
32.74527052174861
 20
243.565813877186
 30
0.0
 10
32.76985908529102
 20
243.5706916638155
 30
0.0
 10
32.85700918260155
 20
243.5886130337013
 30
0.0
 10
32.91924003710869
 20
243.601589099003
 30
0.0
 10
32.98612660335907
 20
243.6156760575625
 30
0.0
  0
LINE
  5
A9
330
72
100
AcDbEntity
  8
DV1_Default
  6
Continuous
 62
     7
100
AcDbLine
 10
32.7147991328
 20
243.7104480611
 30
0.0
 11
32.7452040741
 21
243.5661028656
 31
0.0
  0
ARC
  5
AA
330
72
100
AcDbEntity
  8
DV1_Default
  6
Continuous
 62
     7
100
AcDbCircle
 10
59.8497846235
 20
248.8074124271
 30
0.0
 40
27.71301758670849
100
AcDbArc
 50
167.6684768181
 51
168.2750946645
  0
LINE
  5
AB
330
72
100
AcDbEntity
  8
DV1_Default
  6
Continuous
 62
     7
100
AcDbLine
 10
32.7449726245
 20
243.5654744267
 30
0.0
 11
32.7762415494
 21
243.4224694746
 31
0.0
  0
ELLIPSE
  5
AC
330
72
100
AcDbEntity
  8
DV1_Default
  6
Continuous
 62
     7
100
AcDbEllipse
 10
32.4702266239
 20
254.4898533743
 30
0.0
 11
-0.2447851064090491
 21
0.0507975179352433
 31
0.0
210
0.0
220
0.0
230
0.9999999999999998
 40
0.9914846848
 41
2.750040799859549
 42
3.141592653589793
  0
LINE
  5
AD
330
72
100
AcDbEntity
  8
DV1_Default
  6
Continuous
 62
     7
100
AcDbLine
 10
32.7761556595
 20
254.7260236224
 30
0.0
 11
32.786819581
 21
254.7745602067
 31
0.0
  0
ARC
  5
AE
330
72
100
AcDbEntity
  8
DV1_Default
  6
Continuous
 62
     7
100
AcDbCircle
 10
60.8227546907
 20
248.5776967905
 30
0.0
 40
28.71262394277649
100
AcDbArc
 50
162.2777042259
 51
167.5361462477
  0
LINE
  5
AF
330
72
100
AcDbEntity
  8
DV1_Default
  6
Continuous
 62
     7
100
AcDbLine
 10
33.4727428906
 20
257.3179272342
 30
0.0
 11
33.5037977194
 21
257.414756503
 31
0.0
  0
LINE
  5
B0
330
72
100
AcDbEntity
  8
DV1_Default
  6
Continuous
 62
     7
100
AcDbLine
 10
33.5037977194
 20
257.414756503
 30
0.0
 11
33.5337692079
 21
257.5071363774
 31
0.0
  0
ARC
  5
B1
330
72
100
AcDbEntity
  8
DV1_Default
  6
Continuous
 62
     7
100
AcDbCircle
 10
58.768402328
 20
249.0745858746
 30
0.0
 40
26.60485069948957
100
AcDbArc
 50
191.6460493036
 51
198.0159414528
  0
LINE
  5
B2
330
72
100
AcDbEntity
  8
DV1_Default
  6
Continuous
 62
     7
100
AcDbLine
 10
33.5337672841
 20
240.6420217587
 30
0.0
 11
33.5037958608
 21
240.7344104363
 31
0.0
  0
LINE
  5
B3
330
72
100
AcDbEntity
  8
DV1_Default
  6
Continuous
 62
     7
100
AcDbLine
 10
33.5037958608
 20
240.7344104363
 30
0.0
 11
33.4727431357
 21
240.8312331746
 31
0.0
  0
ARC
  5
B4
330
72
100
AcDbEntity
  8
DV1_Default
  6
Continuous
 62
     7
100
AcDbCircle
 10
60.8458402291
 20
249.5776904139
 30
0.0
 40
28.73650916037229
100
AcDbArc
 50
192.4660426718
 51
197.7201106164
  0
LINE
  5
B5
330
72
100
AcDbEntity
  8
DV1_Default
  6
Continuous
 62
     7
100
AcDbLine
 10
32.7762415494
 20
243.4224694746
 30
0.0
 11
32.7867136043
 21
243.3745768187
 31
0.0
  0
SPLINE
  5
B6
330
72
100
AcDbEntity
  8
DV1_Default
  6
Continuous
 62
     7
100
AcDbSpline
210
0.0
220
0.0
230
1.0
 70
     8
 71
     3
 72
    15
 73
    11
 74
     0
 42
0.0000000387615008
 43
0.0000000001
 40
0.0
 40
0.0
 40
0.0
 40
0.0
 40
0.1023366142784093
 40
0.1977232973818838
 40
0.34327697330138
 40
0.4950430420557133
 40
0.6203485430619672
 40
0.7462005781001427
 40
0.8584023290230117
 40
1.0
 40
1.0
 40
1.0
 40
1.0
 10
32.78681978147809
 20
243.3746000355247
 30
0.0
 10
32.78734689373277
 20
243.3745859217491
 30
0.0
 10
32.78857047496267
 20
243.3746034608312
 30
0.0
 10
32.79953252102534
 20
243.3746804078545
 30
0.0
 10
32.82104875426485
 20
243.3738042161101
 30
0.0
 10
32.8551831238392
 20
243.3759389187813
 30
0.0
 10
32.89680596399726
 20
243.375068558933
 30
0.0
 10
32.93987079663935
 20
243.3669786976583
 30
0.0
 10
32.98874006865319
 20
243.3618788109783
 30
0.0
 10
33.02397434675878
 20
243.3606891862933
 30
0.0
 10
33.04366388836395
 20
243.3600336192816
 30
0.0
  0
ARC
  5
B7
330
72
100
AcDbEntity
  8
DV1_Default
  6
Continuous
 62
     7
100
AcDbCircle
 10
34.2493308129
 20
241.6602076218
 30
0.0
 40
1.233353002720987
100
AcDbArc
 50
241.4804072237
 51
255.2231349879
  0
LINE
  5
B8
330
72
100
AcDbEntity
  8
DV1_Default
  6
Continuous
 62
     7
100
AcDbLine
 10
33.914742871
 20
240.3889495132
 30
0.0
 11
33.8182639739
 21
240.4198983806
 31
0.0
  0
SPLINE
  5
B9
330
72
100
AcDbEntity
  8
DV1_Default
  6
Continuous
 62
     7
100
AcDbSpline
210
0.0
220
0.0
230
1.0
 70
     8
 71
     3
 72
    14
 73
    10
 74
     0
 42
0.0000000439368543
 43
0.0000000001
 40
0.0
 40
0.0
 40
0.0
 40
0.0
 40
0.2499999875629401
 40
0.3749999907799078
 40
0.4999999939968754
 40
0.6249999972138431
 40
0.7500000004308108
 40
0.8750000036477785
 40
1.0
 40
1.0
 40
1.0
 40
1.0
 10
33.81826397392317
 20
240.4198983806446
 30
0.0
 10
33.80543176118918
 20
240.4240384914551
 30
0.0
 10
33.78667858664809
 20
240.4320319264868
 30
0.0
 10
33.76153736051812
 20
240.4493592789038
 30
0.0
 10
33.74250588406719
 20
240.46625051075
 30
0.0
 10
33.72309460221241
 20
240.4873436127823
 30
0.0
 10
33.70304613571201
 20
240.5126692589467
 30
0.0
 10
33.68213805597092
 20
240.5421141103907
 30
0.0
 10
33.6676741622256
 20
240.5645087527024
 30
0.0
 10
33.66045501159944
 20
240.5765172047592
 30
0.0
  0
ARC
  5
BA
330
72
100
AcDbEntity
  8
DV1_Default
  6
Continuous
 62
     7
100
AcDbCircle
 10
33.8189703636
 20
240.7350519362
 30
0.0
 40
0.2999946172503199
100
AcDbArc
 50
225.0000036969
 51
251.9342360855
  0
LINE
  5
BB
330
72
100
AcDbEntity
  8
DV1_Default
  6
Continuous
 62
     7
100
AcDbLine
 10
33.8182639739
 20
240.4198983806
 30
0.0
 11
33.7259395097
 21
240.4498466932
 31
0.0
  0
ARC
  5
BC
330
72
100
AcDbEntity
  8
DV1_Default
  6
Continuous
 62
     7
100
AcDbCircle
 10
33.8189703636
 20
240.7350519362
 30
0.0
 40
0.2999923507078578
100
AcDbArc
 50
198.0657692481
 51
204.9357274444
  0
SPLINE
  5
BD
330
72
100
AcDbEntity
  8
DV1_Default
  6
Continuous
 62
     7
100
AcDbSpline
210
0.0
220
0.0
230
1.0
 70
     8
 71
     3
 72
     8
 73
     4
 74
     0
 42
0.0000002408542773
 43
0.0000000001
 40
0.0
 40
0.0
 40
0.0
 40
0.0
 40
1.0
 40
1.0
 40
1.0
 40
1.0
 10
33.52070982856301
 20
240.6966961450796
 30
0.0
 10
33.5132165425489
 20
240.7091868597101
 30
0.0
 10
33.50791751569046
 20
240.721635330475
 30
0.0
 10
33.50379586076965
 20
240.7344104363171
 30
0.0
  0
ARC
  5
BE
330
72
100
AcDbEntity
  8
DV1_Default
  6
Continuous
 62
     7
100
AcDbCircle
 10
33.8189769187
 20
240.7350582872
 30
0.0
 40
0.2999946172497467
100
AcDbArc
 50
225.0000024121
 51
245.077804517
  0
LINE
  5
BF
330
72
100
AcDbEntity
  8
DV1_Default
  6
Continuous
 62
     7
100
AcDbLine
 10
50.4987570298
 20
240.4199071822
 30
0.0
 11
50.5910548263
 21
240.449852192
 31
0.0
  0
LINE
  5
C0
330
72
100
AcDbEntity
  8
DV1_Default
  6
Continuous
 62
     7
100
AcDbLine
 10
50.4987570298
 20
240.4199071822
 30
0.0
 11
50.4022557789
 21
240.3889510835
 31
0.0
  0
ARC
  5
C1
330
72
100
AcDbEntity
  8
DV1_Default
  6
Continuous
 62
     7
100
AcDbCircle
 10
42.1584969217
 20
265.6222524399
 30
0.0
 40
26.54579170866946
100
AcDbArc
 50
251.9077152163
 51
288.0922956973
  0
ARC
  5
C2
330
72
100
AcDbEntity
  8
DV1_Default
  6
Continuous
 62
     7
100
AcDbCircle
 10
50.0531085776
 20
241.696886412
 30
0.0
 40
1.272539348893086
100
AcDbArc
 50
284.9895175284
 51
298.3069796094
  0
ARC
  5
C3
330
72
100
AcDbEntity
  8
DV1_Default
  6
Continuous
 62
     7
100
AcDbCircle
 10
50.4980189527
 20
240.735059196
 30
0.0
 40
0.2999945739281542
100
AcDbArc
 50
294.9123965041
 51
315.0000024124
  0
ARC
  5
C4
330
72
100
AcDbEntity
  8
DV1_Default
  6
Continuous
 62
     7
100
AcDbCircle
 10
50.498025585
 20
240.7350523724
 30
0.0
 40
0.2999922788798257
100
AcDbArc
 50
288.0657603966
 51
315.0000024136
  0
ARC
  5
C5
330
72
100
AcDbEntity
  8
DV1_Default
  6
Continuous
 62
     7
100
AcDbCircle
 10
50.498025585
 20
240.7350523724
 30
0.0
 40
0.2999945739288657
100
AcDbArc
 50
315.0000024123
 51
341.934243917
  0
ARC
  5
C6
330
72
100
AcDbEntity
  8
DV1_Default
  6
Continuous
 62
     7
100
AcDbCircle
 10
50.4980248828
 20
257.4141076557
 30
0.0
 40
0.2999930438961982
100
AcDbArc
 50
18.0657603966
 51
45.0000026588
  0
ARC
  5
C7
330
72
100
AcDbEntity
  8
DV1_Default
  6
Continuous
 62
     7
100
AcDbCircle
 10
50.4980182505
 20
257.4141012276
 30
0.0
 40
0.2999956514366505
100
AcDbArc
 50
24.912380975
 51
45.000003127
  0
ARC
  5
C8
330
72
100
AcDbEntity
  8
DV1_Default
  6
Continuous
 62
     7
100
AcDbCircle
 10
50.4980248828
 20
257.4141076557
 30
0.0
 40
0.2999935691315465
100
AcDbArc
 50
45.000002658
 51
71.9342439154
  0
LINE
  5
C9
330
72
100
AcDbEntity
  8
DV1_Default
  6
Continuous
 62
     7
100
AcDbLine
 10
33.725940343
 20
257.6993075286
 30
0.0
 11
33.8182381388
 21
257.7292525473
 31
0.0
  0
LINE
  5
CA
330
72
100
AcDbEntity
  8
DV1_Default
  6
Continuous
 62
     7
100
AcDbLine
 10
33.8182381388
 20
257.7292525473
 30
0.0
 11
33.9147393925
 21
257.7602086485
 31
0.0
  0
ARC
  5
CB
330
72
100
AcDbEntity
  8
DV1_Default
  6
Continuous
 62
     7
100
AcDbCircle
 10
42.1584982761
 20
232.5269071512
 30
0.0
 40
26.54579185078842
100
AcDbArc
 50
71.9077103215
 51
108.0922956574
  0
LINE
  5
CC
330
72
100
AcDbEntity
  8
DV1_Default
  6
Continuous
 62
     7
100
AcDbLine
 10
50.4022545267
 20
257.7602095088
 30
0.0
 11
50.4987309691
 21
257.7292614234
 31
0.0
  0
LINE
  5
CD
330
72
100
AcDbEntity
  8
DV1_Default
  6
Continuous
 62
     7
100
AcDbLine
 10
50.4987309691
 20
257.7292614234
 30
0.0
 11
50.5910540466
 21
257.6993071089
 31
0.0
  0
SPLINE
  5
CE
330
72
100
AcDbEntity
  8
DV1_Default
  6
Continuous
 62
     7
100
AcDbSpline
210
0.0
220
0.0
230
1.0
 70
     8
 71
     3
 72
    14
 73
    10
 74
     0
 42
0.0000000438549397
 43
0.0000000001
 40
0.0
 40
0.0
 40
0.0
 40
0.0
 40
0.021874503067349
 40
0.0537495198766462
 40
0.1174995534952407
 40
0.2449996207324295
 40
0.4999997552068073
 40
0.7499998870444327
 40
1.0
 40
1.0
 40
1.0
 40
1.0
 10
50.65654024571673
 20
257.5726426242952
 30
0.0
 10
50.65527451682652
 20
257.5747351308968
 30
0.0
 10
50.65216878664825
 20
257.5798540782061
 30
0.0
 10
50.64538145474043
 20
257.5906737982399
 30
0.0
 10
50.63257446140929
 20
257.6102248447453
 30
0.0
 10
50.60762943637292
 20
257.645499307992
 30
0.0
 10
50.57455652505755
 20
257.6848572650049
 30
0.0
 10
50.53657820265552
 20
257.7144877813826
 30
0.0
 10
50.51156230964304
 20
257.725121595621
 30
0.0
 10
50.49873096911054
 20
257.7292614234465
 30
0.0
  0
SPLINE
  5
CF
330
72
100
AcDbEntity
  8
DV1_Default
  6
Continuous
 62
     7
100
AcDbSpline
210
0.0
220
0.0
230
1.0
 70
     8
 71
     3
 72
     8
 73
     4
 74
     0
 42
0.0000002415338932
 43
0.0000000001
 40
0.0
 40
0.0
 40
0.0
 40
0.0
 40
0.9999999999999999
 40
0.9999999999999999
 40
0.9999999999999999
 40
0.9999999999999999
 10
50.7963450214128
 20
257.4523638373856
 30
0.0
 10
50.80380681064342
 20
257.4399065151259
 30
0.0
 10
50.80908867922093
 20
257.427490234272
 30
0.0
 10
50.81319938709218
 20
257.4147490570394
 30
0.0
  0
ARC
  5
D0
330
72
100
AcDbEntity
  8
DV1_Default
  6
Continuous
 62
     7
100
AcDbCircle
 10
50.0676763281
 20
256.488979411
 30
0.0
 40
1.233323426092989
100
AcDbArc
 50
61.4802888952
 51
75.2232409443
  0
ARC
  5
D1
330
72
100
AcDbEntity
  8
DV1_Default
  6
Continuous
 62
     7
100
AcDbCircle
 10
34.249434392
 20
256.4886856803
 30
0.0
 40
1.233636399818761
100
AcDbArc
 50
104.7785347915
 51
118.5179560615
  0
ARC
  5
D2
330
72
100
AcDbEntity
  8
DV1_Default
  6
Continuous
 62
     7
100
AcDbCircle
 10
33.8189762189
 20
257.4141005254
 30
0.0
 40
0.2999945739281505
100
AcDbArc
 50
114.9266964429
 51
135.0000024124
  0
SPLINE
  5
D3
330
72
100
AcDbEntity
  8
DV1_Default
  6
Continuous
 62
     7
100
AcDbSpline
210
0.0
220
0.0
230
1.0
 70
     8
 71
     3
 72
    14
 73
    10
 74
     0
 42
0.0000000439412793
 43
0.0000000001
 40
0.0
 40
0.0
 40
0.0
 40
0.0
 40
0.1249999917506597
 40
0.2499999956247916
 40
0.3749999994989234
 40
0.5000000033730552
 40
0.6250000072471871
 40
0.7500000111213189
 40
1.0
 40
1.0
 40
1.0
 40
1.0
 10
33.66045424430573
 20
257.5726419305531
 30
0.0
 10
33.66767329985026
 20
257.5846514465998
 30
0.0
 10
33.68213600896743
 20
257.6070467429087
 30
0.0
 10
33.70304098775114
 20
257.6364910055216
 30
0.0
 10
33.72308582155919
 20
257.6618154947738
 30
0.0
 10
33.74249328377832
 20
257.6829071515436
 30
0.0
 10
33.76152089515148
 20
257.6997966602493
 30
0.0
 10
33.78665711781749
 20
257.7171213846443
 30
0.0
 10
33.80540698657711
 20
257.7251127660349
 30
0.0
 10
33.81823813882491
 20
257.7292525473172
 30
0.0
  0
ARC
  5
D4
330
72
100
AcDbEntity
  8
DV1_Default
  6
Continuous
 62
     7
100
AcDbCircle
 10
33.8189695995
 20
257.4141069535
 30
0.0
 40
0.2999945739288546
100
AcDbArc
 50
108.0657608942
 51
135.0000024123
  0
ARC
  5
D5
330
72
100
AcDbEntity
  8
DV1_Default
  6
Continuous
 62
     7
100
AcDbCircle
 10
33.8189695995
 20
257.4141069535
 30
0.0
 40
0.2999945739288485
100
AcDbArc
 50
135.0000024123
 51
161.9342444387
  0
SPLINE
  5
D6
330
72
100
AcDbEntity
  8
DV1_Default
  6
Continuous
 62
     7
100
AcDbSpline
210
0.0
220
0.0
230
1.0
 70
     8
 71
     3
 72
    14
 73
    10
 74
     0
 42
0.0000000439297781
 43
0.0000000001
 40
0.0
 40
0.0
 40
0.0
 40
0.0
 40
0.1250001068398382
 40
0.2500000916315642
 40
0.3750000764232903
 40
0.5000000612150164
 40
0.6250000460067424
 40
0.7500000307984684
 40
1.0
 40
1.0
 40
1.0
 40
1.0
 10
50.65654096304942
 20
240.5765178339172
 30
0.0
 10
50.64932264336196
 20
240.5644952612494
 30
0.0
 10
50.6348752020705
 20
240.5420738848197
 30
0.0
 10
50.61402300620465
 20
240.512610812727
 30
0.0
 10
50.59404306394511
 20
240.4872936845966
 30
0.0
 10
50.57469392502656
 20
240.4662307192758
 30
0.0
 10
50.55570086861781
 20
240.4493785208689
 30
0.0
 10
50.53055690279794
 20
240.4320927508743
 30
0.0
 10
50.51171801980475
 20
240.424088854591
 30
0.0
 10
50.49875702980482
 20
240.4199071822142
 30
0.0
  0
LINE
  5
D7
330
72
100
AcDbEntity
  8
DV1_Default
  6
Continuous
 62
     7
100
AcDbLine
 10
14.2329674047
 20
252.3528307257
 30
0.0
 11
11.2551769878
 21
252.352825311
 31
0.0
  0
SPLINE
  5
D8
330
72
100
AcDbEntity
  8
DV1_Default
  6
Continuous
 62
     7
100
AcDbSpline
210
0.0
220
0.0
230
1.0
 70
    12
 71
     3
 72
    12
 73
     8
 74
     0
 42
0.0000000799000188
 43
0.0000000001
 40
0.0
 40
0.0
 40
0.0
 40
0.0
 40
0.1249991131722
 40
0.2499992400058
 40
0.499999493673
 40
0.7499997473402
 40
1.0
 40
1.0
 40
1.0
 40
1.0
 10
18.26134595830432
 20
253.4992886407993
 30
0.0
 41
1.0
 10
18.25967779155941
 20
253.5045778030814
 30
0.0
 41
1.0
 10
18.25727893116942
 20
253.5151728366213
 30
0.0
 41
1.0
 10
18.25657894359464
 20
253.5355866821206
 30
0.0
 41
1.0
 10
18.26311185113733
 20
253.559456930927
 30
0.0
 41
1.0
 10
18.27896940450193
 20
253.5864630484126
 30
0.0
 41
1.0
 10
18.29211223828677
 20
253.6037352886079
 30
0.0
 41
1.0
 10
18.29845720736252
 20
253.6121661295657
 30
0.0
 41
1.0
  0
LINE
  5
D9
330
72
100
AcDbEntity
  8
DV1_Default
  6
Continuous
 62
     7
100
AcDbLine
 10
13.7410482874
 20
253.5709864178
 30
0.0
 11
13.6569238703
 21
253.6519405837
 31
0.0
  0
ARC
  5
DA
330
72
100
AcDbEntity
  8
DV1_Default
  6
Continuous
 62
     7
100
AcDbCircle
 10
12.0552568917
 20
252.1626998644
 30
0.0
 40
2.193423961741203
100
AcDbArc
 50
41.7721677548
 51
86.927944871
  0
ARC
  5
DB
330
72
100
AcDbEntity
  8
DV1_Default
  6
Continuous
 62
     7
100
AcDbCircle
 10
13.4262219128
 20
253.2904144899
 30
0.0
 40
0.4217567085093923
100
AcDbArc
 50
18.3513279951
 51
42.3191081723
  0
LINE
  5
DC
330
72
100
AcDbEntity
  8
DV1_Default
  6
Continuous
 62
     7
100
AcDbLine
 10
13.8636697849
 20
253.1781766987
 30
0.0
 11
13.8255150853
 21
253.426413221
 31
0.0
  0
ARC
  5
DD
330
72
100
AcDbEntity
  8
DV1_Default
  6
Continuous
 62
     7
100
AcDbCircle
 10
-30.9988442261
 20
248.6573973544
 30
0.0
 40
45.08978062803165
100
AcDbArc
 50
5.1137726039
 51
5.7566891775
  0
SPLINE
  5
DE
330
72
100
AcDbEntity
  8
DV1_Default
  6
Continuous
 62
     7
100
AcDbSpline
210
0.0
220
0.0
230
1.0
 70
     8
 71
     3
 72
    21
 73
    17
 74
     0
 42
0.000000000220554
 43
0.0000000001
 40
0.0
 40
0.0
 40
0.0
 40
0.0
 40
0.0644660440533733
 40
0.1371070109883582
 40
0.2097350638601363
 40
0.2823513658257299
 40
0.3549572892501205
 40
0.4275547020545083
 40
0.5001462543653329
 40
0.5727355620291175
 40
0.6453260845103916
 40
0.717920207857938
 40
0.7905194721961731
 40
0.8631248590050465
 40
0.9357370784063531
 40
1.0
 40
1.0
 40
1.0
 40
1.0
 10
64.8289490757057
 20
254.3525993004514
 30
0.0
 10
63.7757405254829
 20
254.3525963487257
 30
0.0
 10
61.88415934932576
 20
254.3525917236197
 30
0.0
 10
58.67446322304079
 20
254.3526107645805
 30
0.0
 10
55.40782496926663
 20
254.3526468244011
 30
0.0
 10
52.10293123991154
 20
254.3526979502071
 30
0.0
 10
48.79310681047001
 20
254.3527602965167
 30
0.0
 10
45.47419734066149
 20
254.3528292923874
 30
0.0
 10
42.15203930904119
 20
254.3529059033551
 30
0.0
 10
38.83000841107833
 20
254.3529689666137
 30
0.0
 10
35.51147297711483
 20
254.3530104076801
 30
0.0
 10
32.20227181857137
 20
254.3530346580058
 30
0.0
 10
28.89824142772912
 20
254.3530427898774
 30
0.0
 10
25.63273680161661
 20
254.3530368058826
 30
0.0
 10
22.42691362540011
 20
254.3530190538843
 30
0.0
 10
20.53846811529577
 20
254.3530013475542
 30
0.0
 10
19.48857798522987
 20
254.3529912285294
 30
0.0
  0
ARC
  5
DF
330
72
100
AcDbEntity
  8
DV1_Default
  6
Continuous
 62
     7
100
AcDbCircle
 10
5.7988298947
 20
248.6684613369
 30
0.0
 40
60.52772265909823
100
AcDbArc
 50
3.7930545134
 51
4.2686354893
  0
LINE
  5
E0
330
72
100
AcDbEntity
  8
DV1_Default
  6
Continuous
 62
     7
100
AcDbLine
 10
66.1577615595
 20
253.1757198621
 30
0.0
 11
66.1310294176
 21
253.409113025
 31
0.0
  0
ARC
  5
E1
330
72
100
AcDbEntity
  8
DV1_Default
  6
Continuous
 62
     7
100
AcDbCircle
 10
65.6809322029
 20
253.2804020081
 30
0.0
 40
0.4680198631261483
100
AcDbArc
 50
15.5899001696
 51
36.2804030056
  0
ARC
  5
E2
330
72
100
AcDbEntity
  8
DV1_Default
  6
Continuous
 62
     7
100
AcDbCircle
 10
17.788949698
 20
252.6861759223
 30
0.0
 40
0.3343609846531958
100
AcDbArc
 50
270.9234055878
 51
358.017270199
  0
ARC
  5
E3
330
72
100
AcDbEntity
  8
DV1_Default
  6
Continuous
 62
     7
100
AcDbCircle
 10
11.2556004846
 20
252.5737583245
 30
0.0
 40
0.2220166329035288
100
AcDbArc
 50
254.9845233488
 51
268.6756538374
  0
ARC
  5
E4
330
72
100
AcDbEntity
  8
DV1_Default
  6
Continuous
 62
     7
100
AcDbCircle
 10
25.8175910202
 20
250.3837078577
 30
0.0
 40
19.40761952361054
100
AcDbArc
 50
171.6336022629
 51
176.5163616467
  0
ARC
  5
E5
330
72
100
AcDbEntity
  8
DV1_Default
  6
Continuous
 62
     7
100
AcDbCircle
 10
35.5237556957
 20
248.8460274711
 30
0.0
 40
29.17003600393653
100
AcDbArc
 50
181.1464714139
 51
187.6924464991
  0
LINE
  5
E6
330
72
100
AcDbEntity
  8
DV1_Default
  6
Continuous
 62
     7
100
AcDbLine
 10
6.6575783319
 20
253.4366509969
 30
0.0
 11
6.6156654052
 21
253.2077505857
 31
0.0
  0
SPLINE
  5
E7
330
72
100
AcDbEntity
  8
DV1_Default
  6
Continuous
 62
     7
100
AcDbSpline
210
0.0
220
0.0
230
1.0
 70
     8
 71
     3
 72
    21
 73
    17
 74
     0
 42
0.0000000049879758
 43
0.0000000001
 40
0.0
 40
0.0
 40
0.0
 40
0.0
 40
0.1023619786071098
 40
0.2055429700499101
 40
0.2905345457734724
 40
0.3435995495066385
 40
0.3891006972043126
 40
0.4293991937159294
 40
0.4678238163022209
 40
0.5085711674825704
 40
0.5550458867254975
 40
0.609290007536496
 40
0.6724899272401708
 40
0.7716751518760413
 40
0.8883449772206365
 40
1.0
 40
1.0
 40
1.0
 40
1.0
 10
6.365357212650531
 20
250.0867415597527
 30
0.0
 10
6.365560062523292
 20
250.06145371386
 30
0.0
 10
6.366064414168031
 20
250.0163640066204
 30
0.0
 10
6.374492715931914
 20
249.9109670253058
 30
0.0
 10
6.383805968837732
 20
249.7924476677395
 30
0.0
 10
6.3913737646605
 20
249.6703468696323
 30
0.0
 10
6.39631827185936
 20
249.5538545215238
 30
0.0
 10
6.398948108360981
 20
249.4269019182984
 30
0.0
 10
6.398777572485366
 20
249.2904545705111
 30
0.0
 10
6.39585941186379
 20
249.1484083079432
 30
0.0
 10
6.390810591307271
 20
249.0019317322634
 30
0.0
 10
6.384296183422518
 20
248.85036478477
 30
0.0
 10
6.376108372186364
 20
248.6718605608848
 30
0.0
 10
6.367844421358522
 20
248.4720633218465
 30
0.0
 10
6.362272295492098
 20
248.261984709358
 30
0.0
 10
6.363745081250781
 20
248.1485091999168
 30
0.0
 10
6.364723489292421
 20
248.0836985079589
 30
0.0
  0
ARC
  5
E8
330
72
100
AcDbEntity
  8
DV1_Default
  6
Continuous
 62
     7
100
AcDbCircle
 10
8.3315786339
 20
245.8056938926
 30
0.0
 40
2.011055533194853
100
AcDbArc
 50
218.7825012275
 51
267.6165310063
  0
ARC
  5
E9
330
72
100
AcDbEntity
  8
DV1_Default
  6
Continuous
 62
     7
100
AcDbCircle
 10
7.0905804752
 20
244.8848070472
 30
0.0
 40
0.465834844586934
100
AcDbArc
 50
201.3165603158
 51
221.3829112426
  0
LINE
  5
EA
330
72
100
AcDbEntity
  8
DV1_Default
  6
Continuous
 62
     7
100
AcDbLine
 10
6.6156337787
 20
244.941624022
 30
0.0
 11
6.6575572422
 21
244.7125670347
 31
0.0
  0
LINE
  5
EB
330
72
100
AcDbEntity
  8
DV1_Default
  6
Continuous
 62
     7
100
AcDbLine
 10
8.2496000085
 20
243.79632759
 30
0.0
 11
76.0673646549
 21
243.7963304934
 31
0.0
  0
SPLINE
  5
EC
330
72
100
AcDbEntity
  8
DV1_Default
  6
Continuous
 62
     7
100
AcDbSpline
210
0.0
220
0.0
230
1.0
 70
     8
 71
     3
 72
    10
 73
     6
 74
     0
 42
0.0000000932612659
 43
0.0000000001
 40
0.0
 40
0.0
 40
0.0
 40
0.0
 40
0.4415404637190876
 40
0.8967148354070698
 40
1.0
 40
1.0
 40
1.0
 40
1.0
 10
51.5945826506231
 20
243.6961928719111
 30
0.0
 10
51.59843258848471
 20
243.7154295118488
 30
0.0
 10
51.6050364553687
 20
243.7484639932431
 30
0.0
 10
51.61928172401216
 20
243.780551808449
 30
0.0
 10
51.62622816489226
 20
243.794945028794
 30
0.0
 10
51.62746508650362
 20
243.7974902601549
 30
0.0
  0
ARC
  5
ED
330
72
100
AcDbEntity
  8
DV1_Default
  6
Continuous
 62
     7
100
AcDbCircle
 10
75.9878904061
 20
245.8022500549
 30
0.0
 40
2.006968167952475
100
AcDbArc
 50
271.9436787518
 51
321.2496276905
  0
ARC
  5
EE
330
72
100
AcDbEntity
  8
DV1_Default
  6
Continuous
 62
     7
100
AcDbCircle
 10
77.2266552973
 20
244.8847711602
 30
0.0
 40
0.4656020201601767
100
AcDbArc
 50
318.6210514366
 51
338.6678477118
  0
LINE
  5
EF
330
72
100
AcDbEntity
  8
DV1_Default
  6
Continuous
 62
     7
100
AcDbLine
 10
77.6594128959
 20
244.7124966246
 30
0.0
 11
77.7013585036
 21
244.9416064497
 31
0.0
  0
ARC
  5
F0
330
72
100
AcDbEntity
  8
DV1_Default
  6
Continuous
 62
     7
100
AcDbCircle
 10
48.7942994341
 20
249.3031945308
 30
0.0
 40
29.16897467337822
100
AcDbArc
 50
1.1464242912
 51
7.6930527209
  0
ARC
  5
F1
330
72
100
AcDbEntity
  8
DV1_Default
  6
Continuous
 62
     7
100
AcDbCircle
 10
58.498655158
 20
247.7655619146
 30
0.0
 40
19.40837657528353
100
AcDbArc
 50
351.6341838518
 51
356.5165169211
  0
LINE
  5
F2
330
72
100
AcDbEntity
  8
DV1_Default
  6
Continuous
 62
     7
100
AcDbLine
 10
77.7013281774
 20
253.2077641369
 30
0.0
 11
77.6594402278
 21
253.4365860625
 31
0.0
  0
SPLINE
  5
F3
330
72
100
AcDbEntity
  8
DV1_Default
  6
Continuous
 62
     7
100
AcDbSpline
210
0.0
220
0.0
230
1.0
 70
     8
 71
     3
 72
    21
 73
    17
 74
     0
 42
0.0000000049879252
 43
0.0000000001
 40
0.0
 40
0.0
 40
0.0
 40
0.0
 40
0.1023589553731764
 40
0.2055323948123332
 40
0.2905154317553941
 40
0.3435740538798503
 40
0.3890696015437456
 40
0.429364263342475
 40
0.4677877867961315
 40
0.508536576866523
 40
0.5550145921883574
 40
0.6092633941243585
 40
0.6724689473513733
 40
0.7716625422188463
 40
0.8883409577272484
 40
1.0
 40
1.0
 40
1.0
 40
1.0
 10
77.95163864749958
 20
248.0624313378905
 30
0.0
 10
77.951434952151
 20
248.0876924935929
 30
0.0
 10
77.95092916502624
 20
248.1327365564846
 30
0.0
 10
77.94249759699795
 20
248.2380636617343
 30
0.0
 10
77.9331819499977
 20
248.3565303125498
 30
0.0
 10
77.92561300469059
 20
248.4785970999207
 30
0.0
 10
77.92066833175548
 20
248.5950709607481
 30
0.0
 10
77.91803922170395
 20
248.7220172175261
 30
0.0
 10
77.91821123800752
 20
248.8584675862352
 30
0.0
 10
77.92113115975872
 20
249.0005244602699
 30
0.0
 10
77.92618179213636
 20
249.1470196652162
 30
0.0
 10
77.93269786116097
 20
249.2986130663953
 30
0.0
 10
77.94088712780258
 20
249.4771558385786
 30
0.0
 10
77.94915172598516
 20
249.6770048861438
 30
0.0
 10
77.95472318357963
 20
249.8871458082897
 30
0.0
 10
77.95324933484315
 20
250.0006610338731
 30
0.0
 10
77.95227029786663
 20
250.065493622591
 30
0.0
  0
ARC
  5
F4
330
72
100
AcDbEntity
  8
DV1_Default
  6
Continuous
 62
     7
100
AcDbCircle
 10
77.226609622
 20
253.2644536481
 30
0.0
 40
0.4656166786068454
100
AcDbArc
 50
21.3132566909
 51
41.3747135011
  0
ARC
  5
F5
330
72
100
AcDbEntity
  8
DV1_Default
  6
Continuous
 62
     7
100
AcDbCircle
 10
75.9913031012
 20
252.3585797559
 30
0.0
 40
1.995166407943599
100
AcDbArc
 50
38.5431927381
 51
78.3466537645
  0
LINE
  5
F6
330
72
100
AcDbEntity
  8
DV1_Default
  6
Continuous
 62
     7
100
AcDbLine
 10
76.0951646571
 20
254.3528265547
 30
0.0
 11
72.1439155511
 21
254.3527006041
 31
0.0
  0
ARC
  5
F7
330
72
100
AcDbEntity
  8
DV1_Default
  6
Continuous
 62
     7
100
AcDbCircle
 10
73.0613976435
 20
252.5737402647
 30
0.0
 40
0.2219944440602236
100
AcDbArc
 50
271.3224043304
 51
285.0218192115
  0
ARC
  5
F8
330
72
100
AcDbEntity
  8
DV1_Default
  6
Continuous
 62
     7
100
AcDbCircle
 10
70.0618311935
 20
252.6966938096
 30
0.0
 40
0.3450514774536847
100
AcDbArc
 50
272.0947586562
 51
357.6503541606
  0
ARC
  5
F9
330
72
100
AcDbEntity
  8
DV1_Default
  6
Continuous
 62
     7
100
AcDbCircle
 10
115.4702421953
 20
248.6390644335
 30
0.0
 40
45.24457781976663
100
AcDbArc
 50
174.2379340793
 51
174.8765924482
  0
LINE
  5
FA
330
72
100
AcDbEntity
  8
DV1_Default
  6
Continuous
 62
     7
100
AcDbLine
 10
70.6603888267
 20
253.6515886887
 30
0.0
 11
70.5760136226
 21
253.5709214999
 31
0.0
  0
ARC
  5
FB
330
72
100
AcDbEntity
  8
DV1_Default
  6
Continuous
 62
     7
100
AcDbCircle
 10
72.2621222902
 20
252.1627457022
 30
0.0
 40
2.193187558031797
100
AcDbArc
 50
93.0756701729
 51
138.2349788549
  0
ARC
  5
FC
330
72
100
AcDbEntity
  8
DV1_Default
  6
Continuous
 62
     7
100
AcDbCircle
 10
70.8810415005
 20
253.2949310464
 30
0.0
 40
0.4114101999457476
100
AcDbArc
 50
137.2511638556
 51
161.6243505632
  0
LINE
  5
FD
330
72
100
AcDbEntity
  8
DV1_Default
  6
Continuous
 62
     7
100
AcDbLine
 10
70.4916249922
 20
253.4278567162
 30
0.0
 11
70.4541377602
 21
253.1795875311
 31
0.0
  0
ARC
  5
FE
330
72
100
AcDbEntity
  8
DV1_Default
  6
Continuous
 62
     7
100
AcDbCircle
 10
66.5280375258
 20
252.6861731563
 30
0.0
 40
0.3343533070169746
100
AcDbArc
 50
181.982470435
 51
269.0764109412
  0
SPLINE
  5
FF
330
72
100
AcDbEntity
  8
DV1_Default
  6
Continuous
 62
     7
100
AcDbSpline
210
0.0
220
0.0
230
1.0
 70
     8
 71
     3
 72
     9
 73
     5
 74
     0
 42
0.0000000954043076
 43
0.0000000001
 40
0.0
 40
0.0
 40
0.0
 40
0.0
 40
0.4823559942922421
 40
1.0
 40
1.0
 40
1.0
 40
1.0
 10
32.69567021490833
 20
243.7968487489161
 30
0.0
 10
32.70084689216775
 20
243.784408188044
 30
0.0
 10
32.71320414406598
 20
243.7537521111605
 30
0.0
 10
32.71884201617939
 20
243.7181643529289
 30
0.0
 10
32.72241182838412
 20
243.696194553349
 30
0.0
  0
ARC
  5
100
330
72
100
AcDbEntity
  8
DV1_Default
  6
Continuous
 62
     7
100
AcDbCircle
 10
33.8544527257
 20
240.7905036878
 30
0.0
 40
0.3615078515914358
100
AcDbArc
 50
227.0881328953
 51
240.1497217609
  0
ARC
  5
101
330
72
100
AcDbEntity
  8
DV1_Default
  6
Continuous
 62
     7
100
AcDbCircle
 10
37.658737881
 20
251.5847895237
 30
0.0
 40
11.80323642477321
100
AcDbArc
 50
250.3942009129
 51
250.8235420478
  0
LINE
  5
102
330
72
100
AcDbEntity
  8
DV1_Default
  6
Continuous
 62
     7
100
AcDbLine
 10
33.6505257023
 20
240.5001764862
 30
0.0
 11
33.692849534
 21
240.462858504
 31
0.0
  0
ARC
  5
103
330
72
100
AcDbEntity
  8
DV1_Default
  6
Continuous
 62
     7
100
AcDbCircle
 10
44.8321384749
 20
244.6343719131
 30
0.0
 40
11.97721666112602
100
AcDbArc
 50
199.1937536024
 51
199.6125740661
  0
LINE
  5
104
330
72
100
AcDbEntity
  8
DV1_Default
  6
Continuous
 62
     7
100
AcDbLine
 10
33.5467767456
 20
240.6089315128
 30
0.0
 11
33.5840756137
 21
240.5663983729
 31
0.0
  0
ARC
  5
105
330
72
100
AcDbEntity
  8
DV1_Default
  6
Continuous
 62
     7
100
AcDbCircle
 10
33.8732715594
 20
240.7697959034
 30
0.0
 40
0.3602031964376624
100
AcDbArc
 50
209.8681964011
 51
222.9506689199
  0
ARC
  5
106
330
72
100
AcDbEntity
  8
DV1_Default
  6
Continuous
 62
     7
100
AcDbCircle
 10
50.4416757042
 20
240.7712034505
 30
0.0
 40
0.3626213282390005
100
AcDbArc
 50
317.1072919418
 51
330.118374464
  0
ARC
  5
107
330
72
100
AcDbEntity
  8
DV1_Default
  6
Continuous
 62
     7
100
AcDbCircle
 10
39.748768454
 20
244.5341299889
 30
0.0
 40
11.69493316457927
100
AcDbArc
 50
340.4175324426
 51
340.8503154831
  0
LINE
  5
108
330
72
100
AcDbEntity
  8
DV1_Default
  6
Continuous
 62
     7
100
AcDbLine
 10
50.7328487641
 20
240.5666117104
 30
0.0
 11
50.770219744
 21
240.6089335446
 31
0.0
  0
ARC
  5
109
330
72
100
AcDbEntity
  8
DV1_Default
  6
Continuous
 62
     7
100
AcDbCircle
 10
50.4621546097
 20
257.3579009369
 30
0.0
 40
0.3623732580182858
100
AcDbArc
 50
47.2743741399
 51
60.2273918394
  0
ARC
  5
10A
330
72
100
AcDbEntity
  8
DV1_Default
  6
Continuous
 62
     7
100
AcDbCircle
 10
46.6614685309
 20
246.5705328214
 30
0.0
 40
11.79641486968752
100
AcDbArc
 50
70.4003746596
 51
70.8296926798
  0
LINE
  5
10B
330
72
100
AcDbEntity
  8
DV1_Default
  6
Continuous
 62
     7
100
AcDbLine
 10
50.66587494
 20
257.6494980629
 30
0.0
 11
50.6239501652
 21
257.6863916921
 31
0.0
  0
ARC
  5
10C
330
72
100
AcDbEntity
  8
DV1_Default
  6
Continuous
 62
     7
100
AcDbCircle
 10
39.4650287954
 20
253.5054477044
 30
0.0
 40
11.99903704348019
100
AcDbArc
 50
19.2041983383
 51
19.6226176122
  0
LINE
  5
10D
330
72
100
AcDbEntity
  8
DV1_Default
  6
Continuous
 62
     7
100
AcDbLine
 10
50.7702519449
 20
257.5401558363
 30
0.0
 11
50.7329594073
 21
257.5827150228
 31
0.0
  0
ARC
  5
10E
330
72
100
AcDbEntity
  8
DV1_Default
  6
Continuous
 62
     7
100
AcDbCircle
 10
50.4436295988
 20
257.3792936815
 30
0.0
 40
0.360319703000134
100
AcDbArc
 50
29.8518135796
 51
42.9488552833
  0
ARC
  5
10F
330
72
100
AcDbEntity
  8
DV1_Default
  6
Continuous
 62
     7
100
AcDbCircle
 10
33.8732704612
 20
257.3793561028
 30
0.0
 40
0.3602076389784836
100
AcDbArc
 50
137.0484839239
 51
150.1309777497
  0
ARC
  5
110
330
72
100
AcDbEntity
  8
DV1_Default
  6
Continuous
 62
     7
100
AcDbCircle
 10
44.8740735855
 20
253.4999257436
 30
0.0
 40
12.02170869912687
100
AcDbArc
 50
160.3877604398
 51
160.8050478602
  0
LINE
  5
111
330
72
100
AcDbEntity
  8
DV1_Default
  6
Continuous
 62
     7
100
AcDbLine
 10
33.5840755522
 20
257.5827630408
 30
0.0
 11
33.5467762154
 21
257.5402278832
 31
0.0
  0
ARC
  5
112
330
72
100
AcDbEntity
  8
DV1_Default
  6
Continuous
 62
     7
100
AcDbCircle
 10
37.64735223
 20
246.5966679977
 30
0.0
 40
11.76899198751357
100
AcDbArc
 50
109.1758558536
 51
109.6063998298
  0
LINE
  5
113
330
72
100
AcDbEntity
  8
DV1_Default
  6
Continuous
 62
     7
100
AcDbLine
 10
33.6928499077
 20
257.6863010139
 30
0.0
 11
33.6505196116
 21
257.6489822226
 31
0.0
  0
ARC
  5
114
330
72
100
AcDbEntity
  8
DV1_Default
  6
Continuous
 62
     7
100
AcDbCircle
 10
33.8544952898
 20
257.3586073993
 30
0.0
 40
0.3615724274157266
100
AcDbArc
 50
119.8527362114
 51
132.911712986
  0
SPLINE
  5
115
330
72
100
AcDbEntity
  8
DV1_Default
  6
Continuous
 62
     7
100
AcDbSpline
210
0.0
220
0.0
230
1.0
 70
     8
 71
     3
 72
    10
 73
     6
 74
     0
 42
0.0000000930889995
 43
0.0000000001
 40
0.0
 40
0.0
 40
0.0
 40
0.0
 40
0.4405516251462002
 40
0.8946963967474878
 40
1.0
 40
1.0
 40
1.0
 40
1.0
 10
32.72248701361774
 20
254.4533255246734
 30
0.0
 10
32.71863550606695
 20
254.4340881589979
 30
0.0
 10
32.71202871600491
 20
254.4010525878321
 30
0.0
 10
32.69774635798108
 20
254.3688884519481
 30
0.0
 10
32.69077209415463
 20
254.354448754904
 30
0.0
 10
32.68950952146829
 20
254.3518526042952
 30
0.0
  0
SPLINE
  5
116
330
72
100
AcDbEntity
  8
DV1_Default
  6
Continuous
 62
     7
100
AcDbSpline
210
0.0
220
0.0
230
1.0
 70
     8
 71
     3
 72
     9
 73
     5
 74
     0
 42
0.0000000954912618
 43
0.0000000001
 40
0.0
 40
0.0
 40
0.0
 40
0.0
 40
0.4818509530146623
 40
1.0
 40
1.0
 40
1.0
 40
1.0
 10
51.62132277105473
 20
254.3521802618486
 30
0.0
 10
51.61615508120442
 20
254.3646042869701
 30
0.0
 10
51.60382112067404
 20
254.3952327774886
 30
0.0
 10
51.59819249788072
 20
254.4307818150971
 30
0.0
 10
51.59462505569325
 20
254.4527492194064
 30
0.0
  0
ARC
  5
117
330
72
100
AcDbEntity
  8
DV1_Default
  6
Continuous
 62
     7
100
AcDbCircle
 10
46.7248683301
 20
251.3677900871
 30
0.0
 40
11.57645914521374
100
AcDbArc
 50
289.2184111812
 51
289.656802014
  0
LINE
  5
118
330
72
100
AcDbEntity
  8
DV1_Default
  6
Continuous
 62
     7
100
AcDbLine
 10
50.6240774748
 20
240.4628273094
 30
0.0
 11
50.666482183
 21
240.5001236661
 31
0.0
  0
ARC
  5
119
330
72
100
AcDbEntity
  8
DV1_Default
  6
Continuous
 62
     7
100
AcDbCircle
 10
50.4631019022
 20
240.7897554155
 30
0.0
 40
0.3605782417147103
100
AcDbArc
 50
299.814331765
 51
312.9280513656
  0
ARC
  5
11A
330
72
100
AcDbEntity
  8
DV1_Default
  6
Continuous
 62
     7
100
AcDbCircle
 10
8.3280134061
 20
252.3475459835
 30
0.0
 40
2.005722404149096
100
AcDbArc
 50
92.3797673814
 51
141.2466892592
  0
LINE
  5
11B
330
72
100
AcDbEntity
  8
DV1_Default
  6
Continuous
 62
     7
100
AcDbLine
 10
12.1733739585
 20
254.3528975641
 30
0.0
 11
8.2217067614
 21
254.3528335117
 31
0.0
  0
ARC
  5
11C
330
72
100
AcDbEntity
  8
DV1_Default
  6
Continuous
 62
     7
100
AcDbCircle
 10
7.090463663
 20
253.2643027208
 30
0.0
 40
0.4657479577633358
100
AcDbArc
 50
138.6353318206
 51
158.6648758773
  0
ARC
  5
11D
330
72
100
AcDbEntity
  8
DV1_Default
  6
Continuous
 62
     7
100
AcDbCircle
 10
14.2557745784
 20
252.6966711473
 30
0.0
 40
0.3450304376741352
100
AcDbArc
 50
182.3541655729
 51
267.9085527723
  0
SPLINE
  5
11E
330
72
100
AcDbEntity
  8
DV1_Default
  6
Continuous
 62
     7
100
AcDbSpline
210
0.0
220
0.0
230
1.0
 70
     8
 71
     3
 72
    12
 73
     8
 74
     0
 42
0.0000000067253521
 43
0.0000000001
 40
0.0
 40
0.0
 40
0.0
 40
0.0
 40
0.1582556841316693
 40
0.3365122659002641
 40
0.5354342536362076
 40
0.7560787395155921
 40
1.0
 40
1.0
 40
1.0
 40
1.0
 10
19.48729088997622
 20
254.3530657952101
 30
0.0
 10
19.40961464469047
 20
254.3488971147812
 30
0.0
 10
19.27045448731878
 20
254.3395472266591
 30
0.0
 10
19.03847037854636
 20
254.2627532732144
 30
0.0
 10
18.79760976218103
 20
254.1253534678342
 30
0.0
 10
18.53419329835975
 20
253.9033019560447
 30
0.0
 10
18.37726811772329
 20
253.7116882949315
 30
0.0
 10
18.27983505618116
 20
253.5901181596902
 30
0.0
  0
ARC
  5
11F
330
72
100
AcDbEntity
  8
DV1_Default
  6
Continuous
 62
     7
100
AcDbCircle
 10
18.6362328954
 20
253.2802228656
 30
0.0
 40
0.4682685388559078
100
AcDbArc
 50
143.6812602328
 51
164.403769474
  0
LINE
  5
120
330
72
100
AcDbEntity
  8
DV1_Default
  6
Continuous
 62
     7
100
AcDbLine
 10
18.1859060445
 20
253.4090333026
 30
0.0
 11
18.1593739022
 21
253.1775922336
 31
0.0
  0
ARC
  5
121
330
72
100
AcDbEntity
  8
DV1_Default
  6
Continuous
 62
     7
100
AcDbCircle
 10
78.4473392687
 20
248.6733680447
 30
0.0
 40
60.45672739926302
100
AcDbArc
 50
175.7292293894
 51
176.2071471134
  0
SPLINE
  5
122
330
72
100
AcDbEntity
  8
DV1_Default
  6
Continuous
 62
     7
100
AcDbSpline
210
0.0
220
0.0
230
1.0
 70
     8
 71
     3
 72
    11
 73
     7
 74
     0
 42
0.0000000067129673
 43
0.0000000001
 40
0.0
 40
0.0
 40
0.0
 40
0.0
 40
0.2433231422504928
 40
0.4903788845404062
 40
0.7422113477038961
 40
1.0
 40
1.0
 40
1.0
 40
1.0
 10
66.03730009992528
 20
253.5899275634911
 30
0.0
 10
65.94146722140354
 20
253.709896059416
 30
0.0
 10
65.77725203288271
 20
253.9104869407106
 30
0.0
 10
65.48401142908658
 20
254.1545019927894
 30
0.0
 10
65.16576751231388
 20
254.3188409759042
 30
0.0
 10
64.95615052715803
 20
254.3416029285056
 30
0.0
 10
64.83027278627279
 20
254.3526721786263
 30
0.0
  0
ARC
  5
123
330
72
100
AcDbEntity
  8
DV1_Default
  6
Continuous
 62
     7
100
AcDbCircle
 10
51.3620861033
 20
239.8626501165
 30
0.0
 40
0.1999999999733713
100
AcDbArc
 50
315.0000004022
 51
340.858957813
  0
ARC
  5
124
330
72
100
AcDbEntity
  8
DV1_Default
  6
Continuous
 62
     7
100
AcDbCircle
 10
51.3620861033
 20
239.8626501165
 30
0.0
 40
0.2000000000355388
100
AcDbArc
 50
289.141042977
 51
315.0000004022
  0
ARC
  5
125
330
72
100
AcDbEntity
  8
DV1_Default
  6
Continuous
 62
     7
100
AcDbCircle
 10
42.1543225333
 20
265.787008457
 30
0.0
 40
27.71006287705942
100
AcDbArc
 50
250.7296228326
 51
289.2703793665
  0
LINE
  5
126
330
72
100
AcDbEntity
  8
DV1_Default
  6
Continuous
 62
     7
100
AcDbLine
 10
51.5952423856
 20
239.9253597274
 30
0.0
 11
51.5731569867
 21
239.8610497096
 31
0.0
  0
LINE
  5
127
330
72
100
AcDbEntity
  8
DV1_Default
  6
Continuous
 62
     7
100
AcDbLine
 10
51.5731569867
 20
239.8610497096
 30
0.0
 11
51.5510289565
 21
239.7970712419
 31
0.0
  0
LINE
  5
128
330
72
100
AcDbEntity
  8
DV1_Default
  6
Continuous
 62
     7
100
AcDbLine
 10
51.5510288288
 20
258.3437559225
 30
0.0
 11
51.5731570688
 21
258.2797768602
 31
0.0
  0
LINE
  5
129
330
72
100
AcDbEntity
  8
DV1_Default
  6
Continuous
 62
     7
100
AcDbLine
 10
51.5731570688
 20
258.2797768602
 30
0.0
 11
51.5952420346
 21
258.2154681085
 31
0.0
  0
ARC
  5
12A
330
72
100
AcDbEntity
  8
DV1_Default
  6
Continuous
 62
     7
100
AcDbCircle
 10
25.4377273329
 20
249.0704134159
 30
0.0
 40
27.71006316662421
100
AcDbArc
 50
10.9936700997
 51
19.2703829134
  0
ARC
  5
12B
330
72
100
AcDbEntity
  8
DV1_Default
  6
Continuous
 62
     7
100
AcDbCircle
 10
25.4377273329
 20
249.0704134159
 30
0.0
 40
27.71006316662421
100
AcDbArc
 50
340.7296192858
 51
349.0235350827
  0
LINE
  5
12C
330
72
100
AcDbEntity
  8
DV1_Default
  6
Continuous
 62
     7
100
AcDbLine
 10
51.2993764357
 20
258.5113332708
 30
0.0
 11
51.3636864526
 21
258.4892478709
 31
0.0
  0
ARC
  5
12D
330
72
100
AcDbEntity
  8
DV1_Default
  6
Continuous
 62
     7
100
AcDbCircle
 10
51.3620859744
 20
258.2781769795
 30
0.0
 40
0.2000000000322877
100
AcDbArc
 50
45.0000003874
 51
51.4541434895
  0
LINE
  5
12E
330
72
100
AcDbEntity
  8
DV1_Default
  6
Continuous
 62
     7
100
AcDbLine
 10
51.3636864526
 20
258.4892478709
 30
0.0
 11
51.4276649148
 21
258.4671198349
 31
0.0
  0
LINE
  5
12F
330
72
100
AcDbEntity
  8
DV1_Default
  6
Continuous
 62
     7
100
AcDbLine
 10
32.8809802341
 20
258.4671197071
 30
0.0
 11
32.9449593021
 21
258.489247953
 31
0.0
  0
LINE
  5
130
330
72
100
AcDbEntity
  8
DV1_Default
  6
Continuous
 62
     7
100
AcDbLine
 10
32.9449593021
 20
258.489247953
 30
0.0
 11
33.0092680547
 21
258.5113329198
 31
0.0
  0
ARC
  5
131
330
72
100
AcDbEntity
  8
DV1_Default
  6
Continuous
 62
     7
100
AcDbCircle
 10
42.1543227472
 20
232.3538182174
 30
0.0
 40
27.71006316734094
100
AcDbArc
 50
70.7296192863
 51
109.2703829128
  0
LINE
  5
132
330
72
100
AcDbEntity
  8
DV1_Default
  6
Continuous
 62
     7
100
AcDbLine
 10
32.7134028924
 20
258.2154673211
 30
0.0
 11
32.7354882913
 21
258.2797773368
 31
0.0
  0
ARC
  5
133
330
72
100
AcDbEntity
  8
DV1_Default
  6
Continuous
 62
     7
100
AcDbCircle
 10
32.9465591772
 20
258.2781768527
 30
0.0
 40
0.200000000001355
100
AcDbArc
 50
135.0000004174
 51
160.8589578136
  0
LINE
  5
134
330
72
100
AcDbEntity
  8
DV1_Default
  6
Continuous
 62
     7
100
AcDbLine
 10
32.7354882913
 20
258.2797773368
 30
0.0
 11
32.7576163218
 21
258.3437557931
 31
0.0
  0
LINE
  5
135
330
72
100
AcDbEntity
  8
DV1_Default
  6
Continuous
 62
     7
100
AcDbLine
 10
32.7576164496
 20
239.7970711125
 30
0.0
 11
32.7354882092
 21
239.8610501862
 31
0.0
  0
LINE
  5
136
330
72
100
AcDbEntity
  8
DV1_Default
  6
Continuous
 62
     7
100
AcDbLine
 10
32.7354882092
 20
239.8610501862
 30
0.0
 11
32.7134032433
 21
239.9253589398
 31
0.0
  0
ARC
  5
137
330
72
100
AcDbEntity
  8
DV1_Default
  6
Continuous
 62
     7
100
AcDbCircle
 10
58.870917945
 20
249.0704136323
 30
0.0
 40
27.7100631666246
100
AcDbArc
 50
190.9764670645
 51
199.2703829133
  0
ARC
  5
138
330
72
100
AcDbEntity
  8
DV1_Default
  6
Continuous
 62
     7
100
AcDbCircle
 10
58.870917945
 20
249.0704136323
 30
0.0
 40
27.7100631666246
100
AcDbArc
 50
160.7296192853
 51
169.0056139287
  0
ARC
  5
139
330
72
100
AcDbEntity
  8
DV1_Default
  6
Continuous
 62
     7
100
AcDbCircle
 10
32.9465593061
 20
239.8626499896
 30
0.0
 40
0.1999999999928545
100
AcDbArc
 50
211.9964487988
 51
225.0000003874
  0
ARC
  5
13A
330
72
100
AcDbEntity
  8
DV1_Default
  6
Continuous
 62
     7
100
AcDbCircle
 10
32.9465593061
 20
239.8626499896
 30
0.0
 40
0.199999999972704
100
AcDbArc
 50
225.0000003874
 51
250.8589578127
  0
ARC
  5
13B
330
72
100
AcDbEntity
  8
DV1_Default
  6
Continuous
 62
     7
100
AcDbCircle
 10
32.946559304
 20
239.8626500555
 30
0.0
 40
0.2000000000332258
100
AcDbArc
 50
225.0000003874
 51
250.8589578144
  0
ARC
  5
13C
330
72
100
AcDbEntity
  8
DV1_Default
  6
Continuous
 62
     7
100
AcDbCircle
 10
32.946559304
 20
239.8626500555
 30
0.0
 40
0.1999999999727003
100
AcDbArc
 50
199.1410429766
 51
225.0000003874
  0
SPLINE
  5
13D
330
72
100
AcDbEntity
  8
DV1_Default
  6
Continuous
 62
     7
100
AcDbSpline
210
0.0
220
0.0
230
1.0
 70
     8
 71
     3
 72
     8
 73
     4
 74
     0
 42
0.000000395936256
 43
0.0000000001
 40
0.0
 40
0.0
 40
0.0
 40
0.0
 40
1.0
 40
1.0
 40
1.0
 40
1.0
 10
32.74648539753316
 20
239.8384585809178
 30
0.0
 10
32.74154591067705
 20
239.8460338541618
 30
0.0
 10
32.73809818136338
 20
239.8534773765494
 30
0.0
 10
32.73548820921221
 20
239.8610501862443
 30
0.0
  0
ARC
  5
13E
330
72
100
AcDbEntity
  8
DV1_Default
  6
Continuous
 62
     7
100
AcDbCircle
 10
51.3620861012
 20
239.8626501823
 30
0.0
 40
0.1999999999975684
100
AcDbArc
 50
315.0000004022
 51
340.8589578132
  0
ARC
  5
13F
330
72
100
AcDbEntity
  8
DV1_Default
  6
Continuous
 62
     7
100
AcDbCircle
 10
51.3620861012
 20
239.8626501823
 30
0.0
 40
0.1999999999733995
100
AcDbArc
 50
289.1410429772
 51
315.0000004022
  0
LINE
  5
140
330
72
100
AcDbEntity
  8
DV1_Default
  6
Continuous
 62
     7
100
AcDbLine
 10
51.4276650442
 20
239.6737073279
 30
0.0
 11
51.3636859759
 21
239.6515790935
 31
0.0
  0
LINE
  5
141
330
72
100
AcDbEntity
  8
DV1_Default
  6
Continuous
 62
     7
100
AcDbLine
 10
51.3636859759
 20
239.6515790935
 30
0.0
 11
51.2993772233
 21
239.6294941284
 31
0.0
  0
LINE
  5
142
330
72
100
AcDbEntity
  8
DV1_Default
  6
Continuous
 62
     7
100
AcDbLine
 10
33.009268842
 20
239.6294937775
 30
0.0
 11
32.9449588254
 21
239.6515791756
 31
0.0
  0
LINE
  5
143
330
72
100
AcDbEntity
  8
DV1_Default
  6
Continuous
 62
     7
100
AcDbLine
 10
32.9449588254
 20
239.6515791756
 30
0.0
 11
32.8809803636
 21
239.6737072001
 31
0.0
  0
SPLINE
  5
144
330
72
100
AcDbEntity
  8
DV1_Default
  6
Continuous
 62
     7
100
AcDbSpline
210
0.0
220
0.0
230
1.0
 70
     8
 71
     3
 72
     8
 73
     4
 74
     0
 42
0.0000003959396954
 43
0.0000000001
 40
0.0
 40
0.0
 40
0.0
 40
0.0
 40
1.0
 40
1.0
 40
1.0
 40
1.0
 10
51.38627740036834
 20
239.6625761600811
 30
0.0
 10
51.37870218975795
 20
239.657636737548
 30
0.0
 10
51.37125872559651
 20
239.654189045382
 30
0.0
 10
51.36368597593729
 20
239.6515790934764
 30
0.0
  0
ARC
  5
145
330
72
100
AcDbEntity
  8
DV1_Default
  6
Continuous
 62
     7
100
AcDbCircle
 10
32.9465591772
 20
258.2781768527
 30
0.0
 40
0.2000000000264343
100
AcDbArc
 50
109.1410429772
 51
135.0000004174
  0
SPLINE
  5
146
330
72
100
AcDbEntity
  8
DV1_Default
  6
Continuous
 62
     7
100
AcDbSpline
210
0.0
220
0.0
230
1.0
 70
     8
 71
     3
 72
     8
 73
     4
 74
     0
 42
0.0000003958024823
 43
0.0000000001
 40
0.0
 40
0.0
 40
0.0
 40
0.0
 40
1.0
 40
1.0
 40
1.0
 40
1.0
 10
32.92236059884672
 20
258.4782461439819
 30
0.0
 10
32.92993832014839
 20
258.4831881031348
 30
0.0
 10
32.93738412694027
 20
258.4866371665516
 30
0.0
 10
32.94495930206118
 20
258.4892479529874
 30
0.0
  0
ARC
  5
147
330
72
100
AcDbEntity
  8
DV1_Default
  6
Continuous
 62
     7
100
AcDbCircle
 10
51.3620859765
 20
258.2781769137
 30
0.0
 40
0.1999999999957026
100
AcDbArc
 50
31.6682720083
 51
45.0000003874
  0
ARC
  5
148
330
72
100
AcDbEntity
  8
DV1_Default
  6
Continuous
 62
     7
100
AcDbCircle
 10
51.3620859744
 20
258.2781769795
 30
0.0
 40
0.1999999999727138
100
AcDbArc
 50
19.1410429768
 51
45.0000003874
  0
SPLINE
  5
149
330
72
100
AcDbEntity
  8
DV1_Default
  6
Continuous
 62
     7
100
AcDbSpline
210
0.0
220
0.0
230
1.0
 70
     8
 71
     3
 72
     8
 73
     4
 74
     0
 42
0.0000003959279986
 43
0.0000000001
 40
0.0
 40
0.0
 40
0.0
 40
0.0
 40
1.0
 40
1.0
 40
1.0
 40
1.0
 10
51.56215960030007
 20
258.3023689060478
 30
0.0
 10
51.56709923812642
 20
258.2947934811313
 30
0.0
 10
51.57054704641487
 20
258.2873498169262
 30
0.0
 10
51.57315706879825
 20
258.2797768602194
 30
0.0
  0
SPLINE
  5
14A
330
72
100
AcDbEntity
  8
DV1_Default
  6
Continuous
 62
     7
100
AcDbSpline
210
0.0
220
0.0
230
1.0
 70
     8
 71
     3
 72
    12
 73
     8
 74
     0
 42
0.0000000911429433
 43
0.0000000001
 40
0.0
 40
0.0
 40
0.0
 40
0.0
 40
0.3009693993768494
 40
0.5610918975160835
 40
0.7891742900663571
 40
0.8946002626076683
 40
1.0
 40
1.0
 40
1.0
 40
1.0
 10
51.48663943233723
 20
258.4346593461017
 30
0.0
 10
51.48306413127892
 20
258.4371154050113
 30
0.0
 10
51.47669270263821
 20
258.4413007319153
 30
0.0
 10
51.45493233035972
 20
258.4499887454384
 30
0.0
 10
51.43052342149846
 20
258.4598762171067
 30
0.0
 10
51.40582350419078
 20
258.4702494834772
 30
0.0
 10
51.39345029704633
 20
258.4753228236227
 30
0.0
 10
51.38620862050242
 20
258.4782959012026
 30
0.0
  0
ARC
  5
14B
330
72
100
AcDbEntity
  8
DV1_Default
  6
Continuous
 62
     7
100
AcDbCircle
 10
33.8620258742
 20
257.7928485996
 30
0.0
 40
1.226405921326687
100
AcDbArc
 50
149.3292736992
 51
155.4553942857
  0
SPLINE
  5
14C
330
72
100
AcDbEntity
  8
DV1_Default
  6
Continuous
 62
     7
100
AcDbSpline
210
0.0
220
0.0
230
1.0
 70
     8
 71
     3
 72
    12
 73
     8
 74
     0
 42
0.0000001165419747
 43
0.0000000001
 40
0.0
 40
0.0
 40
0.0
 40
0.0
 40
0.1061215714152713
 40
0.2164624420727735
 40
0.4565184383006581
 40
0.7209249374304582
 40
1.0
 40
1.0
 40
1.0
 40
1.0
 10
32.74648193051097
 20
239.8384638983506
 30
0.0
 10
32.74873765667398
 20
239.8322673813273
 30
0.0
 10
32.75262941869259
 20
239.8215697351871
 30
0.0
 10
32.76014367151281
 20
239.8011948649543
 30
0.0
 10
32.76723873052023
 20
239.7815880697835
 30
0.0
 10
32.77290207594251
 20
239.7648594435351
 30
0.0
 10
32.7749887246821
 20
239.7603914894872
 30
0.0
 10
32.77613291742366
 20
239.7579810119692
 30
0.0
  0
SPLINE
  5
14D
330
72
100
AcDbEntity
  8
DV1_Default
  6
Continuous
 62
     7
100
AcDbSpline
210
0.0
220
0.0
230
1.0
 70
     8
 71
     3
 72
    12
 73
     8
 74
     0
 42
0.0000001159977974
 43
0.0000000001
 40
0.0
 40
0.0
 40
0.0
 40
0.0
 40
0.2794925776729929
 40
0.5438687252193382
 40
0.7837020479991887
 40
0.8939265969244105
 40
1.0
 40
1.0
 40
1.0
 40
1.0
 10
51.53233756505428
 20
239.7576968678583
 30
0.0
 10
51.53350062442887
 20
239.7601321317884
 30
0.0
 10
51.53561860913854
 20
239.7646411089012
 30
0.0
 10
51.54132525156212
 20
239.7814524281735
 30
0.0
 10
51.54846481280366
 20
239.8011362529811
 30
0.0
 10
51.55602493636739
 20
239.8215859401919
 30
0.0
 10
51.55993709950595
 20
239.8323130007677
 30
0.0
 10
51.56220501800429
 20
239.8385275485155
 30
0.0
  0
SPLINE
  5
14E
330
72
100
AcDbEntity
  8
DV1_Default
  6
Continuous
 62
     7
100
AcDbSpline
210
0.0
220
0.0
230
1.0
 70
     8
 71
     3
 72
    12
 73
     8
 74
     0
 42
0.0000001164683631
 43
0.0000000001
 40
0.0
 40
0.0
 40
0.0
 40
0.0
 40
0.2790945528140014
 40
0.5435013298571006
 40
0.7835305177419437
 40
0.893863687035803
 40
1.0
 40
1.0
 40
1.0
 40
1.0
 10
32.8419074769099
 20
239.6922130959859
 30
0.0
 10
32.84432096751001
 20
239.6910671169553
 30
0.0
 10
32.84879420689946
 20
239.688977138093
 30
0.0
 10
32.86553257813198
 20
239.6833088910936
 30
0.0
 10
32.88514985157186
 20
239.6762049948335
 30
0.0
 10
32.90553665027532
 20
239.668683244334
 30
0.0
 10
32.91623767383677
 20
239.6647886644708
 30
0.0
 10
32.92243668175472
 20
239.6625311289315
 30
0.0
  0
SPLINE
  5
14F
330
72
100
AcDbEntity
  8
DV1_Default
  6
Continuous
 62
     7
100
AcDbSpline
210
0.0
220
0.0
230
1.0
 70
     8
 71
     3
 72
    12
 73
     8
 74
     0
 42
0.0000001172946808
 43
0.0000000001
 40
0.0
 40
0.0
 40
0.0
 40
0.0
 40
0.1062246759047353
 40
0.2167396931066929
 40
0.4571076289606139
 40
0.7215578869530093
 40
1.0
 40
1.0
 40
1.0
 40
1.0
 10
51.38627224415353
 20
239.662572798184
 30
0.0
 10
51.39244415005397
 20
239.6648121085851
 30
0.0
 10
51.40310049160754
 20
239.6686760294421
 30
0.0
 10
51.42337600021107
 20
239.6761299322984
 30
0.0
 10
51.44287796742336
 20
239.6831682363045
 30
0.0
 10
51.45949099609594
 20
239.6887720780014
 30
0.0
 10
51.4639021055761
 20
239.6908143935764
 30
0.0
 10
51.46627797770878
 20
239.691931644869
 30
0.0
  0
SPLINE
  5
150
330
72
100
AcDbEntity
  8
DV1_Default
  6
Continuous
 62
     7
100
AcDbSpline
210
0.0
220
0.0
230
1.0
 70
     8
 71
     3
 72
    12
 73
     8
 74
     0
 42
0.0000000912611031
 43
0.0000000001
 40
0.0
 40
0.0
 40
0.0
 40
0.0
 40
0.1053617563998039
 40
0.2107977656631106
 40
0.4389368153351828
 40
0.6990947812306738
 40
1.0
 40
1.0
 40
1.0
 40
1.0
 10
32.92237302558701
 20
258.4782542470625
 30
0.0
 10
32.91513717403359
 20
258.4752845040385
 30
0.0
 10
32.90277182216592
 20
258.4702159790979
 30
0.0
 10
32.87809977512847
 20
258.4598614361065
 30
0.0
 10
32.8537210639803
 20
258.4499929420972
 30
0.0
 10
32.83198903895404
 20
258.4413259744284
 30
0.0
 10
32.82562848609523
 20
258.437151407424
 30
0.0
 10
32.82205961226457
 20
258.4347021057172
 30
0.0
  0
SPLINE
  5
151
330
72
100
AcDbEntity
  8
DV1_Default
  6
Continuous
 62
     7
100
AcDbSpline
210
0.0
220
0.0
230
1.0
 70
     8
 71
     3
 72
    12
 73
     8
 74
     0
 42
0.0000001144796988
 43
0.0000000001
 40
0.0
 40
0.0
 40
0.0
 40
0.0
 40
0.1058574036287644
 40
0.2157257666263271
 40
0.4549070736971542
 40
0.7191782819293964
 40
1.0
 40
1.0
 40
1.0
 40
1.0
 10
51.5621633629947
 20
258.3023631351651
 30
0.0
 10
51.55986164011861
 20
258.3086286858372
 30
0.0
 10
51.5558920277789
 20
258.3194416155496
 30
0.0
 10
51.54820757206615
 20
258.3400956459151
 30
0.0
 10
51.54094807683622
 20
258.359996140979
 30
0.0
 10
51.53512004539317
 20
258.3770525320771
 30
0.0
 10
51.53290637792887
 20
258.3816758242343
 30
0.0
 10
51.53168507454618
 20
258.3841811904182
 30
0.0
  0
ARC
  5
152
330
72
100
AcDbEntity
  8
DV1_Default
  6
Continuous
 62
     7
100
AcDbCircle
 10
8.9306104943
 20
249.2397472614
 30
0.0
 40
52.91449987071844
100
AcDbArc
 50
341.9763549987
 51
344.3996265839
  0
ARC
  5
153
330
72
100
AcDbEntity
  8
DV1_Default
  6
Continuous
 62
     7
100
AcDbCircle
 10
57.6785604005
 20
233.3529177456
 30
0.0
 40
1.64330755111849
100
AcDbArc
 50
327.1036847272
 51
338.7868471333
  0
ARC
  5
154
330
72
100
AcDbEntity
  8
DV1_Default
  6
Continuous
 62
     7
100
AcDbCircle
 10
57.6785604005
 20
233.3529177456
 30
0.0
 40
1.64330755111849
100
AcDbArc
 50
341.2473839795
 51
342.8190630601
  0
LINE
  5
155
330
72
100
AcDbEntity
  8
DV1_Default
  6
Continuous
 62
     7
100
AcDbLine
 10
59.0584915037
 20
232.460314105
 30
0.0
 11
59.0583252665
 21
232.4600929602
 31
0.0
  0
LINE
  5
156
330
72
100
AcDbEntity
  8
DV1_Default
  6
Continuous
 62
     7
100
AcDbLine
 10
58.9257091668
 20
232.3070691535
 30
0.0
 11
59.0584910469
 21
232.4603134972
 31
0.0
  0
LINE
  5
157
330
72
100
AcDbEntity
  8
DV1_Default
  6
Continuous
 62
     7
100
AcDbLine
 10
58.9257086321
 20
232.3070686167
 30
0.0
 11
58.9255454631
 21
232.3069048039
 31
0.0
  0
LINE
  5
158
330
72
100
AcDbEntity
  8
DV1_Default
  6
Continuous
 62
     7
100
AcDbLine
 10
58.7726017934
 20
232.1742259899
 30
0.0
 11
58.9255404047
 21
232.3072362833
 31
0.0
  0
LINE
  5
159
330
72
100
AcDbEntity
  8
DV1_Default
  6
Continuous
 62
     7
100
AcDbLine
 10
58.7726004575
 20
232.1742249831
 30
0.0
 11
58.7725034905
 21
232.1741518864
 31
0.0
  0
ARC
  5
15A
330
72
100
AcDbEntity
  8
DV1_Default
  6
Continuous
 62
     7
100
AcDbCircle
 10
57.7980722555
 20
233.7302553392
 30
0.0
 40
1.835730858380192
100
AcDbArc
 50
288.0038356046
 51
289.2782951694
  0
ARC
  5
15B
330
72
100
AcDbEntity
  8
DV1_Default
  6
Continuous
 62
     7
100
AcDbCircle
 10
57.7980722555
 20
233.7302553392
 30
0.0
 40
1.835730858380192
100
AcDbArc
 50
297.4418135274
 51
302.0578220926
  0
ARC
  5
15C
330
72
100
AcDbEntity
  8
DV1_Default
  6
Continuous
 62
     7
100
AcDbCircle
 10
42.0117626528
 20
282.1897600681
 30
0.0
 40
52.80171094072513
100
AcDbArc
 50
270.1592399511
 51
271.2509790392
  0
ARC
  5
15D
330
72
100
AcDbEntity
  8
DV1_Default
  6
Continuous
 62
     7
100
AcDbCircle
 10
42.0117626528
 20
282.1897600681
 30
0.0
 40
52.80171094072513
100
AcDbArc
 50
285.2217802147
 51
288.0423031093
  0
ARC
  5
15E
330
72
100
AcDbEntity
  8
DV1_Default
  6
Continuous
 62
     7
100
AcDbCircle
 10
42.3236582208
 20
282.302495225
 30
0.0
 40
52.91449988053585
100
AcDbArc
 50
251.9763550016
 51
254.3996269877
  0
ARC
  5
15F
330
72
100
AcDbEntity
  8
DV1_Default
  6
Continuous
 62
     7
100
AcDbCircle
 10
42.3236582208
 20
282.302495225
 30
0.0
 40
52.91449988053585
100
AcDbArc
 50
269.7318997272
 51
269.8211797516
  0
ARC
  5
160
330
72
100
AcDbEntity
  8
DV1_Default
  6
Continuous
 62
     7
100
AcDbCircle
 10
26.4368287006
 20
233.5545453011
 30
0.0
 40
1.643307542800637
100
AcDbArc
 50
237.1036847129
 51
248.7868442535
  0
ARC
  5
161
330
72
100
AcDbEntity
  8
DV1_Default
  6
Continuous
 62
     7
100
AcDbCircle
 10
26.4368287006
 20
233.5545453011
 30
0.0
 40
1.643307542800637
100
AcDbArc
 50
251.2473882515
 51
252.8190631108
  0
LINE
  5
162
330
72
100
AcDbEntity
  8
DV1_Default
  6
Continuous
 62
     7
100
AcDbLine
 10
25.5442250643
 20
232.1746142052
 30
0.0
 11
25.5440039399
 21
232.1747804233
 31
0.0
  0
LINE
  5
163
330
72
100
AcDbEntity
  8
DV1_Default
  6
Continuous
 62
     7
100
AcDbLine
 10
25.3909801129
 20
232.3073965421
 30
0.0
 11
25.5442244565
 21
232.1746146621
 31
0.0
  0
LINE
  5
164
330
72
100
AcDbEntity
  8
DV1_Default
  6
Continuous
 62
     7
100
AcDbLine
 10
25.2581369491
 20
232.4605039154
 30
0.0
 11
25.3911472425
 21
232.3075653041
 31
0.0
  0
LINE
  5
165
330
72
100
AcDbEntity
  8
DV1_Default
  6
Continuous
 62
     7
100
AcDbLine
 10
25.2581359423
 20
232.4605052514
 30
0.0
 11
25.2580628661
 21
232.4606021991
 31
0.0
  0
ARC
  5
166
330
72
100
AcDbEntity
  8
DV1_Default
  6
Continuous
 62
     7
100
AcDbCircle
 10
26.8141663148
 20
233.435033462
 30
0.0
 40
1.835730876899716
100
AcDbArc
 50
198.0038356897
 51
199.2783004345
  0
ARC
  5
167
330
72
100
AcDbEntity
  8
DV1_Default
  6
Continuous
 62
     7
100
AcDbCircle
 10
26.8141663148
 20
233.435033462
 30
0.0
 40
1.835730876899716
100
AcDbArc
 50
207.4418120947
 51
212.0578220483
  0
LINE
  5
168
330
72
100
AcDbEntity
  8
DV1_Default
  6
Continuous
 62
     7
100
AcDbLine
 10
25.0681695217
 20
232.8675961187
 30
0.0
 11
25.0681401215
 21
232.8676877577
 31
0.0
  0
ARC
  5
169
330
72
100
AcDbEntity
  8
DV1_Default
  6
Continuous
 62
     7
100
AcDbCircle
 10
75.2736710316
 20
249.2213430584
 30
0.0
 40
52.80171094580287
100
AcDbArc
 50
195.2217806297
 51
198.0423031099
  0
LINE
  5
16A
330
72
100
AcDbEntity
  8
DV1_Default
  6
Continuous
 62
     7
100
AcDbLine
 10
25.3913075013
 20
265.842125596
 30
0.0
 11
25.2585256212
 21
265.6888812524
 31
0.0
  0
LINE
  5
16B
330
72
100
AcDbEntity
  8
DV1_Default
  6
Continuous
 62
     7
100
AcDbLine
 10
25.5444148747
 20
265.9749687597
 30
0.0
 11
25.3914762895
 21
265.8419584925
 31
0.0
  0
LINE
  5
16C
330
72
100
AcDbEntity
  8
DV1_Default
  6
Continuous
 62
     7
100
AcDbLine
 10
58.9260365553
 20
265.8417982076
 30
0.0
 11
58.7727922117
 21
265.9745800877
 31
0.0
  0
LINE
  5
16D
330
72
100
AcDbEntity
  8
DV1_Default
  6
Continuous
 62
     7
100
AcDbLine
 10
59.0588797189
 20
265.6886908342
 30
0.0
 11
58.9258694518
 21
265.8416294193
 31
0.0
  0
SPLINE
  5
16E
330
72
100
AcDbEntity
  8
DV1_Default
  6
Continuous
 62
     7
100
AcDbSpline
210
0.0
220
0.0
230
1.0
 70
     8
 71
     3
 72
     8
 73
     4
 74
     0
 42
0.0000067642048999
 43
0.0000000001
 40
0.0
 40
0.0
 40
0.0
 40
0.0
 40
1.0
 40
1.0
 40
1.0
 40
1.0
 10
59.24848937427991
 20
265.2815347005321
 30
0.0
 10
59.24906870052425
 20
265.2817179929609
 30
0.0
 10
59.24953819116956
 20
265.2818659383111
 30
0.0
 10
59.24989939218472
 20
265.2819790262075
 30
0.0
  0
SPLINE
  5
16F
330
72
100
AcDbEntity
  8
DV1_Default
  6
Continuous
 62
     7
100
AcDbSpline
210
0.0
220
0.0
230
1.0
 70
     8
 71
     3
 72
     8
 73
     4
 74
     0
 42
0.0000068055187867
 43
0.0000000001
 40
0.0
 40
0.0
 40
0.0
 40
0.0
 40
1.0
 40
1.0
 40
1.0
 40
1.0
 10
59.24982646247843
 20
232.8671114923349
 30
0.0
 10
59.24946992122702
 20
232.8672274204512
 30
0.0
 10
59.24900447467285
 20
232.8673782160125
 30
0.0
 10
59.24842859867352
 20
232.86756437145
 30
0.0
  0
SPLINE
  5
170
330
72
100
AcDbEntity
  8
DV1_Default
  6
Continuous
 62
     7
100
AcDbSpline
210
0.0
220
0.0
230
1.0
 70
     8
 71
     3
 72
     8
 73
     4
 74
     0
 42
0.0000001431895404
 43
0.0000000001
 40
0.0
 40
0.0
 40
0.0
 40
0.0
 40
1.0
 40
1.0
 40
1.0
 40
1.0
 10
59.08046291281059
 20
232.4896756210178
 30
0.0
 10
59.09496416939285
 20
232.5101713795938
 30
0.0
 10
59.10694429094999
 20
232.5300756762619
 30
0.0
 10
59.11632506831531
 20
232.5494200705342
 30
0.0
  0
SPLINE
  5
171
330
72
100
AcDbEntity
  8
DV1_Default
  6
Continuous
 62
     7
100
AcDbSpline
210
0.0
220
0.0
230
1.0
 70
     8
 71
     3
 72
    15
 73
    11
 74
     0
 42
0.0000000321862194
 43
0.0000000001
 40
0.0
 40
0.0
 40
0.0
 40
0.0
 40
0.1346448923065384
 40
0.266364076845285
 40
0.3986554083256777
 40
0.5350089608689448
 40
0.6592333402056765
 40
0.7812937430502224
 40
0.8930691549927959
 40
1.0
 40
1.0
 40
1.0
 40
1.0
 10
58.8685790656726
 20
232.6429642894696
 30
0.0
 10
58.87698351972493
 20
232.635502215497
 30
0.0
 10
58.89414589329635
 20
232.6205632495496
 30
0.0
 10
58.92474855662254
 20
232.6104981873449
 30
0.0
 10
58.95828522986603
 20
232.6104103298132
 30
0.0
 10
58.99327324943829
 20
232.6203698275112
 30
0.0
 10
59.02841221727816
 20
232.6387792229721
 30
0.0
 10
59.06151232327626
 20
232.6649291156083
 30
0.0
 10
59.09263037134342
 20
232.6968305974491
 30
0.0
 10
59.11102847118153
 20
232.7233894217478
 30
0.0
 10
59.12017426500664
 20
232.736325889979
 30
0.0
  0
SPLINE
  5
172
330
72
100
AcDbEntity
  8
DV1_Default
  6
Continuous
 62
     7
100
AcDbSpline
210
0.0
220
0.0
230
1.0
 70
     8
 71
     3
 72
     8
 73
     4
 74
     0
 42
0.0000001432211144
 43
0.0000000001
 40
0.0
 40
0.0
 40
0.0
 40
0.0
 40
1.0
 40
1.0
 40
1.0
 40
1.0
 10
58.74317324765954
 20
232.1524181828687
 30
0.0
 10
58.72266610704399
 20
232.137939431139
 30
0.0
 10
58.70275583438377
 20
232.1259793888726
 30
0.0
 10
58.68340886262784
 20
232.1166187885486
 30
0.0
  0
ARC
  5
173
330
72
100
AcDbEntity
  8
DV1_Default
  6
Continuous
 62
     7
100
AcDbCircle
 10
54.0478631782
 20
230.6355205099
 30
0.0
 40
4.523444632415634
100
AcDbArc
 50
17.3335014288
 51
17.3522269846
  0
SPLINE
  5
174
330
72
100
AcDbEntity
  8
DV1_Default
  6
Continuous
 62
     7
100
AcDbSpline
210
0.0
220
0.0
230
1.0
 70
     8
 71
     3
 72
     8
 73
     4
 74
     0
 42
0.0000068055162168
 43
0.0000000001
 40
0.0
 40
0.0
 40
0.0
 40
0.0
 40
1.0
 40
1.0
 40
1.0
 40
1.0
 10
25.9510224430409
 20
231.9832792531677
 30
0.0
 10
25.95113837048208
 20
231.9836357948271
 30
0.0
 10
25.95128916536894
 20
231.9841012417944
 30
0.0
 10
25.95147532013284
 20
231.9846771182116
 30
0.0
  0
SPLINE
  5
175
330
72
100
AcDbEntity
  8
DV1_Default
  6
Continuous
 62
     7
100
AcDbSpline
210
0.0
220
0.0
230
1.0
 70
     8
 71
     3
 72
     8
 73
     4
 74
     0
 42
0.000000143189517
 43
0.0000000001
 40
0.0
 40
0.0
 40
0.0
 40
0.0
 40
1.0
 40
1.0
 40
1.0
 40
1.0
 10
25.57358655664564
 20
232.1526428133531
 30
0.0
 10
25.59408231872823
 20
232.1381415533334
 30
0.0
 10
25.61398661850726
 20
232.1261614296582
 30
0.0
 10
25.63333101554311
 20
232.1167806515307
 30
0.0
  0
SPLINE
  5
176
330
72
100
AcDbEntity
  8
DV1_Default
  6
Continuous
 62
     7
100
AcDbSpline
210
0.0
220
0.0
230
1.0
 70
     8
 71
     3
 72
    15
 73
    11
 74
     0
 42
0.0000000321862156
 43
0.0000000001
 40
0.0
 40
0.0
 40
0.0
 40
0.0
 40
0.1346448923465458
 40
0.266364076901527
 40
0.3986554083691088
 40
0.5350089608673718
 40
0.6592333402202786
 40
0.7812937430521588
 40
0.8930691550043611
 40
1.0
 40
1.0
 40
1.0
 40
1.0
 10
25.72687517621126
 20
232.3645267110949
 30
0.0
 10
25.71941310421995
 20
232.3561222551857
 30
0.0
 10
25.70447414216052
 20
232.3389598779692
 30
0.0
 10
25.694409085908
 20
232.3083572090623
 30
0.0
 10
25.69432123425676
 20
232.2748205303085
 30
0.0
 10
25.70428073750656
 20
232.2398325055328
 30
0.0
 10
25.72269013805955
 20
232.2046935329194
 30
0.0
 10
25.74884003499752
 20
232.1715934228897
 30
0.0
 10
25.78074152046663
 20
232.1404753714228
 30
0.0
 10
25.80730034647612
 20
232.1220772699784
 30
0.0
 10
25.82023681553315
 20
232.1129314753761
 30
0.0
  0
SPLINE
  5
177
330
72
100
AcDbEntity
  8
DV1_Default
  6
Continuous
 62
     7
100
AcDbSpline
210
0.0
220
0.0
230
1.0
 70
     8
 71
     3
 72
     8
 73
     4
 74
     0
 42
0.0000001432211554
 43
0.0000000001
 40
0.0
 40
0.0
 40
0.0
 40
0.0
 40
1.0
 40
1.0
 40
1.0
 40
1.0
 10
25.23632911820637
 20
232.4899324936498
 30
0.0
 10
25.22185037205298
 20
232.5104396282793
 30
0.0
 10
25.20989033351702
 20
232.5303498954771
 30
0.0
 10
25.20052973501636
 20
232.5496968622367
 30
0.0
  0
SPLINE
  5
178
330
72
100
AcDbEntity
  8
DV1_Default
  6
Continuous
 62
     7
100
AcDbSpline
210
0.0
220
0.0
230
1.0
 70
     8
 71
     3
 72
     8
 73
     4
 74
     0
 42
0.0000067642026249
 43
0.0000000001
 40
0.0
 40
0.0
 40
0.0
 40
0.0
 40
1.0
 40
1.0
 40
1.0
 40
1.0
 10
25.06852729186532
 20
232.8676600682174
 30
0.0
 10
25.06794796580529
 20
232.8674767746335
 30
0.0
 10
25.06747847534909
 20
232.867328828131
 30
0.0
 10
25.06711727452771
 20
232.867215739085
 30
0.0
  0
SPLINE
  5
179
330
72
100
AcDbEntity
  8
DV1_Default
  6
Continuous
 62
     7
100
AcDbSpline
210
0.0
220
0.0
230
1.0
 70
     8
 71
     3
 72
     8
 73
     4
 74
     0
 42
0.0000068055217546
 43
0.0000000001
 40
0.0
 40
0.0
 40
0.0
 40
0.0
 40
1.0
 40
1.0
 40
1.0
 40
1.0
 10
25.06719020605044
 20
265.2820832728863
 30
0.0
 10
25.06754674745362
 20
265.2819673459099
 30
0.0
 10
25.06801219415377
 20
265.2818165514917
 30
0.0
 10
25.06858807029315
 20
265.2816303972002
 30
0.0
  0
SPLINE
  5
17A
330
72
100
AcDbEntity
  8
DV1_Default
  6
Continuous
 62
     7
100
AcDbSpline
210
0.0
220
0.0
230
1.0
 70
     8
 71
     3
 72
     8
 73
     4
 74
     0
 42
0.000000143189787
 43
0.0000000001
 40
0.0
 40
0.0
 40
0.0
 40
0.0
 40
1.0
 40
1.0
 40
1.0
 40
1.0
 10
25.23655367104267
 20
265.6595190152656
 30
0.0
 10
25.22205244403088
 20
265.6390232911118
 30
0.0
 10
25.21007234524983
 20
265.6191190273483
 30
0.0
 10
25.20069158354446
 20
265.5997746645463
 30
0.0
  0
SPLINE
  5
17B
330
72
100
AcDbEntity
  8
DV1_Default
  6
Continuous
 62
     7
100
AcDbSpline
210
0.0
220
0.0
230
1.0
 70
     8
 71
     3
 72
    15
 73
    11
 74
     0
 42
0.0000000321862185
 43
0.0000000001
 40
0.0
 40
0.0
 40
0.0
 40
0.0
 40
0.1346448924005794
 40
0.2663640769774284
 40
0.3986554084246836
 40
0.5350089608536535
 40
0.6592333401505975
 40
0.781293743046856
 40
0.8930691549044515
 40
1.0
 40
1.0
 40
1.0
 40
1.0
 10
25.44843759783654
 20
265.5062306005561
 30
0.0
 10
25.44003314390328
 20
265.5136926706855
 30
0.0
 10
25.42287077055406
 20
265.5286316290937
 30
0.0
 10
25.39226810759241
 20
265.5386966797661
 30
0.0
 10
25.35873143473039
 20
265.5387845259095
 30
0.0
 10
25.32374341552695
 20
265.5288250174719
 30
0.0
 10
25.28860444801702
 20
265.5104156121437
 30
0.0
 10
25.25550434229569
 20
265.484265711185
 30
0.0
 10
25.22438629445367
 20
265.4523642223043
 30
0.0
 10
25.20598819472126
 20
265.4258053946933
 30
0.0
 10
25.19684240094033
 20
265.4128689248495
 30
0.0
  0
SPLINE
  5
17C
330
72
100
AcDbEntity
  8
DV1_Default
  6
Continuous
 62
     7
100
AcDbSpline
210
0.0
220
0.0
230
1.0
 70
     8
 71
     3
 72
     8
 73
     4
 74
     0
 42
0.0000001432214237
 43
0.0000000001
 40
0.0
 40
0.0
 40
0.0
 40
0.0
 40
1.0
 40
1.0
 40
1.0
 40
1.0
 10
25.57384358811465
 20
265.9967766907059
 30
0.0
 10
25.59435068503535
 20
266.0112554041606
 30
0.0
 10
25.61426091643311
 20
266.0232154180051
 30
0.0
 10
25.63360784916239
 20
266.0325760001894
 30
0.0
  0
ARC
  5
17D
330
72
100
AcDbEntity
  8
DV1_Default
  6
Continuous
 62
     7
100
AcDbCircle
 10
30.2695743117
 20
267.5138097399
 30
0.0
 40
4.52388670994153
100
AcDbArc
 50
197.3335515509
 51
197.3522752541
  0
SPLINE
  5
17E
330
72
100
AcDbEntity
  8
DV1_Default
  6
Continuous
 62
     7
100
AcDbSpline
210
0.0
220
0.0
230
1.0
 70
     8
 71
     3
 72
     8
 73
     4
 74
     0
 42
0.0000068055243276
 43
0.0000000001
 40
0.0
 40
0.0
 40
0.0
 40
0.0
 40
1.0
 40
1.0
 40
1.0
 40
1.0
 10
58.36599422359028
 20
266.1659155095941
 30
0.0
 10
58.36587829593868
 20
266.1655589685991
 30
0.0
 10
58.36572750084596
 20
266.1650935223122
 30
0.0
 10
58.3655413458809
 20
266.1645176465912
 30
0.0
  0
SPLINE
  5
17F
330
72
100
AcDbEntity
  8
DV1_Default
  6
Continuous
 62
     7
100
AcDbSpline
210
0.0
220
0.0
230
1.0
 70
     8
 71
     3
 72
     8
 73
     4
 74
     0
 42
0.0000001431898103
 43
0.0000000001
 40
0.0
 40
0.0
 40
0.0
 40
0.0
 40
1.0
 40
1.0
 40
1.0
 40
1.0
 10
58.74342995094073
 20
265.9965520550872
 30
0.0
 10
58.72293423028057
 20
266.0110532786747
 30
0.0
 10
58.70302996961614
 20
266.0230333753476
 30
0.0
 10
58.6836856095663
 20
266.0324141362973
 30
0.0
  0
SPLINE
  5
180
330
72
100
AcDbEntity
  8
DV1_Default
  6
Continuous
 62
     7
100
AcDbSpline
210
0.0
220
0.0
230
1.0
 70
     8
 71
     3
 72
    15
 73
    11
 74
     0
 42
0.0000000321862223
 43
0.0000000001
 40
0.0
 40
0.0
 40
0.0
 40
0.0
 40
0.1346448923548967
 40
0.2663640769136165
 40
0.3986554083753973
 40
0.5350089608541627
 40
0.6592333401512286
 40
0.7812937430450063
 40
0.8930691549147732
 40
1.0
 40
1.0
 40
1.0
 40
1.0
 10
58.59014148729788
 20
265.7846681789308
 30
0.0
 10
58.59760355940749
 20
265.7930726310045
 30
0.0
 10
58.61254252170313
 20
265.8102350007082
 30
0.0
 10
58.62260757832719
 20
265.8408376580887
 30
0.0
 10
58.62269543035129
 20
265.8743743254407
 30
0.0
 10
58.61273592746583
 20
265.9093623394425
 30
0.0
 10
58.59432652723271
 20
265.9445013021792
 30
0.0
 10
58.56817663057027
 20
265.9776014038711
 30
0.0
 10
58.53627514531731
 20
266.0087194483116
 30
0.0
 10
58.50971631941803
 20
266.0271175464379
 30
0.0
 10
58.49677985040382
 20
266.0362633394423
 30
0.0
  0
SPLINE
  5
181
330
72
100
AcDbEntity
  8
DV1_Default
  6
Continuous
 62
     7
100
AcDbSpline
210
0.0
220
0.0
230
1.0
 70
     8
 71
     3
 72
     8
 73
     4
 74
     0
 42
0.0000001432213827
 43
0.0000000001
 40
0.0
 40
0.0
 40
0.0
 40
0.0
 40
1.0
 40
1.0
 40
1.0
 40
1.0
 10
59.08068762605787
 20
265.6592621531845
 30
0.0
 10
59.09516634508299
 20
265.638755050283
 30
0.0
 10
59.10712636265407
 20
265.6188448134282
 30
0.0
 10
59.11648694665939
 20
265.5994978757074
 30
0.0
  0
SPLINE
  5
182
330
72
100
AcDbEntity
  8
DV1_Default
  6
Continuous
 62
     7
100
AcDbSpline
210
0.0
220
0.0
230
1.0
 70
     8
 71
     3
 72
    25
 73
    21
 74
     0
 42
0.0000000013778599
 43
0.0000000001
 40
0.0
 40
0.0
 40
0.0
 40
0.0
 40
0.0278716323321168
 40
0.0557567179283418
 40
0.1120968549296789
 40
0.1696303989966126
 40
0.2284569526962316
 40
0.2883392274415326
 40
0.3498511972910669
 40
0.4146035023382542
 40
0.4834622639695424
 40
0.5549111499392132
 40
0.6263339494638288
 40
0.6960602465382485
 40
0.7632792511147557
 40
0.8273929730347337
 40
0.8881042199126054
 40
0.945463490100293
 40
0.9728272360758319
 40
1.0
 40
1.0
 40
1.0
 40
1.0
 10
42.1585069872452
 20
232.505953423415
 30
0.0
 10
42.25100615934925
 20
232.5050103257071
 30
0.0
 10
42.43604915167489
 20
232.5031230964285
 30
0.0
 10
42.80436964175098
 20
232.4826270657601
 30
0.0
 10
43.25754741353345
 20
232.4328845203555
 30
0.0
 10
43.76588412168979
 20
232.3320211728223
 30
0.0
 10
44.22073061092473
 20
232.1906519157681
 30
0.0
 10
44.60411679860407
 20
232.0102968440313
 30
0.0
 10
44.90355985786841
 20
231.7922464982417
 30
0.0
 10
45.10617993314586
 20
231.5366406600845
 30
0.0
 10
45.19341754113461
 20
231.2475828132484
 30
0.0
 10
45.14956795731743
 20
230.9385215969479
 30
0.0
 10
44.97104866023948
 20
230.6294154192641
 30
0.0
 10
44.67022280982605
 20
230.3404404473684
 30
0.0
 10
44.26769705345617
 20
230.0879206154812
 30
0.0
 10
43.78819131154258
 20
229.8845384760792
 30
0.0
 10
43.26007086465066
 20
229.73827253094
 30
0.0
 10
42.79702427944959
 20
229.6665677249874
 30
0.0
 10
42.42969652424534
 20
229.6378472754091
 30
0.0
 10
42.24869302190626
 20
229.6352629579128
 30
0.0
 10
42.15850819978467
 20
229.6339919277885
 30
0.0
  0
SPLINE
  5
183
330
72
100
AcDbEntity
  8
DV1_Default
  6
Continuous
 62
     7
100
AcDbSpline
210
0.0
220
0.0
230
1.0
 70
     8
 71
     3
 72
    12
 73
     8
 74
     0
 42
0.0000000024731511
 43
0.0000000001
 40
0.0
 40
0.0
 40
0.0
 40
0.0
 40
0.1574381047246368
 40
0.1574381047246368
 40
0.5787190523623184
 40
0.5787190523623184
 40
1.0
 40
1.0
 40
1.0
 40
1.0
 10
44.74953452193795
 20
231.8914986835915
 30
0.0
 10
44.84028741099812
 20
231.7653050286312
 30
0.0
 10
44.89498618312933
 20
231.6260257260435
 30
0.0
 10
44.9363040080299
 20
231.0688952041557
 30
0.0
 10
44.60275505196226
 20
230.6189025566301
 30
0.0
 10
43.52080332126734
 20
230.0110650659548
 30
0.0
 10
42.80274472486144
 20
229.857394739606
 30
0.0
 10
42.15850602961098
 20
229.8577906732737
 30
0.0
  0
SPLINE
  5
184
330
72
100
AcDbEntity
  8
DV1_Default
  6
Continuous
 62
     7
100
AcDbSpline
210
0.0
220
0.0
230
1.0
 70
     8
 71
     3
 72
    12
 73
     8
 74
     0
 42
0.0000000024757321
 43
0.0000000001
 40
0.0
 40
0.0
 40
0.0
 40
0.0
 40
0.421905928835305
 40
0.421905928835305
 40
0.84381185767061
 40
0.84381185767061
 40
0.9999999999999999
 40
0.9999999999999999
 40
0.9999999999999999
 40
0.9999999999999999
 10
42.15850602961098
 20
229.8577906732737
 30
0.0
 10
41.51250565494919
 20
229.8573920271673
 30
0.0
 10
40.79534991939288
 20
230.0113017725564
 30
0.0
 10
39.71352661255894
 20
230.619550044357
 30
0.0
 10
39.38051499715817
 20
231.0697221991494
 30
0.0
 10
39.42203108706552
 20
231.6249447506647
 30
0.0
 10
39.47588636900174
 20
231.7629521286876
 30
0.0
 10
39.56515017642362
 20
231.8881477961522
 30
0.0
  0
SPLINE
  5
185
330
72
100
AcDbEntity
  8
DV1_Default
  6
Continuous
 62
     7
100
AcDbSpline
210
0.0
220
0.0
230
1.0
 70
     8
 71
     3
 72
    25
 73
    21
 74
     0
 42
0.0000000013778631
 43
0.0000000001
 40
0.0
 40
0.0
 40
0.0
 40
0.0
 40
0.0272213428885749
 40
0.0546369400923215
 40
0.1120286316905291
 40
0.1727345991204445
 40
0.2368492052460839
 40
0.3041174433717989
 40
0.3739005557142298
 40
0.4452839275297805
 40
0.516647999868803
 40
0.5855126277518895
 40
0.6503030311146489
 40
0.7117480768456818
 40
0.7715290461344633
 40
0.8303438183858537
 40
0.8879225844640248
 40
0.9442967777048742
 40
0.9721610590105858
 40
1.0
 40
1.0
 40
1.0
 40
1.0
 10
42.15850819978467
 20
229.6339919277885
 30
0.0
 10
42.06816208553903
 20
229.635268107016
 30
0.0
 10
41.88682513805857
 20
229.6378628980967
 30
0.0
 10
41.51907395475765
 20
229.6666664433579
 30
0.0
 10
41.05583643217103
 20
229.7385072731
 30
0.0
 10
40.52777301142812
 20
229.8849062833834
 30
0.0
 10
40.04832818840575
 20
230.0884219048106
 30
0.0
 10
39.64582609328269
 20
230.3411542357145
 30
0.0
 10
39.3452855522027
 20
230.6302890726103
 30
0.0
 10
39.16719091085717
 20
230.9393139778999
 30
0.0
 10
39.12364678599386
 20
231.2481897223136
 30
0.0
 10
39.21113661633785
 20
231.5371574997022
 30
0.0
 10
39.41392903824475
 20
231.7926943494012
 30
0.0
 10
39.71335904534703
 20
232.010535110985
 30
0.0
 10
40.09642891085096
 20
232.1906776746955
 30
0.0
 10
40.55106278553471
 20
232.332010190909
 30
0.0
 10
41.05960234199271
 20
232.4329173579065
 30
0.0
 10
41.51299077007926
 20
232.4826510905719
 30
0.0
 10
41.88124949794535
 20
232.5031391313798
 30
0.0
 10
42.06611585706729
 20
232.5050158034819
 30
0.0
 10
42.1585069872452
 20
232.505953423415
 30
0.0
  0
SPLINE
  5
186
330
72
100
AcDbEntity
  8
DV1_Default
  6
Continuous
 62
     7
100
AcDbSpline
210
0.0
220
0.0
230
1.0
 70
     8
 71
     3
 72
    12
 73
     8
 74
     0
 42
0.0000000055390817
 43
0.0000000001
 40
0.0
 40
0.0
 40
0.0
 40
0.0
 40
0.1573062055896818
 40
0.4307028061715966
 40
0.7194035405628757
 40
0.8599988057550102
 40
1.0
 40
1.0
 40
1.0
 40
1.0
 10
40.40034424565493
 20
232.2751445985137
 30
0.0
 10
40.47471671797003
 20
232.2423848227904
 30
0.0
 10
40.6884677794606
 20
232.1574208814535
 30
0.0
 10
41.08808391674212
 20
232.0407967917671
 30
0.0
 10
41.52154127974454
 20
231.968311174027
 30
0.0
 10
41.88579825914419
 20
231.9374545457568
 30
0.0
 10
42.06773221338545
 20
231.9345974771311
 30
0.0
 10
42.1585077700714
 20
231.9331719671972
 30
0.0
  0
SPLINE
  5
187
330
72
100
AcDbEntity
  8
DV1_Default
  6
Continuous
 62
     7
100
AcDbSpline
210
0.0
220
0.0
230
1.0
 70
     8
 71
     3
 72
    12
 73
     8
 74
     0
 42
0.0000000055414339
 43
0.0000000001
 40
0.0
 40
0.0
 40
0.0
 40
0.0
 40
0.1386190389995487
 40
0.2778317554751607
 40
0.5634906335861667
 40
0.8345228852774628
 40
1.0
 40
1.0
 40
1.0
 40
1.0
 10
42.1585077700714
 20
231.9331719671972
 30
0.0
 10
42.24834375770364
 20
231.9345685981858
 30
0.0
 10
42.42840048244262
 20
231.9373678414141
 30
0.0
 10
42.7888732313509
 20
231.9675802119848
 30
0.0
 10
43.21839012198011
 20
232.0386132866402
 30
0.0
 10
43.62064445192328
 20
232.1546220259643
 30
0.0
 10
43.83777060142545
 20
232.2404091954567
 30
0.0
 10
43.91599385007287
 20
232.2748422818904
 30
0.0
  0
ARC
  5
188
330
72
100
AcDbEntity
  8
DV1_Default
  6
Continuous
 62
     7
100
AcDbCircle
 10
9.1878628791
 20
248.9493121872
 30
0.0
 40
52.65631424479694
100
AcDbArc
 50
5.8894180838
 51
18.0688159274
  0
ARC
  5
189
330
72
100
AcDbEntity
  8
DV1_Default
  6
Continuous
 62
     7
100
AcDbCircle
 10
9.0757116323
 20
249.2168633671
 30
0.0
 40
52.76834812533845
100
AcDbArc
 50
341.9512956786
 51
354.1043170609
  0
ARC
  5
18A
330
72
100
AcDbEntity
  8
DV1_Default
  6
Continuous
 62
     7
100
AcDbCircle
 10
57.1624166348
 20
233.5581129304
 30
0.0
 40
2.198773887367834
100
AcDbArc
 50
332.6461480834
 51
341.7378090859
  0
LINE
  5
18B
330
72
100
AcDbEntity
  8
DV1_Default
  6
Continuous
 62
     7
100
AcDbLine
 10
59.0460003995
 20
232.4462232358
 30
0.0
 11
59.0853620607
 21
232.496804275
 31
0.0
  0
ARC
  5
18C
330
72
100
AcDbEntity
  8
DV1_Default
  6
Continuous
 62
     7
100
AcDbCircle
 10
58.0976733247
 20
233.1482743972
 30
0.0
 40
1.179915282584984
100
AcDbArc
 50
314.3665032155
 51
323.4872731473
  0
ARC
  5
18D
330
72
100
AcDbEntity
  8
DV1_Default
  6
Continuous
 62
     7
100
AcDbCircle
 10
58.0947858765
 20
233.124791456
 30
0.0
 40
1.165338851471577
100
AcDbArc
 50
306.6444236292
 51
315.6544051809
  0
LINE
  5
18E
330
72
100
AcDbEntity
  8
DV1_Default
  6
Continuous
 62
     7
100
AcDbLine
 10
58.772558411
 20
232.1759587806
 30
0.0
 11
58.79031505
 21
232.189776051
 31
0.0
  0
LINE
  5
18F
330
72
100
AcDbEntity
  8
DV1_Default
  6
Continuous
 62
     7
100
AcDbLine
 10
58.7362756251
 20
232.1477254498
 30
0.0
 11
58.772558411
 21
232.1759587806
 31
0.0
  0
ARC
  5
190
330
72
100
AcDbEntity
  8
DV1_Default
  6
Continuous
 62
     7
100
AcDbCircle
 10
57.6736788048
 20
234.0741403322
 30
0.0
 40
2.20245904331315
100
AcDbArc
 50
288.2636925481
 51
297.3337662424
  0
ARC
  5
191
330
72
100
AcDbEntity
  8
DV1_Default
  6
Continuous
 62
     7
100
AcDbCircle
 10
42.0332231445
 20
282.0452428119
 30
0.0
 40
52.65631421924837
100
AcDbArc
 50
270.1363625657
 51
288.0688159281
  0
ARC
  5
192
330
72
100
AcDbEntity
  8
DV1_Default
  6
Continuous
 62
     7
100
AcDbCircle
 10
42.3007743254
 20
282.1573940942
 30
0.0
 40
52.76834813740085
100
AcDbArc
 50
251.9512956719
 51
269.8454907232
  0
ARC
  5
193
330
72
100
AcDbEntity
  8
DV1_Default
  6
Continuous
 62
     7
100
AcDbCircle
 10
26.6420238268
 20
234.0706889332
 30
0.0
 40
2.198773730040604
100
AcDbArc
 50
242.6461473814
 51
251.7378092277
  0
LINE
  5
194
330
72
100
AcDbEntity
  8
DV1_Default
  6
Continuous
 62
     7
100
AcDbLine
 10
25.5301341756
 20
232.1871053244
 30
0.0
 11
25.5807152093
 21
232.1477436662
 31
0.0
  0
ARC
  5
195
330
72
100
AcDbEntity
  8
DV1_Default
  6
Continuous
 62
     7
100
AcDbCircle
 10
26.2321853641
 20
233.1354324003
 30
0.0
 40
1.179915299542974
100
AcDbArc
 50
224.3665032098
 51
233.4872721246
  0
ARC
  5
196
330
72
100
AcDbEntity
  8
DV1_Default
  6
Continuous
 62
     7
100
AcDbCircle
 10
26.2087023729
 20
233.1383197983
 30
0.0
 40
1.165338797678191
100
AcDbArc
 50
216.6444228275
 51
225.6544051799
  0
LINE
  5
197
330
72
100
AcDbEntity
  8
DV1_Default
  6
Continuous
 62
     7
100
AcDbLine
 10
25.2598697396
 20
232.4605472987
 30
0.0
 11
25.2736870014
 21
232.44279067
 31
0.0
  0
LINE
  5
198
330
72
100
AcDbEntity
  8
DV1_Default
  6
Continuous
 62
     7
100
AcDbLine
 10
25.2316363842
 20
232.4968301178
 30
0.0
 11
25.2598697396
 21
232.4605472987
 31
0.0
  0
ARC
  5
199
330
72
100
AcDbEntity
  8
DV1_Default
  6
Continuous
 62
     7
100
AcDbCircle
 10
27.1580514672
 20
233.5594269802
 30
0.0
 40
2.202459238451454
100
AcDbArc
 50
198.2636927433
 51
207.3337653683
  0
ARC
  5
19A
330
72
100
AcDbEntity
  8
DV1_Default
  6
Continuous
 62
     7
100
AcDbCircle
 10
75.129153723
 20
249.1998825593
 30
0.0
 40
52.65631417697971
100
AcDbArc
 50
185.8896661401
 51
198.068815926
  0
ARC
  5
19B
330
72
100
AcDbEntity
  8
DV1_Default
  6
Continuous
 62
     7
100
AcDbCircle
 10
75.2413050442
 20
248.9323313957
 30
0.0
 40
52.76834813428709
100
AcDbArc
 50
161.9512956751
 51
174.1041027187
  0
ARC
  5
19C
330
72
100
AcDbEntity
  8
DV1_Default
  6
Continuous
 62
     7
100
AcDbCircle
 10
27.1546004295
 20
264.5910816753
 30
0.0
 40
2.198774313172644
100
AcDbArc
 50
152.6461500672
 51
161.7378083662
  0
LINE
  5
19D
330
72
100
AcDbEntity
  8
DV1_Default
  6
Continuous
 62
     7
100
AcDbLine
 10
25.2710162007
 20
265.7029714285
 30
0.0
 11
25.2316545217
 21
265.6523903581
 31
0.0
  0
ARC
  5
19E
330
72
100
AcDbEntity
  8
DV1_Default
  6
Continuous
 62
     7
100
AcDbCircle
 10
26.2193434599
 20
265.0009202613
 30
0.0
 40
1.179915434142231
100
AcDbArc
 50
134.3665038881
 51
143.4872782495
  0
ARC
  5
19F
330
72
100
AcDbEntity
  8
DV1_Default
  6
Continuous
 62
     7
100
AcDbCircle
 10
26.2222306945
 20
265.0244033853
 30
0.0
 40
1.165338722868416
100
AcDbArc
 50
126.6444195743
 51
135.654404743
  0
LINE
  5
1A0
330
72
100
AcDbEntity
  8
DV1_Default
  6
Continuous
 62
     7
100
AcDbLine
 10
25.5444582495
 20
265.9732359619
 30
0.0
 11
25.5267016639
 21
265.9594187363
 31
0.0
  0
LINE
  5
1A1
330
72
100
AcDbEntity
  8
DV1_Default
  6
Continuous
 62
     7
100
AcDbLine
 10
25.5807412167
 20
266.0014694271
 30
0.0
 11
25.5444582495
 21
265.9732359619
 31
0.0
  0
ARC
  5
1A2
330
72
100
AcDbEntity
  8
DV1_Default
  6
Continuous
 62
     7
100
AcDbCircle
 10
26.6433381417
 20
264.0750537146
 30
0.0
 40
2.202459810394438
100
AcDbArc
 50
108.2636935906
 51
117.3337627427
  0
ARC
  5
1A3
330
72
100
AcDbEntity
  8
DV1_Default
  6
Continuous
 62
     7
100
AcDbCircle
 10
42.2837935318
 20
216.1039519069
 30
0.0
 40
52.6563142653041
100
AcDbArc
 50
90.1363624967
 51
108.0688159204
  0
ARC
  5
1A4
330
72
100
AcDbEntity
  8
DV1_Default
  6
Continuous
 62
     7
100
AcDbCircle
 10
42.0162423476
 20
215.9918006672
 30
0.0
 40
52.76834813850544
100
AcDbArc
 50
71.9512956803
 51
89.845490651
  0
ARC
  5
1A5
330
72
100
AcDbEntity
  8
DV1_Default
  6
Continuous
 62
     7
100
AcDbCircle
 10
57.6749925723
 20
264.0785051401
 30
0.0
 40
2.198774468726094
100
AcDbArc
 50
62.6461507653
 51
71.7378082283
  0
LINE
  5
1A6
330
72
100
AcDbEntity
  8
DV1_Default
  6
Continuous
 62
     7
100
AcDbLine
 10
58.7868823684
 20
265.9620895231
 30
0.0
 11
58.7363012924
 21
266.0014512052
 31
0.0
  0
ARC
  5
1A7
330
72
100
AcDbEntity
  8
DV1_Default
  6
Continuous
 62
     7
100
AcDbCircle
 10
58.0848312279
 20
265.0137622648
 30
0.0
 40
1.17991541762684
100
AcDbArc
 50
44.3665038967
 51
53.4872792693
  0
ARC
  5
1A8
330
72
100
AcDbEntity
  8
DV1_Default
  6
Continuous
 62
     7
100
AcDbCircle
 10
58.1083143021
 20
265.0108749801
 30
0.0
 40
1.165338776910807
100
AcDbArc
 50
36.6444203767
 51
45.654404743
  0
LINE
  5
1A9
330
72
100
AcDbEntity
  8
DV1_Default
  6
Continuous
 62
     7
100
AcDbLine
 10
59.0571469209
 20
265.6886474601
 30
0.0
 11
59.0433296867
 21
265.7064040561
 31
0.0
  0
LINE
  5
1AA
330
72
100
AcDbEntity
  8
DV1_Default
  6
Continuous
 62
     7
100
AcDbLine
 10
59.0853803615
 20
265.6523645261
 30
0.0
 11
59.0571469209
 21
265.6886474601
 31
0.0
  0
ARC
  5
1AB
330
72
100
AcDbEntity
  8
DV1_Default
  6
Continuous
 62
     7
100
AcDbCircle
 10
57.1589648485
 20
264.5897676429
 30
0.0
 40
2.202459616356309
100
AcDbArc
 50
18.2636933969
 51
27.3337636138
  0
ARC
  5
1AC
330
72
100
AcDbEntity
  8
DV1_Default
  6
Continuous
 62
     7
100
AcDbCircle
 10
7.873883066
 20
248.8941153189
 30
0.0
 40
56.78331852836786
100
AcDbArc
 50
5.5157338938
 51
19.2772262625
  0
ARC
  5
1AD
330
72
100
AcDbEntity
  8
DV1_Default
  6
Continuous
 62
     7
100
AcDbCircle
 10
7.8851461151
 20
249.2531440864
 30
0.0
 40
56.77204943026796
100
AcDbArc
 50
340.7208699872
 51
354.4848972452
  0
LINE
  5
1AE
330
72
100
AcDbEntity
  8
DV1_Default
  6
Continuous
 62
     7
100
AcDbLine
 10
61.4174355115
 20
230.3467212311
 30
0.0
 11
61.4734916154
 21
230.5086829563
 31
0.0
  0
ARC
  5
1AF
330
72
100
AcDbEntity
  8
DV1_Default
  6
Continuous
 62
     7
100
AcDbCircle
 10
58.2744840336
 20
231.3469264369
 30
0.0
 40
3.29826536930245
100
AcDbArc
 50
339.2832261679
 51
342.3469757288
  0
LINE
  5
1B0
330
72
100
AcDbEntity
  8
DV1_Default
  6
Continuous
 62
     7
100
AcDbLine
 10
61.3598901776
 20
230.180084142
 30
0.0
 11
61.3598605507
 21
230.1800000999
 31
0.0
  0
ARC
  5
1B1
330
72
100
AcDbEntity
  8
DV1_Default
  6
Continuous
 62
     7
100
AcDbCircle
 10
66.7975810936
 20
228.37446788
 30
0.0
 40
5.7298403662024
100
AcDbArc
 50
159.8665702124
 51
161.6303031129
  0
ARC
  5
1B2
330
72
100
AcDbEntity
  8
DV1_Default
  6
Continuous
 62
     7
100
AcDbCircle
 10
52.9744674915
 20
233.3481552669
 30
0.0
 40
8.961007690728193
100
AcDbArc
 50
340.4308859694
 51
341.5213157146
  0
LINE
  5
1B3
330
72
100
AcDbEntity
  8
DV1_Default
  6
Continuous
 62
     7
100
AcDbLine
 10
61.4734886186
 20
267.6405162454
 30
0.0
 11
61.4174306929
 21
267.8024831067
 31
0.0
  0
SPLINE
  5
1B4
330
72
100
AcDbEntity
  8
DV1_Default
  6
Continuous
 62
     7
100
AcDbSpline
210
0.0
220
0.0
230
1.0
 70
     8
 71
     3
 72
     8
 73
     4
 74
     0
 42
0.0000001504018782
 43
0.0000000001
 40
0.0
 40
0.0
 40
0.0
 40
0.0
 40
1.0
 40
1.0
 40
1.0
 40
1.0
 10
61.41743069285123
 20
267.8024831066581
 30
0.0
 10
61.41046032800791
 20
267.82253194409
 30
0.0
 10
61.40139699900001
 20
267.8421113465054
 30
0.0
 10
61.38843183725118
 20
267.8619352504975
 30
0.0
  0
ARC
  5
1B5
330
72
100
AcDbEntity
  8
DV1_Default
  6
Continuous
 62
     7
100
AcDbCircle
 10
41.9799615298
 20
214.8012350525
 30
0.0
 40
56.77204943690622
100
AcDbArc
 50
70.7208699877
 51
89.8198036223
  0
ARC
  5
1B6
330
72
100
AcDbEntity
  8
DV1_Default
  6
Continuous
 62
     7
100
AcDbCircle
 10
42.3389902967
 20
214.7899720205
 30
0.0
 40
56.78331851749013
100
AcDbArc
 50
90.1821089352
 51
109.2772262637
  0
ARC
  5
1B7
330
72
100
AcDbEntity
  8
DV1_Default
  6
Continuous
 62
     7
100
AcDbCircle
 10
76.4318705642
 20
248.896050474
 30
0.0
 40
56.7720494356792
100
AcDbArc
 50
160.7208699876
 51
174.4847168051
  0
ARC
  5
1B8
330
72
100
AcDbEntity
  8
DV1_Default
  6
Continuous
 62
     7
100
AcDbCircle
 10
76.4431335997
 20
249.255079241
 30
0.0
 40
56.78331851978729
100
AcDbArc
 50
185.5159563584
 51
199.2772262635
  0
ARC
  5
1B9
330
72
100
AcDbEntity
  8
DV1_Default
  6
Continuous
 62
     7
100
AcDbCircle
 10
42.337055143
 20
283.3479595044
 30
0.0
 40
56.77204943195898
100
AcDbArc
 50
250.7208699873
 51
269.8198036718
  0
ARC
  5
1BA
330
72
100
AcDbEntity
  8
DV1_Default
  6
Continuous
 62
     7
100
AcDbCircle
 10
41.9780263756
 20
283.3592225496
 30
0.0
 40
56.78331852604833
100
AcDbArc
 50
270.1821089853
 51
289.2772262627
  0
SPLINE
  5
1BB
330
72
100
AcDbEntity
  8
DV1_Default
  6
Continuous
 62
     7
100
AcDbSpline
210
0.0
220
0.0
230
1.0
 70
     8
 71
     3
 72
     8
 73
     4
 74
     0
 42
0.0000001507427562
 43
0.0000000001
 40
0.0
 40
0.0
 40
0.0
 40
0.0
 40
1.0
 40
1.0
 40
1.0
 40
1.0
 10
61.38851856697189
 20
230.2873937999614
 30
0.0
 10
61.40144031508857
 20
230.3071755749553
 30
0.0
 10
61.4104799593543
 20
230.3267149906611
 30
0.0
 10
61.4174355115317
 20
230.3467212310686
 30
0.0
  0
SPLINE
  5
1BC
330
72
100
AcDbEntity
  8
DV1_Default
  6
Continuous
 62
     7
100
AcDbSpline
210
0.0
220
0.0
230
1.0
 70
     8
 71
     3
 72
     8
 73
     4
 74
     0
 42
0.0000001246030635
 43
0.0000000001
 40
0.0
 40
0.0
 40
0.0
 40
0.0
 40
1.0
 40
1.0
 40
1.0
 40
1.0
 10
61.35948523945949
 20
230.1801693900992
 30
0.0
 10
61.35077006569695
 20
230.1549008001851
 30
0.0
 10
61.33995192910739
 20
230.1303772171561
 30
0.0
 10
61.32721824504569
 20
230.1068844479793
 30
0.0
  0
SPLINE
  5
1BD
330
72
100
AcDbEntity
  8
DV1_Default
  6
Continuous
 62
     7
100
AcDbSpline
210
0.0
220
0.0
230
1.0
 70
     8
 71
     3
 72
     8
 73
     4
 74
     0
 42
0.0000001365841268
 43
0.0000000001
 40
0.0
 40
0.0
 40
0.0
 40
0.0
 40
1.0
 40
1.0
 40
1.0
 40
1.0
 10
61.12024009327575
 20
229.9029156982672
 30
0.0
 10
61.09864771265551
 20
229.8915940447566
 30
0.0
 10
61.07622225858456
 20
229.8818597747785
 30
0.0
 10
61.05318770991389
 20
229.8738501474976
 30
0.0
  0
LINE
  5
1BE
330
72
100
AcDbEntity
  8
DV1_Default
  6
Continuous
 62
     7
100
AcDbLine
 10
61.0532357899
 20
229.8737127396
 30
0.0
 11
61.0534792918
 21
229.8737976845
 31
0.0
  0
LINE
  5
1BF
330
72
100
AcDbEntity
  8
DV1_Default
  6
Continuous
 62
     7
100
AcDbLine
 10
61.0534792918
 20
229.8737976845
 30
0.0
 11
61.0526567341
 21
229.8735101904
 31
0.0
  0
LINE
  5
1C0
330
72
100
AcDbEntity
  8
DV1_Default
  6
Continuous
 62
     7
100
AcDbLine
 10
61.0532799587
 20
229.8737276632
 30
0.0
 11
61.0526572169
 21
229.873509255
 31
0.0
  0
ARC
  5
1C1
330
72
100
AcDbEntity
  8
DV1_Default
  6
Continuous
 62
     7
100
AcDbCircle
 10
60.8880997703
 20
230.3456552441
 30
0.0
 40
0.4999999999600073
100
AcDbArc
 50
289.287169075
 51
340.6678852261
  0
ARC
  5
1C2
330
72
100
AcDbEntity
  8
DV1_Default
  6
Continuous
 62
     7
100
AcDbCircle
 10
40.2773674271
 20
289.0950760553
 30
0.0
 40
62.75991273811897
100
AcDbArc
 50
289.1710285656
 51
289.3317589301
  0
ARC
  5
1C3
330
72
100
AcDbEntity
  8
DV1_Default
  6
Continuous
 62
     7
100
AcDbCircle
 10
40.3315669177
 20
288.9394126461
 30
0.0
 40
62.59508354994464
100
AcDbArc
 50
289.0144848253
 51
289.1709594024
  0
ARC
  5
1C4
330
72
100
AcDbEntity
  8
DV1_Default
  6
Continuous
 62
     7
100
AcDbCircle
 10
43.9837214355
 20
288.9318420365
 30
0.0
 40
62.58776568450665
100
AcDbArc
 50
250.8290089635
 51
250.9847528868
  0
ARC
  5
1C5
330
72
100
AcDbEntity
  8
DV1_Default
  6
Continuous
 62
     7
100
AcDbCircle
 10
44.0403139819
 20
289.0944241985
 30
0.0
 40
62.75991578078006
100
AcDbArc
 50
250.6678695332
 51
250.8289505602
  0
ARC
  5
1C6
330
72
100
AcDbEntity
  8
DV1_Default
  6
Continuous
 62
     7
100
AcDbCircle
 10
23.4295667341
 20
230.3450054409
 30
0.0
 40
0.4999999999600372
100
AcDbArc
 50
199.287169075
 51
250.6678852272
  0
ARC
  5
1C7
330
72
100
AcDbEntity
  8
DV1_Default
  6
Continuous
 62
     7
100
AcDbCircle
 10
82.178987545
 20
250.955737784
 30
0.0
 40
62.75991273777235
100
AcDbArc
 50
199.1710285656
 51
199.3317589301
  0
ARC
  5
1C8
330
72
100
AcDbEntity
  8
DV1_Default
  6
Continuous
 62
     7
100
AcDbCircle
 10
82.0233234398
 20
250.9015380524
 30
0.0
 40
62.59508281310625
100
AcDbArc
 50
199.0144848242
 51
199.1709594032
  0
ARC
  5
1C9
330
72
100
AcDbEntity
  8
DV1_Default
  6
Continuous
 62
     7
100
AcDbCircle
 10
2.3012634417
 20
250.8998098568
 30
0.0
 40
62.58776540315913
100
AcDbArc
 50
340.8290089599
 51
340.9847528839
  0
ARC
  5
1CA
330
72
100
AcDbEntity
  8
DV1_Default
  6
Continuous
 62
     7
100
AcDbCircle
 10
2.138680203
 20
250.9564027748
 30
0.0
 40
62.75991663851131
100
AcDbArc
 50
340.6678695342
 51
340.828950559
  0
LINE
  5
1CB
330
72
100
AcDbEntity
  8
DV1_Default
  6
Continuous
 62
     7
100
AcDbLine
 10
61.4180647299
 20
230.3466548118
 30
0.0
 11
61.4180837987
 21
230.3467096274
 31
0.0
  0
LINE
  5
1CC
330
72
100
AcDbEntity
  8
DV1_Default
  6
Continuous
 62
     7
100
AcDbLine
 10
61.4738488555
 20
230.5078135714
 30
0.0
 11
61.4737336794
 21
230.5074793343
 31
0.0
  0
SPLINE
  5
1CD
330
72
100
AcDbEntity
  8
DV1_Default
  6
Continuous
 62
     7
100
AcDbSpline
210
0.0
220
0.0
230
1.0
 70
     8
 71
     3
 72
     8
 73
     4
 74
     0
 42
0.000000150682758
 43
0.0000000001
 40
0.0
 40
0.0
 40
0.0
 40
0.0
 40
1.0
 40
1.0
 40
1.0
 40
1.0
 10
60.945733761136
 20
268.3045931855277
 30
0.0
 10
60.92594449110658
 20
268.3175225781627
 30
0.0
 10
60.90639802174729
 20
268.3265663310074
 30
0.0
 10
60.88638438244458
 20
268.3335244506321
 30
0.0
  0
LINE
  5
1CE
330
72
100
AcDbEntity
  8
DV1_Default
  6
Continuous
 62
     7
100
AcDbLine
 10
60.8863843824
 20
268.3335244506
 30
0.0
 11
60.7244226616
 21
268.3895805592
 31
0.0
  0
LINE
  5
1CF
330
72
100
AcDbEntity
  8
DV1_Default
  6
Continuous
 62
     7
100
AcDbLine
 10
23.5925893725
 20
268.3895775624
 30
0.0
 11
23.4306225069
 21
268.333519632
 31
0.0
  0
SPLINE
  5
1D0
330
72
100
AcDbEntity
  8
DV1_Default
  6
Continuous
 62
     7
100
AcDbSpline
210
0.0
220
0.0
230
1.0
 70
     8
 71
     3
 72
     8
 73
     4
 74
     0
 42
0.000000150401877
 43
0.0000000001
 40
0.0
 40
0.0
 40
0.0
 40
0.0
 40
1.0
 40
1.0
 40
1.0
 40
1.0
 10
23.43062250685444
 20
268.3335196319512
 30
0.0
 10
23.4105736688993
 20
268.326549269435
 30
0.0
 10
23.39099426610001
 20
268.3174859418582
 30
0.0
 10
23.37117036130414
 20
268.3045207794301
 30
0.0
  0
SPLINE
  5
1D1
330
72
100
AcDbEntity
  8
DV1_Default
  6
Continuous
 62
     7
100
AcDbSpline
210
0.0
220
0.0
230
1.0
 70
     8
 71
     3
 72
     8
 73
     4
 74
     0
 42
0.0000001506827545
 43
0.0000000001
 40
0.0
 40
0.0
 40
0.0
 40
0.0
 40
1.0
 40
1.0
 40
1.0
 40
1.0
 10
22.92851243133419
 20
267.8618227006542
 30
0.0
 10
22.91558303908221
 20
267.8420334307169
 30
0.0
 10
22.90653928476252
 20
267.8224869610494
 30
0.0
 10
22.8995811628809
 20
267.8024733215449
 30
0.0
  0
LINE
  5
1D2
330
72
100
AcDbEntity
  8
DV1_Default
  6
Continuous
 62
     7
100
AcDbLine
 10
22.8995811629
 20
267.8024733215
 30
0.0
 11
22.8435250587
 21
267.6405116055
 31
0.0
  0
ARC
  5
1D3
330
72
100
AcDbEntity
  8
DV1_Default
  6
Continuous
 62
     7
100
AcDbCircle
 10
41.2827820134
 20
236.7912372635
 30
0.0
 40
19.48023342117699
100
AcDbArc
 50
198.817164309
 51
199.3203204699
  0
ARC
  5
1D4
330
72
100
AcDbEntity
  8
DV1_Default
  6
Continuous
 62
     7
100
AcDbCircle
 10
46.4632707337
 20
238.4826371015
 30
0.0
 40
24.92885254916897
100
AcDbArc
 50
199.0495399282
 51
199.4530536874
  0
LINE
  5
1D5
330
72
100
AcDbEntity
  8
DV1_Default
  6
Continuous
 62
     7
100
AcDbLine
 10
22.9577091125
 20
230.1796259775
 30
0.0
 11
22.9574216221
 21
230.1804485318
 31
0.0
  0
LINE
  5
1D6
330
72
100
AcDbEntity
  8
DV1_Default
  6
Continuous
 62
     7
100
AcDbLine
 10
22.8995859816
 20
230.346711446
 30
0.0
 11
22.9577612402
 21
230.1799178738
 31
0.0
  0
LINE
  5
1D7
330
72
100
AcDbEntity
  8
DV1_Default
  6
Continuous
 62
     7
100
AcDbLine
 10
22.8435280555
 20
230.5086783163
 30
0.0
 11
22.8995859816
 21
230.346711446
 31
0.0
  0
SPLINE
  5
1D8
330
72
100
AcDbEntity
  8
DV1_Default
  6
Continuous
 62
     7
100
AcDbSpline
210
0.0
220
0.0
230
1.0
 70
     8
 71
     3
 72
     8
 73
     4
 74
     0
 42
0.0000001504476957
 43
0.0000000001
 40
0.0
 40
0.0
 40
0.0
 40
0.0
 40
1.0
 40
1.0
 40
1.0
 40
1.0
 10
22.8995859815614
 20
230.3467114459546
 30
0.0
 10
22.9065543773668
 20
230.3266682785851
 30
0.0
 10
22.9156145551818
 20
230.3070942809778
 30
0.0
 10
22.92857385125586
 20
230.2872761210625
 30
0.0
  0
SPLINE
  5
1D9
330
72
100
AcDbEntity
  8
DV1_Default
  6
Continuous
 62
     7
100
AcDbSpline
210
0.0
220
0.0
230
1.0
 70
     8
 71
     3
 72
     8
 73
     4
 74
     0
 42
0.0000001232044306
 43
0.0000000001
 40
0.0
 40
0.0
 40
0.0
 40
0.0
 40
1.0
 40
1.0
 40
1.0
 40
1.0
 10
22.99055450307808
 20
230.105869783219
 30
0.0
 10
22.97763459667247
 20
230.1296061184763
 30
0.0
 10
22.96663862809623
 20
230.1543878780312
 30
0.0
 10
22.95776124015797
 20
230.179917873825
 30
0.0
  0
SPLINE
  5
1DA
330
72
100
AcDbEntity
  8
DV1_Default
  6
Continuous
 62
     7
100
AcDbSpline
210
0.0
220
0.0
230
1.0
 70
     8
 71
     3
 72
     8
 73
     4
 74
     0
 42
0.0000001363234929
 43
0.0000000001
 40
0.0
 40
0.0
 40
0.0
 40
0.0
 40
1.0
 40
1.0
 40
1.0
 40
1.0
 10
23.26404487952446
 20
229.8731981110545
 30
0.0
 10
23.24099116493101
 20
229.8812859256203
 30
0.0
 10
23.218544968864
 20
229.8910893699754
 30
0.0
 10
23.19692737717756
 20
229.9024694017264
 30
0.0
  0
LINE
  5
1DB
330
72
100
AcDbEntity
  8
DV1_Default
  6
Continuous
 62
     7
100
AcDbLine
 10
22.9576391532
 20
230.1798252525
 30
0.0
 11
22.9574206867
 21
230.180448049
 31
0.0
  0
SPLINE
  5
1DC
330
72
100
AcDbEntity
  8
DV1_Default
  6
Continuous
 62
     7
100
AcDbSpline
210
0.0
220
0.0
230
1.0
 70
     8
 71
     3
 72
     8
 73
     4
 74
     0
 42
0.0000001507442661
 43
0.0000000001
 40
0.0
 40
0.0
 40
0.0
 40
0.0
 40
1.0
 40
1.0
 40
1.0
 40
1.0
 10
23.37130541369809
 20
229.8445866884966
 30
0.0
 10
23.39108699966373
 20
229.8316651336084
 30
0.0
 10
23.41062623787093
 20
229.8226255915705
 30
0.0
 10
23.43063229196801
 20
229.8156701019815
 30
0.0
  0
SPLINE
  5
1DD
330
72
100
AcDbEntity
  8
DV1_Default
  6
Continuous
 62
     7
100
AcDbSpline
210
0.0
220
0.0
230
1.0
 70
     8
 71
     3
 72
    13
 73
     9
 74
     0
 42
0.0000000566116251
 43
0.0000000001
 40
0.0
 40
0.0
 40
0.0
 40
0.0
 40
0.12716634205119
 40
0.2460272560300771
 40
0.4986721053952475
 40
0.7520298281036719
 40
0.8749584806137164
 40
1.0
 40
1.0
 40
1.0
 40
1.0
 10
23.26404487952446
 20
229.8731981110545
 30
0.0
 10
23.26450138715204
 20
229.8736900307056
 30
0.0
 10
23.26524899090852
 20
229.8734277236404
 30
0.0
 10
23.27661909492306
 20
229.8694396643542
 30
0.0
 10
23.30523527624167
 20
229.8594096076712
 30
0.0
 10
23.34965490920269
 20
229.843878971517
 30
0.0
 10
23.39357065550862
 20
229.8285632255173
 30
0.0
 10
23.41820843651978
 20
229.8199921535327
 30
0.0
 10
23.43063229196801
 20
229.8156701019815
 30
0.0
  0
LINE
  5
1DE
330
72
100
AcDbEntity
  8
DV1_Default
  6
Continuous
 62
     7
100
AcDbLine
 10
23.430632292
 20
229.815670102
 30
0.0
 11
23.5925940125
 21
229.7596140025
 31
0.0
  0
ARC
  5
1DF
330
72
100
AcDbEntity
  8
DV1_Default
  6
Continuous
 62
     7
100
AcDbCircle
 10
21.4583650708
 20
224.4354849966
 30
0.0
 40
5.729882034790714
100
AcDbArc
 50
69.8665709966
 51
71.6302914479
  0
ARC
  5
1E0
330
72
100
AcDbEntity
  8
DV1_Default
  6
Continuous
 62
     7
100
AcDbCircle
 10
26.432062024
 20
238.2586236761
 30
0.0
 40
8.960992856491778
100
AcDbArc
 50
250.4308841647
 51
251.5213157526
  0
ARC
  5
1E1
330
72
100
AcDbEntity
  8
DV1_Default
  6
Continuous
 62
     7
100
AcDbCircle
 10
54.4418936838
 20
248.1987951173
 30
0.0
 40
19.48015372781844
100
AcDbArc
 50
288.817164287
 51
289.3203225232
  0
ARC
  5
1E2
330
72
100
AcDbEntity
  8
DV1_Default
  6
Continuous
 62
     7
100
AcDbCircle
 10
52.7507322379
 20
253.3785954372
 30
0.0
 40
24.92804434424426
100
AcDbArc
 50
289.0495391662
 51
289.4530660864
  0
LINE
  5
1E3
330
72
100
AcDbEntity
  8
DV1_Default
  6
Continuous
 62
     7
100
AcDbLine
 10
60.8863941676
 20
229.8156749207
 30
0.0
 11
61.0531877099
 21
229.8738501475
 31
0.0
  0
LINE
  5
1E4
330
72
100
AcDbEntity
  8
DV1_Default
  6
Continuous
 62
     7
100
AcDbLine
 10
60.7244273016
 20
229.7596169993
 30
0.0
 11
60.8863941676
 21
229.8156749207
 31
0.0
  0
SPLINE
  5
1E5
330
72
100
AcDbEntity
  8
DV1_Default
  6
Continuous
 62
     7
100
AcDbSpline
210
0.0
220
0.0
230
1.0
 70
     8
 71
     3
 72
     8
 73
     4
 74
     0
 42
0.000000150449003
 43
0.0000000001
 40
0.0
 40
0.0
 40
0.0
 40
0.0
 40
1.0
 40
1.0
 40
1.0
 40
1.0
 10
60.88639416755819
 20
229.8156749206716
 30
0.0
 10
60.90643717287746
 20
229.8226432626373
 30
0.0
 10
60.92601101613263
 20
229.8317033520109
 30
0.0
 10
60.94582901159263
 20
229.8446624801218
 30
0.0
  0
LINE
  5
1E6
330
72
100
AcDbEntity
  8
DV1_Default
  6
Continuous
 62
     7
100
AcDbLine
 10
23.5917250359
 20
229.7592563796
 30
0.0
 11
23.5913908243
 21
229.7593715319
 31
0.0
  0
LINE
  5
1E7
330
72
100
AcDbEntity
  8
DV1_Default
  6
Continuous
 62
     7
100
AcDbLine
 10
23.4305662716
 20
229.8150405097
 30
0.0
 11
23.4306211174
 21
229.8150214125
 31
0.0
  0
ARC
  5
1E8
330
72
100
AcDbEntity
  8
DV1_Default
  6
Continuous
 62
     7
100
AcDbCircle
 10
93.5306623174
 20
219.1987552487
 30
0.0
 40
34.00110816911597
100
AcDbArc
 50
160.966205441
 51
161.2871970759
  0
ARC
  5
1E9
330
72
100
AcDbEntity
  8
DV1_Default
  6
Continuous
 62
     7
100
AcDbCircle
 10
58.6371123375
 20
266.6122057607
 30
0.0
 40
3.02185344686063
100
AcDbArc
 50
24.4285645708
 51
30.6929509903
  0
ARC
  5
1EA
330
72
100
AcDbEntity
  8
DV1_Default
  6
Continuous
 62
     7
100
AcDbCircle
 10
59.6915537015
 20
265.5420635945
 30
0.0
 40
3.033901389605208
100
AcDbArc
 50
59.3500611525
 51
65.5825722017
  0
ARC
  5
1EB
330
72
100
AcDbEntity
  8
DV1_Default
  6
Continuous
 62
     7
100
AcDbCircle
 10
24.6208991552
 20
265.5532027897
 30
0.0
 40
3.021851784153863
100
AcDbArc
 50
114.4285644104
 51
120.692954576
  0
ARC
  5
1EC
330
72
100
AcDbEntity
  8
DV1_Default
  6
Continuous
 62
     7
100
AcDbCircle
 10
25.691043345
 20
266.6076420099
 30
0.0
 40
3.033902854863797
100
AcDbArc
 50
149.3500639977
 51
155.5825716859
  0
ARC
  5
1ED
330
72
100
AcDbEntity
  8
DV1_Default
  6
Continuous
 62
     7
100
AcDbCircle
 10
-14.1762614887
 20
217.4635324011
 30
0.0
 40
39.2583398799199
100
AcDbArc
 50
18.7859930191
 51
19.0655803027
  0
ARC
  5
1EE
330
72
100
AcDbEntity
  8
DV1_Default
  6
Continuous
 62
     7
100
AcDbCircle
 10
17.8166265356
 20
213.5549669155
 30
0.0
 40
17.21064203433844
100
AcDbArc
 50
71.1708844018
 51
71.7820470658
  0
ARC
  5
1EF
330
72
100
AcDbEntity
  8
DV1_Default
  6
Continuous
 62
     7
100
AcDbCircle
 10
66.6485172055
 20
213.1197208127
 30
0.0
 40
17.67043718105749
100
AcDbArc
 50
108.2318920677
 51
108.8277869576
  0
ENDBLK
  5
1F1
330
72
100
AcDbEntity
  8
0
100
AcDbBlockEnd
  0
BLOCK
  5
2DF
330
1F2
100
AcDbEntity
  8
0
100
AcDbBlockBegin
  2
SE1
 70
     0
 10
0.0
 20
0.0
 30
0.0
  3
SE1
  1

  0
ARC
  5
1F5
330
1F2
100
AcDbEntity
  8
DV2_Default
  6
Continuous
 62
     7
100
AcDbCircle
 10
189.0111020618
 20
242.2074192344
 30
0.0
 40
12.14578546872906
100
AcDbArc
 50
71.0663957837
 51
90.0118896656
  0
SPLINE
  5
1F6
330
1F2
100
AcDbEntity
  8
DV2_Default
  6
Continuous
 62
     7
100
AcDbSpline
210
0.0
220
0.0
230
1.0
 70
     8
 71
     3
 72
     9
 73
     5
 74
     0
 42
0.0000004194566861
 43
0.0000000001
 40
0.0
 40
0.0
 40
0.0
 40
0.0
 40
0.1880641376004229
 40
1.0
 40
1.0
 40
1.0
 40
1.0
 10
192.973060969226
 20
253.6870948188412
 30
0.0
 10
192.9719618616808
 20
253.6881799190815
 30
0.0
 10
192.9659003378703
 20
253.6934497680759
 30
0.0
 10
192.9586863348058
 20
253.6959940645432
 30
0.0
 10
192.9520723462639
 20
253.6960596182533
 30
0.0
  0
ARC
  5
1F7
330
1F2
100
AcDbEntity
  8
DV2_Default
  6
Continuous
 62
     7
100
AcDbCircle
 10
191.0692582619
 20
241.6023970019
 30
0.0
 40
12.75153862643648
100
AcDbArc
 50
90.0256864062
 51
94.7378857811
  0
ARC
  5
1F8
330
1F2
100
AcDbEntity
  8
DV2_Default
  6
Continuous
 62
     7
100
AcDbCircle
 10
195.4615500113
 20
254.3760266878
 30
0.0
 40
0.7528306529016657
100
AcDbArc
 50
251.5494547628
 51
262.2348670197
  0
LINE
  5
1F9
330
1F2
100
AcDbEntity
  8
DV2_Default
  6
Continuous
 62
     7
100
AcDbLine
 10
198.1221712484
 20
253.6300041297
 30
0.0
 11
195.3598330792
 21
253.6300993069
 31
0.0
  0
LINE
  5
1FA
330
1F2
100
AcDbEntity
  8
DV2_Default
  6
Continuous
 62
     7
100
AcDbLine
 10
193.6869455538
 20
252.352837194
 30
0.0
 11
195.4288067674
 21
252.3528382308
 31
0.0
  0
SPLINE
  5
1FB
330
1F2
100
AcDbEntity
  8
DV2_Default
  6
Continuous
 62
     7
100
AcDbSpline
210
0.0
220
0.0
230
1.0
 70
    12
 71
     3
 72
     8
 73
     4
 74
     0
 42
0.0000000036162252
 43
0.0000000001
 40
0.0
 40
0.0
 40
0.0
 40
0.0
 40
1.0
 40
1.0
 40
1.0
 40
1.0
 10
198.3094159141779
 20
253.4395290056441
 30
0.0
 41
0.9864036901465923
 10
198.3094123199666
 20
253.4395486653756
 30
0.0
 41
0.9864036412662417
 10
197.3792168551312
 20
253.4396323210908
 30
0.0
 41
0.990935744550711
 10
195.5441178000834
 20
253.4397976012742
 30
0.0
 41
1.0
  0
ARC
  5
1FC
330
1F2
100
AcDbEntity
  8
DV2_Default
  6
Continuous
 62
     7
100
AcDbCircle
 10
194.8729510038
 20
-1598.8217654396
 30
0.0
 40
1850.942340179344
100
AcDbArc
 50
89.9740122823
 51
90.0314031279
  0
SPLINE
  5
1FD
330
1F2
100
AcDbEntity
  8
DV2_Default
  6
Continuous
 62
     7
100
AcDbSpline
210
0.0
220
0.0
230
1.0
 70
     8
 71
     3
 72
    15
 73
    11
 74
     0
 42
0.0000000155078119
 43
0.0000000001
 40
0.0
 40
0.0
 40
0.0
 40
0.0
 40
0.0789023507254147
 40
0.167330673753562
 40
0.2653966460355787
 40
0.3736433048550862
 40
0.4929327121466615
 40
0.6334006749639066
 40
0.8010806213403323
 40
1.0
 40
1.0
 40
1.0
 40
1.0
 10
195.7124851853494
 20
252.1203843454273
 30
0.0
 10
195.7184673136751
 20
252.121446388922
 30
0.0
 10
195.7308818108146
 20
252.1236339299805
 30
0.0
 10
195.7469250396013
 20
252.141327632966
 30
0.0
 10
195.7606947976209
 20
252.1740607621596
 30
0.0
 10
195.7701444669777
 20
252.2263882918354
 30
0.0
 10
195.7735083739582
 20
252.3026158885442
 30
0.0
 10
195.767268483882
 20
252.4099265310047
 30
0.0
 10
195.7470040725028
 20
252.5563588938156
 30
0.0
 10
195.718845365024
 20
252.6709036829422
 30
0.0
 10
195.7037005521792
 20
252.7330947941347
 30
0.0
  0
SPLINE
  5
1FE
330
1F2
100
AcDbEntity
  8
DV2_Default
  6
Continuous
 62
     7
100
AcDbSpline
210
0.0
220
0.0
230
1.0
 70
     8
 71
     3
 72
     9
 73
     5
 74
     0
 42
0.0000008924649187
 43
0.0000000001
 40
0.0
 40
0.0
 40
0.0
 40
0.0
 40
0.6543083729694937
 40
1.0
 40
1.0
 40
1.0
 40
1.0
 10
195.4288065845889
 20
252.3528363956122
 30
0.0
 10
195.4312638818914
 20
252.3532516981595
 30
0.0
 10
195.4350194463987
 20
252.3538944525987
 30
0.0
 10
195.4373024228079
 20
252.35664804442
 30
0.0
 10
195.4379399715066
 20
252.3578103771782
 30
0.0
  0
ARC
  5
1FF
330
1F2
100
AcDbEntity
  8
DV2_Default
  6
Continuous
 62
     7
100
AcDbCircle
 10
195.4258397021
 20
252.0598925687
 30
0.0
 40
0.2929588505229379
100
AcDbArc
 50
84.1605252195
 51
89.4197384753
  0
LINE
  5
200
330
1F2
100
AcDbEntity
  8
DV2_Default
  6
Continuous
 62
     7
100
AcDbLine
 10
193.6921227363
 20
252.3528259699
 30
0.0
 11
195.4288065846
 21
252.3528363956
 31
0.0
  0
ARC
  5
201
330
1F2
100
AcDbEntity
  8
DV2_Default
  6
Continuous
 62
     7
100
AcDbCircle
 10
187.6652421445
 20
255.9586257139
 30
0.0
 40
12.16163748857209
100
AcDbArc
 50
259.0768435923
 51
269.879935709
  0
SPLINE
  5
202
330
1F2
100
AcDbEntity
  8
DV2_Default
  6
Continuous
 62
     7
100
AcDbSpline
210
0.0
220
0.0
230
1.0
 70
     8
 71
     3
 72
    12
 73
     8
 74
     0
 42
0.0000000015998252
 43
0.0000000001
 40
0.0
 40
0.0
 40
0.0
 40
0.0
 40
0.1628718260448155
 40
0.4997257263242849
 40
0.6838192406361574
 40
0.8505790732957548
 40
1.0
 40
1.0
 40
1.0
 40
1.0
 10
198.1230661579746
 20
244.5195133692727
 30
0.0
 10
198.1230286922508
 20
244.5195133608619
 30
0.0
 10
197.9496850718794
 20
244.5194167377538
 30
0.0
 10
196.9949840187577
 20
244.5192856340087
 30
0.0
 10
195.2878632729137
 20
244.5191749403314
 30
0.0
 10
193.7106835806354
 20
244.5191602517208
 30
0.0
 10
192.4623278591021
 20
244.5192151482689
 30
0.0
 10
191.8723833330919
 20
244.5192272329082
 30
0.0
  0
ARC
  5
203
330
1F2
100
AcDbEntity
  8
DV2_Default
  6
Continuous
 62
     7
100
AcDbCircle
 10
191.9452524555
 20
243.7793218858
 30
0.0
 40
0.7434849235979105
100
AcDbArc
 50
95.6246016943
 51
107.0365278222
  0
SPLINE
  5
204
330
1F2
100
AcDbEntity
  8
DV2_Default
  6
Continuous
 62
     7
100
AcDbSpline
210
0.0
220
0.0
230
1.0
 70
    12
 71
     3
 72
    20
 73
    16
 74
     0
 42
0.0000000321656726
 43
0.0000000001
 40
0.0
 40
0.0
 40
0.0
 40
0.0
 40
0.0439969691948726
 40
0.1288327189839376
 40
0.2136376074269953
 40
0.2984371640000727
 40
0.3832587218461271
 40
0.4680411474940017
 40
0.5528423496165529
 40
0.6376033730611318
 40
0.7223919085314318
 40
0.8072295532416212
 40
0.892024249376757
 40
0.9768199060108593
 40
1.0
 40
1.0
 40
1.0
 40
1.0
 10
191.5266155570299
 20
243.7104783764952
 30
0.0
 41
1.183922891056489
 10
191.5328338468019
 20
243.7090488573729
 30
0.0
 41
1.183922891056489
 10
191.5510236403399
 20
243.7048323507948
 30
0.0
 41
1.183922891056489
 10
191.5809343696608
 20
243.6977026391834
 30
0.0
 41
1.183922891056489
 10
191.6156499085462
 20
243.6890922706991
 30
0.0
 41
1.183922891056489
 10
191.6489718652959
 20
243.6804474341375
 30
0.0
 41
1.183922891056489
 10
191.680448328259
 20
243.6718407812196
 30
0.0
 41
1.183922891056489
 10
191.7096690803307
 20
243.6633342974249
 30
0.0
 41
1.183922891056489
 10
191.7362550654111
 20
243.6549856514977
 30
0.0
 41
1.183922891056489
 10
191.7598832302401
 20
243.6468439282828
 30
0.0
 41
1.183922891056489
 10
191.7802678749686
 20
243.6389579230431
 30
0.0
 41
1.183922891056489
 10
191.7971599919664
 20
243.6313789009396
 30
0.0
 41
1.183922891056489
 10
191.8103518544792
 20
243.624162429003
 30
0.0
 41
1.183922891056489
 10
191.8174188040846
 20
243.6190153635318
 30
0.0
 41
1.183922891056489
 10
191.820299128097
 20
243.6162650346332
 30
0.0
 41
1.183922891056489
 10
191.820898286764
 20
243.6156760575625
 30
0.0
 41
1.183922891056489
  0
SPLINE
  5
205
330
1F2
100
AcDbEntity
  8
DV2_Default
  6
Continuous
 62
     7
100
AcDbSpline
210
0.0
220
0.0
230
1.0
 70
     8
 71
     3
 72
    10
 73
     6
 74
     0
 42
0.0000000327538267
 43
0.0000000001
 40
0.0
 40
0.0
 40
0.0
 40
0.0
 40
0.5
 40
0.5
 40
1.0
 40
1.0
 40
1.0
 40
1.0
 10
191.5257912995358
 20
243.5655219196195
 30
0.0
 10
191.5952814083994
 20
243.565813877186
 30
0.0
 10
191.6645028348777
 20
243.5706916638155
 30
0.0
 10
191.7712632905528
 20
243.5886130337013
 30
0.0
 10
191.8083973533492
 20
243.601589099003
 30
0.0
 10
191.820898286764
 20
243.6156760575625
 30
0.0
  0
SPLINE
  5
206
330
1F2
100
AcDbEntity
  8
DV2_Default
  6
Continuous
 62
     7
100
AcDbSpline
210
0.0
220
0.0
230
1.0
 70
     8
 71
     3
 72
    15
 73
    11
 74
     0
 42
0.0000000336849784
 43
0.0000000001
 40
0.0
 40
0.0
 40
0.0
 40
0.0
 40
0.1023366142784093
 40
0.1977232973818838
 40
0.34327697330138
 40
0.4950430420557133
 40
0.6203485430619672
 40
0.7462005781001427
 40
0.8584023290230117
 40
1.0
 40
1.0
 40
1.0
 40
1.0
 10
191.5246388186028
 20
243.3746000355247
 30
0.0
 10
191.5391814396743
 20
243.3745859217491
 30
0.0
 10
191.5672788716197
 20
243.3746034608312
 30
0.0
 10
191.6150009666507
 20
243.3746804078545
 30
0.0
 10
191.666833701342
 20
243.3738042161101
 30
0.0
 10
191.716707305699
 20
243.3759389187813
 30
0.0
 10
191.7566522604896
 20
243.375068558933
 30
0.0
 10
191.7844100653777
 20
243.3669786976583
 30
0.0
 10
191.8073021243634
 20
243.3618788109783
 30
0.0
 10
191.8153089154805
 20
243.3606891862933
 30
0.0
 10
191.8195905907279
 20
243.3600336192816
 30
0.0
  0
ARC
  5
207
330
1F2
100
AcDbEntity
  8
DV2_Default
  6
Continuous
 62
     7
100
AcDbCircle
 10
191.5302758008
 20
240.4767137447
 30
0.0
 40
0.1649782259732167
100
AcDbArc
 50
356.8492399205
 51
37.2251926475
  0
ARC
  5
208
330
1F2
100
AcDbEntity
  8
DV2_Default
  6
Continuous
 62
     7
100
AcDbCircle
 10
191.425532542
 20
240.6726150494
 30
0.0
 40
0.2549166194970858
100
AcDbArc
 50
277.53282472
 51
337.8534091773
  0
LINE
  5
209
330
1F2
100
AcDbEntity
  8
DV2_Default
  6
Continuous
 62
     7
100
AcDbLine
 10
182.7746517744
 20
239.3742346406
 30
0.0
 11
182.7746517607
 21
239.8380543978
 31
0.0
  0
LINE
  5
20A
330
1F2
100
AcDbEntity
  8
DV2_Default
  6
Continuous
 62
     7
100
AcDbLine
 10
182.7746517596
 20
239.8726411756
 30
0.0
 11
182.7746517359
 21
240.6700834994
 31
0.0
  0
LINE
  5
20B
330
1F2
100
AcDbEntity
  8
DV2_Default
  6
Continuous
 62
     7
100
AcDbLine
 10
182.7746517359
 20
240.6700834994
 30
0.0
 11
182.7746517333
 21
240.7710763054
 31
0.0
  0
LINE
  5
20C
330
1F2
100
AcDbEntity
  8
DV2_Default
  6
Continuous
 62
     7
100
AcDbLine
 10
182.7746517333
 20
240.7710763054
 30
0.0
 11
182.7746517291
 21
240.9371878379
 31
0.0
  0
LINE
  5
20D
330
1F2
100
AcDbEntity
  8
DV2_Default
  6
Continuous
 62
     7
100
AcDbLine
 10
182.7746517291
 20
240.9371878379
 30
0.0
 11
182.7746515766
 21
247.1050739887
 31
0.0
  0
LINE
  5
20E
330
1F2
100
AcDbEntity
  8
DV2_Default
  6
Continuous
 62
     7
100
AcDbLine
 10
182.7746514798
 20
251.0212018627
 30
0.0
 11
182.7746513268
 21
257.212483299
 31
0.0
  0
LINE
  5
20F
330
1F2
100
AcDbEntity
  8
DV2_Default
  6
Continuous
 62
     7
100
AcDbLine
 10
182.7746513268
 20
257.212483299
 30
0.0
 11
182.7746513228
 21
257.377979431
 31
0.0
  0
LINE
  5
210
330
1F2
100
AcDbEntity
  8
DV2_Default
  6
Continuous
 62
     7
100
AcDbLine
 10
182.7746513228
 20
257.377979431
 30
0.0
 11
182.7746513204
 21
257.4792397711
 31
0.0
  0
ARC
  5
211
330
1F2
100
AcDbEntity
  8
DV2_Default
  6
Continuous
 62
     7
100
AcDbCircle
 10
191.5302168628
 20
257.6724648907
 30
0.0
 40
0.1650354818561143
100
AcDbArc
 50
322.7814067563
 51
3.1425452567
  0
ARC
  5
212
330
1F2
100
AcDbEntity
  8
DV2_Default
  6
Continuous
 62
     7
100
AcDbCircle
 10
191.425473661
 20
257.4764538361
 30
0.0
 40
0.2550034738835109
100
AcDbArc
 50
22.1605419221
 51
82.4602158597
  0
ARC
  5
213
330
1F2
100
AcDbEntity
  8
DV2_Default
  6
Continuous
 62
     7
100
AcDbCircle
 10
187.6652085152
 20
242.1734626485
 30
0.0
 40
12.17782861582998
100
AcDbArc
 50
89.1788602101
 51
90.0992666466
  0
ARC
  5
214
330
1F2
100
AcDbEntity
  8
DV2_Default
  6
Continuous
 62
     7
100
AcDbCircle
 10
192.5822910776
 20
252.5647715934
 30
0.0
 40
1.190189389098576
100
AcDbArc
 50
67.1798179396
 51
71.8991147691
  0
ARC
  5
215
330
1F2
100
AcDbEntity
  8
DV2_Default
  6
Continuous
 62
     7
100
AcDbCircle
 10
192.9620894877
 20
253.3301104613
 30
0.0
 40
0.3416292424490385
100
AcDbArc
 50
62.0559162268
 51
76.1455980567
  0
LINE
  5
216
330
1F2
100
AcDbEntity
  8
DV2_Default
  6
Continuous
 62
     7
100
AcDbLine
 10
195.4288065846
 20
252.3528363956
 30
0.0
 11
193.6869452409
 21
252.3528353533
 31
0.0
  0
ARC
  5
217
330
1F2
100
AcDbEntity
  8
DV2_Default
  6
Continuous
 62
     7
100
AcDbCircle
 10
188.9199675024
 20
241.6880040911
 30
0.0
 40
12.66531610905173
100
AcDbArc
 50
71.3376446268
 51
89.5747629489
  0
ARC
  5
218
330
1F2
100
AcDbEntity
  8
DV2_Default
  6
Continuous
 62
     7
100
AcDbCircle
 10
193.6937407092
 20
240.4641820127
 30
0.0
 40
13.88886312535402
100
AcDbArc
 50
71.4431132274
 51
89.7413564005
  0
SPLINE
  5
219
330
1F2
100
AcDbEntity
  8
DV2_Default
  6
Continuous
 62
     7
100
AcDbSpline
210
0.0
220
0.0
230
1.0
 70
     8
 71
     3
 72
    14
 73
    10
 74
     0
 42
0.0000000037032352
 43
0.0000000001
 40
0.0
 40
0.0
 40
0.0
 40
0.0
 40
0.1452257637411138
 40
0.2904524113476893
 40
0.4356847051605913
 40
0.5809257154842207
 40
0.7261773953250235
 40
0.8714411551137201
 40
1.0
 40
1.0
 40
1.0
 40
1.0
 10
193.763681206309
 20
254.3529008381578
 30
0.0
 10
193.7524701300456
 20
254.3529255529686
 30
0.0
 10
193.7285132339526
 20
254.3529664258004
 30
0.0
 10
193.5490760328622
 20
254.3530092016244
 30
0.0
 10
193.2644020874473
 20
254.3530337974933
 30
0.0
 10
192.8641518529065
 20
254.3530423790681
 30
0.0
 10
192.3552400530013
 20
254.3530366525479
 30
0.0
 10
191.7483726230483
 20
254.3530190517639
 30
0.0
 10
191.3096948899286
 20
254.3530013423961
 30
0.0
 10
191.0633396629041
 20
254.3529912194348
 30
0.0
  0
ARC
  5
21A
330
1F2
100
AcDbEntity
  8
DV2_Default
  6
Continuous
 62
     7
100
AcDbCircle
 10
198.0267429767
 20
253.3456072621
 30
0.0
 40
0.2999820279144738
100
AcDbArc
 50
17.8322822693
 51
71.8359042677
  0
ARC
  5
21B
330
1F2
100
AcDbEntity
  8
DV2_Default
  6
Continuous
 62
     7
100
AcDbCircle
 10
185.4683334711
 20
249.0710456788
 30
0.0
 40
13.56171360139109
100
AcDbArc
 50
341.2413695472
 51
18.7880100355
  0
SPLINE
  5
21C
330
1F2
100
AcDbEntity
  8
DV2_Default
  6
Continuous
 62
     7
100
AcDbSpline
210
0.0
220
0.0
230
1.0
 70
     8
 71
     3
 72
    14
 73
    10
 74
     0
 42
0.0000000217223145
 43
0.0000000001
 40
0.0
 40
0.0
 40
0.0
 40
0.0
 40
0.0042179331723444
 40
0.036442604046015
 40
0.1469698021623934
 40
0.3362333547286504
 40
0.6143755135314479
 40
0.7919706302165226
 40
1.0
 40
1.0
 40
1.0
 40
1.0
 10
193.7145614835734
 20
252.3097800619009
 30
0.0
 10
193.7145648281413
 20
252.3097888832718
 30
0.0
 10
193.7145078167773
 20
252.309958920212
 30
0.0
 10
193.7111575668707
 20
252.3141317527983
 30
0.0
 10
193.6915474048551
 20
252.3413810157342
 30
0.0
 10
193.6549935118458
 20
252.4083517257428
 30
0.0
 10
193.6130814718783
 20
252.508111511376
 30
0.0
 10
193.5730333775315
 20
252.6255899493933
 30
0.0
 10
193.5546457647233
 20
252.6918994287969
 30
0.0
 10
193.5431008435435
 20
252.7341625548527
 30
0.0
  0
ARC
  5
21D
330
1F2
100
AcDbEntity
  8
DV2_Default
  6
Continuous
 62
     7
100
AcDbCircle
 10
177.0679987368
 20
248.3753388702
 30
0.0
 40
17.04186635702587
100
AcDbArc
 50
14.8015003764
 51
16.5891809087
  0
LINE
  5
21E
330
1F2
100
AcDbEntity
  8
DV2_Default
  6
Continuous
 62
     7
100
AcDbLine
 10
193.4019300769
 20
253.2353056646
 30
0.0
 11
193.3384452892
 21
253.4188690378
 31
0.0
  0
ARC
  5
21F
330
1F2
100
AcDbEntity
  8
DV2_Default
  6
Continuous
 62
     7
100
AcDbCircle
 10
192.8524111526
 20
253.1720809632
 30
0.0
 40
0.5450829417209115
100
AcDbArc
 50
26.59145409
 51
43.1792367655
  0
ARC
  5
220
330
1F2
100
AcDbEntity
  8
DV2_Default
  6
Continuous
 62
     7
100
AcDbCircle
 10
187.2169640335
 20
254.447439798
 30
0.0
 40
10.58522126977824
100
AcDbArc
 50
250.5612326924
 51
259.8464735256
  0
ARC
  5
221
330
1F2
100
AcDbEntity
  8
DV2_Default
  6
Continuous
 62
     7
100
AcDbCircle
 10
198.0269752777
 20
244.8035410639
 30
0.0
 40
0.2999731857940108
100
AcDbArc
 50
288.2586746592
 51
342.1101991029
  0
LINE
  5
222
330
1F2
100
AcDbEntity
  8
DV2_Default
  6
Continuous
 62
     7
100
AcDbLine
 10
187.6398082516
 20
243.7963276322
 30
0.0
 11
193.7571116841
 21
243.7963094393
 31
0.0
  0
ARC
  5
223
330
1F2
100
AcDbEntity
  8
DV2_Default
  6
Continuous
 62
     7
100
AcDbCircle
 10
193.6969604059
 20
257.6627796253
 30
0.0
 40
13.86660059853555
100
AcDbArc
 50
270.2484906558
 51
288.6117010483
  0
ARC
  5
224
330
1F2
100
AcDbEntity
  8
DV2_Default
  6
Continuous
 62
     7
100
AcDbCircle
 10
192.6273918382
 20
243.5946032669
 30
0.0
 40
0.2500000268591086
100
AcDbArc
 50
125.7806370248
 51
176.8631763403
  0
ARC
  5
225
330
1F2
100
AcDbEntity
  8
DV2_Default
  6
Continuous
 62
     7
100
AcDbCircle
 10
164.211011131
 20
245.0268592495
 30
0.0
 40
28.20288419346192
100
AcDbArc
 50
348.2499153308
 51
357.186453471
  0
LINE
  5
226
330
1F2
100
AcDbEntity
  8
DV2_Default
  6
Continuous
 62
     7
100
AcDbLine
 10
183.0746516328
 20
239.0744761622
 30
0.0
 11
191.5358045261
 21
239.0744763714
 31
0.0
  0
SPLINE
  5
227
330
1F2
100
AcDbEntity
  8
DV2_Default
  6
Continuous
 62
     7
100
AcDbSpline
210
0.0
220
0.0
230
1.0
 70
     8
 71
     3
 72
    11
 73
     7
 74
     0
 42
0.0000000243612893
 43
0.0000000001
 40
0.0
 40
0.0
 40
0.0
 40
0.0
 40
0.2533364863669383
 40
0.4999966682450468
 40
0.7466583802035179
 40
1.0
 40
1.0
 40
1.0
 40
1.0
 10
191.5358045265822
 20
239.0745036443496
 30
0.0
 10
191.573167585468
 20
239.0776936396855
 30
0.0
 10
191.6364194504817
 20
239.0847861176532
 30
0.0
 10
191.7269165350325
 20
239.136226376383
 30
0.0
 10
191.7967762105642
 20
239.2133988412345
 30
0.0
 10
191.8174310122479
 20
239.2736033953222
 30
0.0
 10
191.8286561996808
 20
239.3093836467836
 30
0.0
  0
LINE
  5
228
330
1F2
100
AcDbEntity
  8
DV2_Default
  6
Continuous
 62
     7
100
AcDbLine
 10
191.5358040319
 20
259.0746833628
 30
0.0
 11
183.0746511384
 21
259.0746831537
 31
0.0
  0
SPLINE
  5
229
330
1F2
100
AcDbEntity
  8
DV2_Default
  6
Continuous
 62
     7
100
AcDbSpline
210
0.0
220
0.0
230
1.0
 70
     8
 71
     3
 72
    11
 73
     7
 74
     0
 42
0.0000000243612129
 43
0.0000000001
 40
0.0
 40
0.0
 40
0.0
 40
0.0
 40
0.2533417088271326
 40
0.500003415230406
 40
0.7466635572270337
 40
1.0
 40
1.0
 40
1.0
 40
1.0
 10
191.828655986503
 20
258.8397748895345
 30
0.0
 10
191.8174308970037
 20
258.875555304734
 30
0.0
 10
191.7967762495105
 20
258.9357601353568
 30
0.0
 10
191.726916534179
 20
259.0129330164042
 30
0.0
 10
191.6364192483426
 20
259.064373560798
 30
0.0
 10
191.5731671973065
 20
259.0714660779286
 30
0.0
 10
191.535804032167
 20
259.0746560898727
 30
0.0
  0
ARC
  5
22A
330
1F2
100
AcDbEntity
  8
DV2_Default
  6
Continuous
 62
     7
100
AcDbCircle
 10
183.0743066403
 20
258.7737155931
 30
0.0
 40
0.3000549896611793
100
AcDbArc
 50
89.9342177494
 51
157.340149218
  0
ARC
  5
22B
330
1F2
100
AcDbEntity
  8
DV2_Default
  6
Continuous
 62
     7
100
AcDbCircle
 10
216.4489121211
 20
257.7912148758
 30
0.0
 40
33.66940313654602
100
AcDbArc
 50
178.1309823725
 51
180.4349983426
  0
ARC
  5
22C
330
1F2
100
AcDbEntity
  8
DV2_Default
  6
Continuous
 62
     7
100
AcDbCircle
 10
183.0739850007
 20
239.3747219605
 30
0.0
 40
0.2993337719468021
100
AcDbArc
 50
180.0932782185
 51
270.1276008338
  0
ARC
  5
22D
330
1F2
100
AcDbEntity
  8
DV2_Default
  6
Continuous
 62
     7
100
AcDbCircle
 10
192.62740512
 20
254.5546303517
 30
0.0
 40
0.249999593338046
100
AcDbArc
 50
183.1372024865
 51
234.3046177994
  0
ARC
  5
22E
330
1F2
100
AcDbEntity
  8
DV2_Default
  6
Continuous
 62
     7
100
AcDbCircle
 10
164.2240920179
 20
253.1243417163
 30
0.0
 40
28.18966171847159
100
AcDbArc
 50
2.8191302233
 51
11.751378283
  0
ARC
  5
22F
330
1F2
100
AcDbEntity
  8
DV2_Default
  6
Continuous
 62
     7
100
AcDbCircle
 10
183.7917969449
 20
244.9578197756
 30
0.0
 40
0.5075231347808565
100
AcDbArc
 50
208.0313056495
 51
224.2140918669
  0
ARC
  5
230
330
1F2
100
AcDbEntity
  8
DV2_Default
  6
Continuous
 62
     7
100
AcDbCircle
 10
183.7300912318
 20
244.897062828
 30
0.0
 40
0.4209100433997812
100
AcDbArc
 50
223.7797192108
 51
244.0917703109
  0
ARC
  5
231
330
1F2
100
AcDbEntity
  8
DV2_Default
  6
Continuous
 62
     7
100
AcDbCircle
 10
185.2614941709
 20
248.9159924187
 30
0.0
 40
4.719881827534873
100
AcDbArc
 50
248.6446617189
 51
250.5997547034
  0
LINE
  5
232
330
1F2
100
AcDbEntity
  8
DV2_Default
  6
Continuous
 62
     7
100
AcDbLine
 10
183.2754800672
 20
244.9062575858
 30
0.0
 11
183.3453095405
 21
244.7165080525
 31
0.0
  0
ARC
  5
233
330
1F2
100
AcDbEntity
  8
DV2_Default
  6
Continuous
 62
     7
100
AcDbCircle
 10
196.3984220928
 20
249.073501635
 30
0.0
 40
13.76750931546318
100
AcDbArc
 50
162.3653144619
 51
197.6234279518
  0
LINE
  5
234
330
1F2
100
AcDbEntity
  8
DV2_Default
  6
Continuous
 62
     7
100
AcDbLine
 10
183.3451938809
 20
253.4326493027
 30
0.0
 11
183.2756212356
 21
253.2435120469
 31
0.0
  0
ARC
  5
235
330
1F2
100
AcDbEntity
  8
DV2_Default
  6
Continuous
 62
     7
100
AcDbCircle
 10
187.6713007175
 20
242.1740806205
 30
0.0
 40
12.17769281339843
100
AcDbArc
 50
89.2088575085
 51
109.060835947
  0
ARC
  5
236
330
1F2
100
AcDbEntity
  8
DV2_Default
  6
Continuous
 62
     7
100
AcDbCircle
 10
185.2611187383
 20
249.2346652494
 30
0.0
 40
4.718323028847857
100
AcDbArc
 50
109.4131037678
 51
111.3639807791
  0
LINE
  5
237
330
1F2
100
AcDbEntity
  8
DV2_Default
  6
Continuous
 62
     7
100
AcDbLine
 10
189.0085645085
 20
254.3528975524
 30
0.0
 11
187.6348212675
 21
254.3528335006
 31
0.0
  0
ARC
  5
238
330
1F2
100
AcDbEntity
  8
DV2_Default
  6
Continuous
 62
     7
100
AcDbCircle
 10
183.7302625631
 20
253.2514782912
 30
0.0
 40
0.4215559331105512
100
AcDbArc
 50
115.9753391213
 51
136.1914991114
  0
ARC
  5
239
330
1F2
100
AcDbEntity
  8
DV2_Default
  6
Continuous
 62
     7
100
AcDbCircle
 10
183.7930212475
 20
253.1904909883
 30
0.0
 40
0.509104069941651
100
AcDbArc
 50
135.8382942738
 51
151.9552006208
  0
LINE
  5
23A
330
1F2
100
AcDbEntity
  8
DV2_Default
  6
Continuous
 62
     7
100
AcDbLine
 10
193.1224787511
 20
253.6334997897
 30
0.0
 11
192.9721779236
 21
253.6873663453
 31
0.0
  0
ARC
  5
23B
330
1F2
100
AcDbEntity
  8
DV2_Default
  6
Continuous
 62
     7
100
AcDbCircle
 10
192.902340314
 20
253.18090718
 30
0.0
 40
0.503282085798967
100
AcDbArc
 50
46.052835831
 51
64.3953743372
  0
ARC
  5
23C
330
1F2
100
AcDbEntity
  8
DV2_Default
  6
Continuous
 62
     7
100
AcDbCircle
 10
191.1369458844
 20
241.226192571
 30
0.0
 40
13.12703680493611
100
AcDbArc
 50
90.2862012125
 51
94.7785541675
  0
LINE
  5
23D
330
1F2
100
AcDbEntity
  8
DV2_Default
  6
Continuous
 62
     7
100
AcDbLine
 10
180.7746534739
 20
239.8186989494
 30
0.0
 11
180.7746534671
 21
239.8845979912
 31
0.0
  0
LINE
  5
23E
330
1F2
100
AcDbEntity
  8
DV2_Default
  6
Continuous
 62
     7
100
AcDbLine
 10
180.7746534671
 20
239.8845979912
 30
0.0
 11
180.7746534652
 21
239.9901078944
 31
0.0
  0
LINE
  5
23F
330
1F2
100
AcDbEntity
  8
DV2_Default
  6
Continuous
 62
     7
100
AcDbLine
 10
180.7746534652
 20
239.9901078944
 30
0.0
 11
180.7746525673
 21
258.1507181951
 31
0.0
  0
LINE
  5
240
330
1F2
100
AcDbEntity
  8
DV2_Default
  6
Continuous
 62
     7
100
AcDbLine
 10
180.7746525673
 20
258.1507181951
 30
0.0
 11
180.7746525588
 21
258.2562288809
 31
0.0
  0
LINE
  5
241
330
1F2
100
AcDbEntity
  8
DV2_Default
  6
Continuous
 62
     7
100
AcDbLine
 10
180.7746525588
 20
258.2562288809
 30
0.0
 11
180.7746525591
 21
258.3221275723
 31
0.0
  0
LINE
  5
242
330
1F2
100
AcDbEntity
  8
DV2_Default
  6
Continuous
 62
     7
100
AcDbLine
 10
180.7746525466
 20
258.6354314386
 30
0.0
 11
180.7746524971
 21
259.8701497819
 31
0.0
  0
LINE
  5
243
330
1F2
100
AcDbEntity
  8
DV2_Default
  6
Continuous
 62
     7
100
AcDbLine
 10
180.9746535715
 20
238.0708795581
 30
0.0
 11
180.974653509
 21
239.6294934625
 31
0.0
  0
ARC
  5
244
330
1F2
100
AcDbEntity
  8
DV2_Default
  6
Continuous
 62
     7
100
AcDbCircle
 10
180.9585247942
 20
239.8194936024
 30
0.0
 40
0.1838730374118371
100
AcDbArc
 50
180.2476187197
 51
191.9680955954
  0
LINE
  5
245
330
1F2
100
AcDbEntity
  8
DV2_Default
  6
Continuous
 62
     7
100
AcDbLine
 10
180.9746524838
 20
260.069947332
 30
0.0
 11
180.9746525463
 21
258.5113334275
 31
0.0
  0
ARC
  5
246
330
1F2
100
AcDbEntity
  8
DV2_Default
  6
Continuous
 62
     7
100
AcDbCircle
 10
181.0964505992
 20
258.7182440374
 30
0.0
 40
0.2514135109922402
100
AcDbArc
 50
245.6210190348
 51
272.7480215277
  0
ARC
  5
247
330
1F2
100
AcDbEntity
  8
DV2_Default
  6
Continuous
 62
     7
100
AcDbCircle
 10
182.452763394
 20
258.718721154
 30
0.0
 40
0.251885763746639
100
AcDbArc
 50
267.2774367744
 51
294.3531810022
  0
LINE
  5
248
330
1F2
100
AcDbEntity
  8
DV2_Default
  6
Continuous
 62
     7
100
AcDbLine
 10
182.5746525761
 20
258.5113329198
 30
0.0
 11
182.5746525136
 21
260.0699474111
 31
0.0
  0
ARC
  5
249
330
1F2
100
AcDbEntity
  8
DV2_Default
  6
Continuous
 62
     7
100
AcDbCircle
 10
182.5909889325
 20
258.3214233623
 30
0.0
 40
0.183664997879615
100
AcDbArc
 50
0.219533466
 51
11.8961502639
  0
LINE
  5
24A
330
1F2
100
AcDbEntity
  8
DV2_Default
  6
Continuous
 62
     7
100
AcDbLine
 10
182.7746525886
 20
258.2562292737
 30
0.0
 11
182.7746525821
 21
258.3221270881
 31
0.0
  0
LINE
  5
24B
330
1F2
100
AcDbEntity
  8
DV2_Default
  6
Continuous
 62
     7
100
AcDbLine
 10
182.7746525903
 20
258.1507199977
 30
0.0
 11
182.7746525886
 21
258.2562292737
 31
0.0
  0
ARC
  5
24C
330
1F2
100
AcDbEntity
  8
DV2_Default
  6
Continuous
 62
     7
100
AcDbCircle
 10
182.442607578
 20
258.2101858882
 30
0.0
 40
0.1335821503737848
100
AcDbArc
 50
31.3969154698
 51
90.7758095445
  0
ARC
  5
24D
330
1F2
100
AcDbEntity
  8
DV2_Default
  6
Continuous
 62
     7
100
AcDbCircle
 10
182.4426000722
 20
239.9306566081
 30
0.0
 40
0.1335976259922845
100
AcDbArc
 50
269.2278929169
 51
328.59961212
  0
ARC
  5
24E
330
1F2
100
AcDbEntity
  8
DV2_Default
  6
Continuous
 62
     7
100
AcDbCircle
 10
181.1067047308
 20
258.2101733471
 30
0.0
 40
0.1335945008393813
100
AcDbArc
 50
89.2281877033
 51
148.5999082029
  0
ARC
  5
24F
330
1F2
100
AcDbEntity
  8
DV2_Default
  6
Continuous
 62
     7
100
AcDbCircle
 10
181.1066969286
 20
239.93063803
 30
0.0
 40
0.133579223359469
100
AcDbArc
 50
211.396055815
 51
270.7756408315
  0
LINE
  5
250
330
1F2
100
AcDbEntity
  8
DV2_Default
  6
Continuous
 62
     7
100
AcDbLine
 10
182.7746525903
 20
258.1507199977
 30
0.0
 11
182.7746529429
 21
251.0202002133
 31
0.0
  0
LINE
  5
251
330
1F2
100
AcDbEntity
  8
DV2_Default
  6
Continuous
 62
     7
100
AcDbLine
 10
182.7746531364
 20
247.1061042563
 30
0.0
 11
182.7746534882
 21
239.9901062896
 31
0.0
  0
LINE
  5
252
330
1F2
100
AcDbEntity
  8
DV2_Default
  6
Continuous
 62
     7
100
AcDbLine
 10
182.7746534969
 20
239.8845977956
 30
0.0
 11
182.7746534882
 21
239.9901062896
 31
0.0
  0
LINE
  5
253
330
1F2
100
AcDbEntity
  8
DV2_Default
  6
Continuous
 62
     7
100
AcDbLine
 10
182.774653497
 20
239.8186996313
 30
0.0
 11
182.7746534969
 21
239.8845977956
 31
0.0
  0
LINE
  5
254
330
1F2
100
AcDbEntity
  8
DV2_Default
  6
Continuous
 62
     7
100
AcDbLine
 10
182.774653588
 20
238.2706771872
 30
0.0
 11
182.7746535327
 21
239.6513527214
 31
0.0
  0
LINE
  5
255
330
1F2
100
AcDbEntity
  8
DV2_Default
  6
Continuous
 62
     7
100
AcDbLine
 10
182.5746535388
 20
239.6294941284
 30
0.0
 11
182.5746536013
 21
238.0708796372
 31
0.0
  0
ARC
  5
256
330
1F2
100
AcDbEntity
  8
DV2_Default
  6
Continuous
 62
     7
100
AcDbCircle
 10
182.4528536901
 20
239.4225739471
 30
0.0
 40
0.2514223679431977
100
AcDbArc
 50
65.6215153014
 51
92.7479737454
  0
ARC
  5
257
330
1F2
100
AcDbEntity
  8
DV2_Default
  6
Continuous
 62
     7
100
AcDbCircle
 10
181.0965414569
 20
239.4221126583
 30
0.0
 40
0.2518787637749742
100
AcDbArc
 50
87.277537979
 51
114.3533373005
  0
ARC
  5
258
330
1F2
100
AcDbEntity
  8
DV2_Default
  6
Continuous
 62
     7
100
AcDbCircle
 10
207.277157369
 20
239.1764540246
 30
0.0
 40
26.50552114418291
100
AcDbArc
 50
178.6921871906
 51
182.1232624938
  0
SPLINE
  5
259
330
1F2
100
AcDbEntity
  8
DV2_Default
  6
Continuous
 62
     7
100
AcDbSpline
210
0.0
220
0.0
230
1.0
 70
     8
 71
     3
 72
    11
 73
     7
 74
     0
 42
0.0000000421150362
 43
0.0000000001
 40
0.0
 40
0.0
 40
0.0
 40
0.0
 40
0.2470848787269429
 40
0.4930377666711753
 40
0.7419966528089961
 40
1.0
 40
1.0
 40
1.0
 40
1.0
 10
180.7898339974359
 20
238.1944393596497
 30
0.0
 10
180.7994244592949
 20
238.175486399428
 30
0.0
 10
180.8165166235371
 20
238.1435013774045
 30
0.0
 10
180.8609142462106
 20
238.1034920839744
 30
0.0
 10
180.9153857056533
 20
238.0767840712148
 30
0.0
 10
180.9525348342402
 20
238.0731530530341
 30
0.0
 10
180.974653571428
 20
238.0715069359352
 30
0.0
  0
SPLINE
  5
25A
330
1F2
100
AcDbEntity
  8
DV2_Default
  6
Continuous
 62
     7
100
AcDbSpline
210
0.0
220
0.0
230
1.0
 70
     8
 71
     3
 72
    11
 73
     7
 74
     0
 42
0.0000000421150362
 43
0.0000000001
 40
0.0
 40
0.0
 40
0.0
 40
0.0
 40
0.2580033472027526
 40
0.5069622333505744
 40
0.7529151212902097
 40
1.0
 40
1.0
 40
1.0
 40
1.0
 10
180.9746524838368
 20
260.0693199540952
 30
0.0
 10
180.9525337468116
 20
260.0676738348044
 30
0.0
 10
180.9153846185844
 20
260.0640428129426
 30
0.0
 10
180.860913161784
 20
260.0373347947966
 30
0.0
 10
180.8165155430657
 20
259.9973254969811
 30
0.0
 10
180.7994233819862
 20
259.9653404732702
 30
0.0
 10
180.7898329220014
 20
259.9463875121024
 30
0.0
  0
ARC
  5
25B
330
1F2
100
AcDbEntity
  8
DV2_Default
  6
Continuous
 62
     7
100
AcDbCircle
 10
196.3203699524
 20
259.0423458961
 30
0.0
 40
15.55682718590716
100
AcDbArc
 50
176.6685388609
 51
182.516025586
  0
LINE
  5
25C
330
1F2
100
AcDbEntity
  8
DV2_Default
  6
Continuous
 62
     7
100
AcDbLine
 10
182.5746525136
 20
260.0699475141
 30
0.0
 11
180.9746524838
 21
260.0699474349
 31
0.0
  0
ARC
  5
25D
330
1F2
100
AcDbEntity
  8
DV2_Default
  6
Continuous
 62
     7
100
AcDbCircle
 10
156.2719931096
 20
258.9643726372
 30
0.0
 40
26.5056766954838
100
AcDbArc
 50
358.692193513
 51
2.1232504623
  0
SPLINE
  5
25E
330
1F2
100
AcDbEntity
  8
DV2_Default
  6
Continuous
 62
     7
100
AcDbSpline
210
0.0
220
0.0
230
1.0
 70
     8
 71
     3
 72
    11
 73
     7
 74
     0
 42
0.0000000421150362
 43
0.0000000001
 40
0.0
 40
0.0
 40
0.0
 40
0.0
 40
0.2470848787370672
 40
0.4930377666759025
 40
0.7419966528070704
 40
1.0
 40
1.0
 40
1.0
 40
1.0
 10
182.7594720876454
 20
259.9463876094808
 30
0.0
 10
182.7498816257867
 20
259.9653405697034
 30
0.0
 10
182.7327894615451
 20
259.9973255917274
 30
0.0
 10
182.6883918388689
 20
260.037334885154
 30
0.0
 10
182.633920379423
 20
260.0640428979042
 30
0.0
 10
182.5967712508361
 20
260.0676739160775
 30
0.0
 10
182.5746525136481
 20
260.0693200331719
 30
0.0
  0
LINE
  5
25F
330
1F2
100
AcDbEntity
  8
DV2_Default
  6
Continuous
 62
     7
100
AcDbLine
 10
180.9746535715
 20
238.0708794551
 30
0.0
 11
182.5746536013
 21
238.0708795342
 31
0.0
  0
SPLINE
  5
260
330
1F2
100
AcDbEntity
  8
DV2_Default
  6
Continuous
 62
     7
100
AcDbSpline
210
0.0
220
0.0
230
1.0
 70
     8
 71
     3
 72
    11
 73
     7
 74
     0
 42
0.0000000421150362
 43
0.0000000001
 40
0.0
 40
0.0
 40
0.0
 40
0.0
 40
0.2580033471948466
 40
0.506962233325459
 40
0.7529151212634769
 40
1.0
 40
1.0
 40
1.0
 40
1.0
 10
182.574653601231
 20
238.0715070150739
 30
0.0
 10
182.5967723382565
 20
238.0731531343552
 30
0.0
 10
182.6339214664845
 20
238.0767841562016
 30
0.0
 10
182.6883929232898
 20
238.1034921743374
 30
0.0
 10
182.7327905420098
 20
238.1435014721539
 30
0.0
 10
182.7498827030891
 20
238.1754864958677
 30
0.0
 10
182.7594731630739
 20
238.1944394570384
 30
0.0
  0
ARC
  5
261
330
1F2
100
AcDbEntity
  8
DV2_Default
  6
Continuous
 62
     7
100
AcDbCircle
 10
167.2289750239
 20
239.0984808635
 30
0.0
 40
15.55678832284979
100
AcDbArc
 50
356.6685310401
 51
2.5160335159
  0
LINE
  5
262
330
1F2
100
AcDbEntity
  8
DV2_Default
  6
Continuous
 62
     7
100
AcDbLine
 10
145.7746536197
 20
232.3748906695
 30
0.0
 11
145.7746537076
 21
232.2226016553
 31
0.0
  0
LINE
  5
263
330
1F2
100
AcDbEntity
  8
DV2_Default
  6
Continuous
 62
     7
100
AcDbLine
 10
145.7746536089
 20
232.4844314209
 30
0.0
 11
145.7746536197
 21
232.3748909189
 31
0.0
  0
LINE
  5
264
330
1F2
100
AcDbEntity
  8
DV2_Default
  6
Continuous
 62
     7
100
AcDbLine
 10
145.7746535964
 20
232.6104529941
 30
0.0
 11
145.7746536089
 21
232.4844314507
 31
0.0
  0
LINE
  5
265
330
1F2
100
AcDbEntity
  8
DV2_Default
  6
Continuous
 62
     7
100
AcDbLine
 10
145.7746535635
 20
232.9440392892
 30
0.0
 11
145.7746535964
 21
232.6104530066
 31
0.0
  0
LINE
  5
266
330
1F2
100
AcDbEntity
  8
DV2_Default
  6
Continuous
 62
     7
100
AcDbLine
 10
145.7746514751
 20
249.0745904064
 30
0.0
 11
145.7746535635
 21
232.9440392892
 31
0.0
  0
LINE
  5
267
330
1F2
100
AcDbEntity
  8
DV2_Default
  6
Continuous
 62
     7
100
AcDbLine
 10
145.7746504462
 20
265.2054354255
 30
0.0
 11
145.7746511753
 21
253.7740094085
 31
0.0
  0
LINE
  5
268
330
1F2
100
AcDbEntity
  8
DV2_Default
  6
Continuous
 62
     7
100
AcDbLine
 10
145.774651302
 20
251.788273506
 30
0.0
 11
145.7746514751
 21
249.0745904064
 31
0.0
  0
LINE
  5
269
330
1F2
100
AcDbEntity
  8
DV2_Default
  6
Continuous
 62
     7
100
AcDbLine
 10
145.7746503404
 20
265.5393269707
 30
0.0
 11
145.7746504462
 21
265.2054354255
 31
0.0
  0
LINE
  5
26A
330
1F2
100
AcDbEntity
  8
DV2_Default
  6
Continuous
 62
     7
100
AcDbLine
 10
145.7746503279
 20
265.6654287846
 30
0.0
 11
145.7746503403
 21
265.5393267808
 31
0.0
  0
LINE
  5
26B
330
1F2
100
AcDbEntity
  8
DV2_Default
  6
Continuous
 62
     7
100
AcDbLine
 10
145.774650317
 20
265.7749060925
 30
0.0
 11
145.7746503279
 21
265.6654287548
 31
0.0
  0
LINE
  5
26C
330
1F2
100
AcDbEntity
  8
DV2_Default
  6
Continuous
 62
     7
100
AcDbLine
 10
145.7746503022
 20
265.9269083466
 30
0.0
 11
145.774650317
 21
265.7749060761
 31
0.0
  0
LINE
  5
26D
330
1F2
100
AcDbEntity
  8
DV2_Default
  6
Continuous
 62
     7
100
AcDbLine
 10
146.2314891007
 20
229.3882530552
 30
0.0
 11
146.024653915
 21
229.3882531866
 31
0.0
  0
ARC
  5
26E
330
1F2
100
AcDbEntity
  8
DV2_Default
  6
Continuous
 62
     7
100
AcDbCircle
 10
146.0246538903
 20
229.6382533563
 30
0.0
 40
0.2499999999944503
100
AcDbArc
 50
192.4177627792
 51
270.0000056655
  0
SPLINE
  5
26F
330
1F2
100
AcDbEntity
  8
DV2_Default
  6
Continuous
 62
     7
100
AcDbSpline
210
0.0
220
0.0
230
1.0
 70
    12
 71
     3
 72
     8
 73
     4
 74
     0
 42
0.0000002390026381
 43
0.0000000001
 40
0.0
 40
0.0
 40
0.0
 40
0.0
 40
1.0
 40
1.0
 40
1.0
 40
1.0
 10
145.7784539747333
 20
232.1810525890992
 30
0.0
 41
1.099250353484758
 10
145.7758844930678
 20
232.1949240575323
 30
0.0
 41
1.120130812643965
 10
145.7746416121166
 20
232.2088132750648
 30
0.0
 41
1.144305921842629
 10
145.7746537075846
 20
232.2226016553294
 30
0.0
 41
1.171775681080748
  0
ARC
  5
270
330
1F2
100
AcDbEntity
  8
DV2_Default
  6
Continuous
 62
     7
100
AcDbCircle
 10
-230.2763863699
 20
230.1648810109
 30
0.0
 40
376.5086764503152
100
AcDbArc
 50
359.8818153778
 51
0.2769146433
  0
SPLINE
  5
271
330
1F2
100
AcDbEntity
  8
DV2_Default
  6
Continuous
 62
     7
100
AcDbSpline
210
0.0
220
0.0
230
1.0
 70
     8
 71
     3
 72
    12
 73
     8
 74
     0
 42
0.0000000525087855
 43
0.0000000001
 40
0.0
 40
0.0
 40
0.0
 40
0.0
 40
0.2492169025207832
 40
0.4993814582125243
 40
0.7495336462737019
 40
0.8746640688030838
 40
1.0
 40
1.0
 40
1.0
 40
1.0
 10
146.2246672114011
 20
232.1747342438534
 30
0.0
 10
146.2246705770689
 20
232.1541004799878
 30
0.0
 10
146.2246671252061
 20
232.1124405636822
 30
0.0
 10
146.2247962701284
 20
232.0668744827656
 30
0.0
 10
146.2241846470691
 20
232.029482913076
 30
0.0
 10
146.2247793371052
 20
232.0026641763265
 30
0.0
 10
146.2268565482464
 20
231.9906245278544
 30
0.0
 10
146.2278927335149
 20
231.984567571204
 30
0.0
  0
LINE
  5
272
330
1F2
100
AcDbEntity
  8
DV2_Default
  6
Continuous
 62
     7
100
AcDbLine
 10
146.2246672118
 20
232.1746142052
 30
0.0
 11
146.0246538918
 21
232.1747804233
 31
0.0
  0
LINE
  5
273
330
1F2
100
AcDbEntity
  8
DV2_Default
  6
Continuous
 62
     7
100
AcDbLine
 10
146.2246617985
 20
232.3073965421
 30
0.0
 11
146.2246723222
 21
232.1746146621
 31
0.0
  0
LINE
  5
274
330
1F2
100
AcDbEntity
  8
DV2_Default
  6
Continuous
 62
     7
100
AcDbLine
 10
146.2246731325
 20
232.4605039154
 30
0.0
 11
146.2246617985
 21
232.3075653041
 31
0.0
  0
LINE
  5
275
330
1F2
100
AcDbEntity
  8
DV2_Default
  6
Continuous
 62
     7
100
AcDbLine
 10
146.2246601531
 20
232.4605052514
 30
0.0
 11
146.0246536125
 21
232.4606021991
 31
0.0
  0
ARC
  5
276
330
1F2
100
AcDbEntity
  8
DV2_Default
  6
Continuous
 62
     7
100
AcDbCircle
 10
152.3253871531
 20
232.6155188
 30
0.0
 40
6.102691779240223
100
AcDbArc
 50
177.632216362
 51
181.4539358093
  0
ARC
  5
277
330
1F2
100
AcDbEntity
  8
DV2_Default
  6
Continuous
 62
     7
100
AcDbCircle
 10
-9840.7473852296
 20
243.178002859
 30
0.0
 40
9986.980613076385
100
AcDbArc
 50
359.9408489768
 51
0.0338290208
  0
ARC
  5
278
330
1F2
100
AcDbEntity
  8
DV2_Default
  6
Continuous
 62
     7
100
AcDbCircle
 10
-10005.3735376808
 20
254.9246903027
 30
0.0
 40
10151.60671039861
100
AcDbArc
 50
359.9669819875
 51
0.0584550522
  0
ARC
  5
279
330
1F2
100
AcDbEntity
  8
DV2_Default
  6
Continuous
 62
     7
100
AcDbCircle
 10
151.5092627248
 20
265.527101002
 30
0.0
 40
5.28707181837828
100
AcDbArc
 50
178.2474995041
 51
182.6604219951
  0
LINE
  5
27A
330
1F2
100
AcDbEntity
  8
DV2_Default
  6
Continuous
 62
     7
100
AcDbLine
 10
146.2246638969
 20
265.6888806446
 30
0.0
 11
146.024650577
 21
265.6891017498
 31
0.0
  0
LINE
  5
27B
330
1F2
100
AcDbEntity
  8
DV2_Default
  6
Continuous
 62
     7
100
AcDbLine
 10
146.2246584825
 20
265.842125596
 30
0.0
 11
146.2246690074
 21
265.6888812524
 31
0.0
  0
LINE
  5
27C
330
1F2
100
AcDbEntity
  8
DV2_Default
  6
Continuous
 62
     7
100
AcDbLine
 10
146.2246698195
 20
265.9749687597
 30
0.0
 11
146.2246584826
 21
265.8419584925
 31
0.0
  0
LINE
  5
27D
330
1F2
100
AcDbEntity
  8
DV2_Default
  6
Continuous
 62
     7
100
AcDbLine
 10
146.2246568401
 20
265.9749697666
 30
0.0
 11
146.0246502995
 21
265.9750428236
 31
0.0
  0
SPLINE
  5
27E
330
1F2
100
AcDbEntity
  8
DV2_Default
  6
Continuous
 62
     7
100
AcDbSpline
210
0.0
220
0.0
230
1.0
 70
     8
 71
     3
 72
    11
 73
     7
 74
     0
 42
0.0000000525475923
 43
0.0000000001
 40
0.0
 40
0.0
 40
0.0
 40
0.0
 40
0.1429462401130904
 40
0.2501406377237497
 40
0.5004115156927228
 40
1.0
 40
1.0
 40
1.0
 40
1.0
 10
146.2279024522357
 20
266.1647852267909
 30
0.0
 10
146.2269796242009
 20
266.1577993467356
 30
0.0
 10
146.2253411825423
 20
266.1458070046584
 30
0.0
 10
146.2236481987894
 20
266.1186206811562
 30
0.0
 10
146.2254945526693
 20
266.0698710854804
 30
0.0
 10
146.2249996193139
 20
266.0126554346858
 30
0.0
 10
146.2246568382059
 20
265.9747449522887
 30
0.0
  0
ARC
  5
27F
330
1F2
100
AcDbEntity
  8
DV2_Default
  6
Continuous
 62
     7
100
AcDbCircle
 10
-269.6079579255
 20
268.0367289197
 30
0.0
 40
415.8400737654751
100
AcDbArc
 50
359.7420767211
 51
0.0997844102
  0
LINE
  5
280
330
1F2
100
AcDbEntity
  8
DV2_Default
  6
Continuous
 62
     7
100
AcDbLine
 10
146.2314852075
 20
268.7609416957
 30
0.0
 11
146.0246500218
 21
268.7609415235
 31
0.0
  0
LINE
  5
281
330
1F2
100
AcDbEntity
  8
DV2_Default
  6
Continuous
 62
     7
100
AcDbLine
 10
146.0246500218
 20
268.7609415235
 30
0.0
 11
146.0246500227
 21
268.7513174143
 31
0.0
  0
ARC
  5
282
330
1F2
100
AcDbEntity
  8
DV2_Default
  6
Continuous
 62
     7
100
AcDbCircle
 10
146.0246500465
 20
268.5109413538
 30
0.0
 40
0.2499999999944503
100
AcDbArc
 50
90.0000056655
 51
167.625321046
  0
ARC
  5
283
330
1F2
100
AcDbEntity
  8
DV2_Default
  6
Continuous
 62
     7
100
AcDbCircle
 10
146.2744501484
 20
229.8803228904
 30
0.0
 40
0.493941670982282
100
AcDbArc
 50
265.0103404491
 51
296.9550564171
  0
ARC
  5
284
330
1F2
100
AcDbEntity
  8
DV2_Default
  6
Continuous
 62
     7
100
AcDbCircle
 10
147.4041897692
 20
231.2417688658
 30
0.0
 40
1.216987064085369
100
AcDbArc
 50
112.6950067745
 51
134.2882822264
  0
SPLINE
  5
285
330
1F2
100
AcDbEntity
  8
DV2_Default
  6
Continuous
 62
     7
100
AcDbSpline
210
0.0
220
0.0
230
1.0
 70
     8
 71
     3
 72
    15
 73
    11
 74
     0
 42
0.0000000232035892
 43
0.0000000001
 40
0.0
 40
0.0
 40
0.0
 40
0.0
 40
0.1346448924005794
 40
0.2663640769774284
 40
0.3986554084246836
 40
0.5350089608536535
 40
0.6592333401505975
 40
0.781293743046856
 40
0.8930691549044515
 40
1.0
 40
1.0
 40
1.0
 40
1.0
 10
146.9346416743653
 20
265.5062306005561
 30
0.0
 10
146.9152721690621
 20
265.5136926706855
 30
0.0
 10
146.8772655706945
 20
265.5286316290937
 30
0.0
 10
146.8189817793092
 20
265.5386966797661
 30
0.0
 10
146.7613469906678
 20
265.5387845259095
 30
0.0
 10
146.7069183565531
 20
265.5288250174719
 30
0.0
 10
146.6569839961032
 20
265.5104156121437
 30
0.0
 10
146.6148591565934
 20
265.484265711185
 30
0.0
 10
146.5793071465508
 20
265.4523642223043
 30
0.0
 10
146.562521489382
 20
265.4258053946933
 30
0.0
 10
146.5544022537228
 20
265.4128689248495
 30
0.0
  0
ARC
  5
286
330
1F2
100
AcDbEntity
  8
DV2_Default
  6
Continuous
 62
     7
100
AcDbCircle
 10
146.2744463525
 20
268.2688718692
 30
0.0
 40
0.4939416708168632
100
AcDbArc
 50
63.0449549063
 51
94.9896708853
  0
LINE
  5
287
330
1F2
100
AcDbEntity
  8
DV2_Default
  6
Continuous
 62
     7
100
AcDbLine
 10
146.8860661573
 20
229.6339753242
 30
0.0
 11
146.498256277
 21
229.4402281826
 31
0.0
  0
LINE
  5
288
330
1F2
100
AcDbEntity
  8
DV2_Default
  6
Continuous
 62
     7
100
AcDbLine
 10
180.2749106779
 20
239.1529182496
 30
0.0
 11
180.2748163031
 21
239.076225673
 31
0.0
  0
ARC
  5
289
330
1F2
100
AcDbEntity
  8
DV2_Default
  6
Continuous
 62
     7
100
AcDbCircle
 10
180.3568100257
 20
178.3350892493
 30
0.0
 40
60.74119176487169
100
AcDbArc
 50
90.0773428302
 51
116.8957894386
  0
LINE
  5
28A
330
1F2
100
AcDbEntity
  8
DV2_Default
  6
Continuous
 62
     7
100
AcDbLine
 10
146.8860409867
 20
229.6340023954
 30
0.0
 11
146.9146897043
 21
229.6802669156
 31
0.0
  0
ARC
  5
28B
330
1F2
100
AcDbEntity
  8
DV2_Default
  6
Continuous
 62
     7
100
AcDbCircle
 10
171.1009087785
 20
186.7911000704
 30
0.0
 40
49.21252265665738
100
AcDbArc
 50
111.7317943096
 51
119.4751828764
  0
LINE
  5
28C
330
1F2
100
AcDbEntity
  8
DV2_Default
  6
Continuous
 62
     7
100
AcDbLine
 10
180.2748163031
 20
239.076225673
 30
0.0
 11
180.2749106745
 21
239.152917999
 31
0.0
  0
LINE
  5
28D
330
1F2
100
AcDbEntity
  8
DV2_Default
  6
Continuous
 62
     7
100
AcDbLine
 10
180.2749087126
 20
258.9962832336
 30
0.0
 11
180.2748143258
 21
259.0729758105
 31
0.0
  0
ARC
  5
28E
330
1F2
100
AcDbEntity
  8
DV2_Default
  6
Continuous
 62
     7
100
AcDbCircle
 10
181.3448482359
 20
326.8379023406
 30
0.0
 40
67.77337412439502
100
AcDbArc
 50
239.0585329395
 51
269.0953530769
  0
ARC
  5
28F
330
1F2
100
AcDbEntity
  8
DV2_Default
  6
Continuous
 62
     7
100
AcDbCircle
 10
180.2747999637
 20
239.5760787399
 30
0.0
 40
0.4998530671532211
100
AcDbArc
 50
270.0018729038
 51
348.4627593965
  0
ARC
  5
290
330
1F2
100
AcDbEntity
  8
DV2_Default
  6
Continuous
 62
     7
100
AcDbCircle
 10
180.0268211778
 20
242.0878711539
 30
0.0
 40
1.551468534231556
100
AcDbArc
 50
267.0709258768
 51
290.5163323646
  0
LINE
  5
291
330
1F2
100
AcDbEntity
  8
DV2_Default
  6
Continuous
 62
     7
100
AcDbLine
 10
180.7746519732
 20
249.0746013856
 30
0.0
 11
180.7746527522
 21
241.2350735093
 31
0.0
  0
LINE
  5
292
330
1F2
100
AcDbEntity
  8
DV2_Default
  6
Continuous
 62
     7
100
AcDbLine
 10
180.7746512019
 20
256.9141178296
 30
0.0
 11
180.7746519732
 21
249.0746013856
 31
0.0
  0
ARC
  5
293
330
1F2
100
AcDbEntity
  8
DV2_Default
  6
Continuous
 62
     7
100
AcDbCircle
 10
180.0268264513
 20
256.0611392724
 30
0.0
 40
1.55164445881305
100
AcDbArc
 50
69.4863722614
 51
92.9289991382
  0
LINE
  5
294
330
1F2
100
AcDbEntity
  8
DV2_Default
  6
Continuous
 62
     7
100
AcDbLine
 10
180.7746511589
 20
257.3631052856
 30
0.0
 11
180.7746511747
 21
257.1939479475
 31
0.0
  0
LINE
  5
295
330
1F2
100
AcDbEntity
  8
DV2_Default
  6
Continuous
 62
     7
100
AcDbLine
 10
180.7746511747
 20
257.1939479475
 30
0.0
 11
180.7746512019
 21
256.9141178296
 31
0.0
  0
LINE
  5
296
330
1F2
100
AcDbEntity
  8
DV2_Default
  6
Continuous
 62
     7
100
AcDbLine
 10
180.7746527522
 20
241.2350735093
 30
0.0
 11
180.7746527804
 21
240.9552541185
 31
0.0
  0
LINE
  5
297
330
1F2
100
AcDbEntity
  8
DV2_Default
  6
Continuous
 62
     7
100
AcDbLine
 10
180.7746527804
 20
240.9552541185
 30
0.0
 11
180.7746527981
 21
240.7860997832
 31
0.0
  0
LINE
  5
298
330
1F2
100
AcDbEntity
  8
DV2_Default
  6
Continuous
 62
     7
100
AcDbLine
 10
145.7803330843
 20
229.5913557858
 30
0.0
 11
145.8139794388
 21
229.5427188225
 31
0.0
  0
SPLINE
  5
299
330
1F2
100
AcDbEntity
  8
DV2_Default
  6
Continuous
 62
     7
100
AcDbSpline
210
0.0
220
0.0
230
1.0
 70
     8
 71
     3
 72
    17
 73
    13
 74
     0
 42
0.0000000048915928
 43
0.0000000001
 40
0.0
 40
0.0
 40
0.0
 40
0.0
 40
0.1469900917962405
 40
0.2908100810208458
 40
0.4204874505966539
 40
0.5360173461971344
 40
0.6373984879183863
 40
0.72463127993769
 40
0.7977169035864882
 40
0.8708004097836688
 40
0.9580286908021548
 40
1.0
 40
1.0
 40
1.0
 40
1.0
 10
145.7786595667946
 20
232.1810302655892
 30
0.0
 10
145.7786595811276
 20
232.0352078317081
 30
0.0
 10
145.778659604047
 20
231.7934869437067
 30
0.0
 10
145.7786596419385
 20
231.4443977588963
 30
0.0
 10
145.7786596591406
 20
231.1528536074993
 30
0.0
 10
145.7786597186708
 20
230.911770069696
 30
0.0
 10
145.7786596278853
 20
230.7164928504496
 30
0.0
 10
145.778659970929
 20
230.5605031354272
 30
0.0
 10
145.7786589847099
 20
230.4307045092263
 30
0.0
 10
145.778662814188
 20
230.3094508651493
 30
0.0
 10
145.7786723941695
 20
230.2125606530194
 30
0.0
 10
145.7786800284864
 20
230.1549653349753
 30
0.0
 10
145.778682652815
 20
230.1367063963588
 30
0.0
  0
ARC
  5
29A
330
1F2
100
AcDbEntity
  8
DV2_Default
  6
Continuous
 62
     7
100
AcDbCircle
 10
146.0254671156
 20
229.6486390838
 30
0.0
 40
0.2507547974650601
100
AcDbArc
 50
201.2184021292
 51
270.2982458085
  0
ARC
  5
29B
330
1F2
100
AcDbEntity
  8
DV2_Default
  6
Continuous
 62
     7
100
AcDbCircle
 10
146.025470021
 20
268.5005555167
 30
0.0
 40
0.2507620500248887
100
AcDbArc
 50
90.1873589776
 51
158.8909146964
  0
SPLINE
  5
29C
330
1F2
100
AcDbEntity
  8
DV2_Default
  6
Continuous
 62
     7
100
AcDbSpline
210
0.0
220
0.0
230
1.0
 70
     8
 71
     3
 72
    11
 73
     7
 74
     0
 42
0.0000000252474371
 43
0.0000000001
 40
0.0
 40
0.0
 40
0.0
 40
0.0
 40
0.1689017911289419
 40
0.4686414430076741
 40
0.7683899141145091
 40
1.0
 40
1.0
 40
1.0
 40
1.0
 10
145.7786268950048
 20
267.8914800220358
 30
0.0
 10
145.7786251917958
 20
267.8717085909252
 30
0.0
 10
145.7786211017268
 20
267.8156509495649
 30
0.0
 10
145.7786182524466
 20
267.718324661361
 30
0.0
 10
145.7786190728212
 20
267.605637902436
 30
0.0
 10
145.7786190573457
 20
267.5294101568279
 30
0.0
 10
145.7786190309535
 20
267.4954002160193
 30
0.0
  0
SPLINE
  5
29D
330
1F2
100
AcDbEntity
  8
DV2_Default
  6
Continuous
 62
     7
100
AcDbSpline
210
0.0
220
0.0
230
1.0
 70
     8
 71
     3
 72
    13
 73
     9
 74
     0
 42
0.0000000066254357
 43
0.0000000001
 40
0.0
 40
0.0
 40
0.0
 40
0.0
 40
0.0316701132566784
 40
0.1856872321567025
 40
0.3611990248479455
 40
0.558203527650486
 40
0.7766932208381322
 40
1.0
 40
1.0
 40
1.0
 40
1.0
 10
145.7786190156855
 20
267.4774155463766
 30
0.0
 10
145.7786190043399
 20
267.4647592634195
 30
0.0
 10
145.7786189337561
 20
267.3899288059597
 30
0.0
 10
145.7786190291432
 20
267.2372826802288
 30
0.0
 10
145.7786190196803
 20
266.9962107903884
 30
0.0
 10
145.7786190593516
 20
266.7046804604656
 30
0.0
 10
145.7786190907189
 20
266.3556071546509
 30
0.0
 10
145.7786191155341
 20
266.1138971135234
 30
0.0
 10
145.7786191300319
 20
265.9680808506425
 30
0.0
  0
LINE
  5
29E
330
1F2
100
AcDbEntity
  8
DV2_Default
  6
Continuous
 62
     7
100
AcDbLine
 10
145.8135391923
 20
268.6057920848
 30
0.0
 11
145.7802731975
 21
268.5576109624
 31
0.0
  0
ARC
  5
29F
330
1F2
100
AcDbEntity
  8
DV2_Default
  6
Continuous
 62
     7
100
AcDbCircle
 10
180.1986780678
 20
239.7138180901
 30
0.0
 40
0.5657896142468581
100
AcDbArc
 50
277.2351484839
 51
333.9130041484
  0
SPLINE
  5
2A0
330
1F2
100
AcDbEntity
  8
DV2_Default
  6
Continuous
 62
     7
100
AcDbSpline
210
0.0
220
0.0
230
1.0
 70
     8
 71
     3
 72
     9
 73
     5
 74
     0
 42
0.0000002501426839
 43
0.0000000001
 40
0.0
 40
0.0
 40
0.0
 40
0.0
 40
0.0429710847051254
 40
0.9999999999999999
 40
0.9999999999999999
 40
0.9999999999999999
 40
0.9999999999999999
 10
180.7467583312235
 20
239.4457578942285
 30
0.0
 10
180.7470573412617
 20
239.4457029452601
 30
0.0
 10
180.7539321548881
 20
239.4450367720263
 30
0.0
 10
180.7588052935414
 20
239.4587180175694
 30
0.0
 10
180.7642124000297
 20
239.4761412123578
 30
0.0
  0
ARC
  5
2A1
330
1F2
100
AcDbEntity
  8
DV2_Default
  6
Continuous
 62
     7
100
AcDbCircle
 10
180.1986782453
 20
239.7138176781
 30
0.0
 40
0.5657894288863708
100
AcDbArc
 50
277.2351314841
 51
341.8453326854
  0
ARC
  5
2A2
330
1F2
100
AcDbEntity
  8
DV2_Default
  6
Continuous
 62
     7
100
AcDbCircle
 10
175.1621961633
 20
238.6686358385
 30
0.0
 40
5.69855373721454
100
AcDbArc
 50
9.9737559307
 51
11.9942270304
  0
SPLINE
  5
2A3
330
1F2
100
AcDbEntity
  8
DV2_Default
  6
Continuous
 62
     7
100
AcDbSpline
210
0.0
220
0.0
230
1.0
 70
     8
 71
     3
 72
     9
 73
     5
 74
     0
 42
0.0000002501425278
 43
0.0000000001
 40
0.0
 40
0.0
 40
0.0
 40
0.0
 40
0.0429714597087597
 40
1.0
 40
1.0
 40
1.0
 40
1.0
 10
180.7467581643558
 20
239.4457572743669
 30
0.0
 10
180.7470571775431
 20
239.4457023240539
 30
0.0
 10
180.7539320032977
 20
239.4450361366297
 30
0.0
 10
180.758805160514
 20
239.4587173822837
 30
0.0
 10
180.7642122869063
 20
239.4761405728147
 30
0.0
  0
LINE
  5
2A4
330
1F2
100
AcDbEntity
  8
DV2_Default
  6
Continuous
 62
     7
100
AcDbLine
 10
180.7642709429
 20
239.7745672478
 30
0.0
 11
180.7648651725
 21
240.6915627777
 31
0.0
  0
SPLINE
  5
2A5
330
1F2
100
AcDbEntity
  8
DV2_Default
  6
Continuous
 62
     7
100
AcDbSpline
210
0.0
220
0.0
230
1.0
 70
     8
 71
     3
 72
     9
 73
     5
 74
     0
 42
0.000000250145445
 43
0.0000000001
 40
0.0
 40
0.0
 40
0.0
 40
0.0
 40
0.9570319476068497
 40
1.0
 40
1.0
 40
1.0
 40
1.0
 10
180.7642102898274
 20
258.6730611891385
 30
0.0
 10
180.758803188428
 20
258.6904842046932
 30
0.0
 10
180.7539300717476
 20
258.7041652636947
 30
0.0
 10
180.7470553200954
 20
258.7034990810014
 30
0.0
 10
180.7467563341379
 20
258.7034441376771
 30
0.0
  0
LINE
  5
2A6
330
1F2
100
AcDbEntity
  8
DV2_Default
  6
Continuous
 62
     7
100
AcDbLine
 10
180.7648635147
 20
257.4576356413
 30
0.0
 11
180.7642691046
 21
258.3746333516
 31
0.0
  0
ARC
  5
2A7
330
1F2
100
AcDbEntity
  8
DV2_Default
  6
Continuous
 62
     7
100
AcDbCircle
 10
175.1623536302
 20
259.4805265682
 30
0.0
 40
5.698390076864486
100
AcDbArc
 50
348.0058115292
 51
350.0263518999
  0
ARC
  5
2A8
330
1F2
100
AcDbEntity
  8
DV2_Default
  6
Continuous
 62
     7
100
AcDbCircle
 10
180.198676245
 20
258.4353834175
 30
0.0
 40
0.5657895696923615
100
AcDbArc
 50
18.1546736785
 51
82.7648664384
  0
SPLINE
  5
2A9
330
1F2
100
AcDbEntity
  8
DV2_Default
  6
Continuous
 62
     7
100
AcDbSpline
210
0.0
220
0.0
230
1.0
 70
     8
 71
     3
 72
     8
 73
     4
 74
     0
 42
0.000000017135266
 43
0.0000000001
 40
0.0
 40
0.0
 40
0.0
 40
0.0
 40
1.0
 40
1.0
 40
1.0
 40
1.0
 10
145.778662856229
 20
232.1914342353685
 30
0.0
 10
145.7787661015718
 20
231.9398854823414
 30
0.0
 10
145.7788726169982
 20
231.7453549284287
 30
0.0
 10
145.7789824025081
 20
231.6078425736303
 30
0.0
  0
LINE
  5
2AA
330
1F2
100
AcDbEntity
  8
DV2_Default
  6
Continuous
 62
     7
100
AcDbLine
 10
140.7746537684
 20
230.5890988437
 30
0.0
 11
140.774651915
 21
249.0745998594
 31
0.0
  0
LINE
  5
2AB
330
1F2
100
AcDbEntity
  8
DV2_Default
  6
Continuous
 62
     7
100
AcDbLine
 10
140.7746519325
 20
249.0745998594
 30
0.0
 11
140.7746502414
 21
267.5601592935
 31
0.0
  0
LINE
  5
2AC
330
1F2
100
AcDbEntity
  8
DV2_Default
  6
Continuous
 62
     7
100
AcDbLine
 10
140.7746501147
 20
267.5602597252
 30
0.0
 11
140.7746500991
 21
267.7203868024
 31
0.0
  0
LINE
  5
2AD
330
1F2
100
AcDbEntity
  8
DV2_Default
  6
Continuous
 62
     7
100
AcDbLine
 10
140.7746500991
 20
267.7203867872
 30
0.0
 11
140.7746500828
 21
267.8862992822
 31
0.0
  0
LINE
  5
2AE
330
1F2
100
AcDbEntity
  8
DV2_Default
  6
Continuous
 62
     7
100
AcDbLine
 10
140.7746500828
 20
267.8862992668
 30
0.0
 11
140.7746500682
 21
268.0395318117
 31
0.0
  0
LINE
  5
2AF
330
1F2
100
AcDbEntity
  8
DV2_Default
  6
Continuous
 62
     7
100
AcDbLine
 10
140.7746500682
 20
268.0395318776
 30
0.0
 11
140.774650063
 21
268.0973892607
 31
0.0
  0
LINE
  5
2B0
330
1F2
100
AcDbEntity
  8
DV2_Default
  6
Continuous
 62
     7
100
AcDbLine
 10
140.774650063
 20
268.0973893749
 30
0.0
 11
140.774650058
 21
268.1530827801
 31
0.0
  0
LINE
  5
2B1
330
1F2
100
AcDbEntity
  8
DV2_Default
  6
Continuous
 62
     7
100
AcDbLine
 10
140.774650085
 20
268.1530574541
 30
0.0
 11
140.7746498036
 21
271.3228463775
 31
0.0
  0
LINE
  5
2B2
330
1F2
100
AcDbEntity
  8
DV2_Default
  6
Continuous
 62
     7
100
AcDbLine
 10
140.7746541032
 20
228.2233270007
 30
0.0
 11
140.7746542034
 21
226.8263472943
 31
0.0
  0
LINE
  5
2B3
330
1F2
100
AcDbEntity
  8
DV2_Default
  6
Continuous
 62
     7
100
AcDbLine
 10
140.774653831
 20
229.9957295874
 30
0.0
 11
140.774653825
 21
230.0511570243
 31
0.0
  0
LINE
  5
2B4
330
1F2
100
AcDbEntity
  8
DV2_Default
  6
Continuous
 62
     7
100
AcDbLine
 10
140.774653825
 20
230.0511570681
 30
0.0
 11
140.7746538188
 21
230.1091014709
 31
0.0
  0
LINE
  5
2B5
330
1F2
100
AcDbEntity
  8
DV2_Default
  6
Continuous
 62
     7
100
AcDbLine
 10
140.7746538188
 20
230.1091015147
 30
0.0
 11
140.7746538031
 21
230.2625000374
 31
0.0
  0
LINE
  5
2B6
330
1F2
100
AcDbEntity
  8
DV2_Default
  6
Continuous
 62
     7
100
AcDbLine
 10
140.7746538031
 20
230.2625000144
 30
0.0
 11
140.7746537866
 21
230.428164657
 31
0.0
  0
LINE
  5
2B7
330
1F2
100
AcDbEntity
  8
DV2_Default
  6
Continuous
 62
     7
100
AcDbLine
 10
140.7746537866
 20
230.4281646173
 30
0.0
 11
140.7746537705
 21
230.5890636769
 31
0.0
  0
LINE
  5
2B8
330
1F2
100
AcDbEntity
  8
DV2_Default
  6
Continuous
 62
     7
100
AcDbLine
 10
145.7746498283
 20
271.0731494808
 30
0.0
 11
145.7746500804
 21
267.9168921079
 31
0.0
  0
LINE
  5
2B9
330
1F2
100
AcDbEntity
  8
DV2_Default
  6
Continuous
 62
     7
100
AcDbLine
 10
145.7746500804
 20
267.9168921079
 30
0.0
 11
145.7746500975
 21
267.7477473136
 31
0.0
  0
LINE
  5
2BA
330
1F2
100
AcDbEntity
  8
DV2_Default
  6
Continuous
 62
     7
100
AcDbLine
 10
145.7746500975
 20
267.7477473136
 30
0.0
 11
145.774650114
 21
267.4776398171
 31
0.0
  0
LINE
  5
2BB
330
1F2
100
AcDbEntity
  8
DV2_Default
  6
Continuous
 62
     7
100
AcDbLine
 10
145.774650114
 20
267.4776398171
 30
0.0
 11
145.7746519333
 21
249.074597189
 31
0.0
  0
LINE
  5
2BC
330
1F2
100
AcDbEntity
  8
DV2_Default
  6
Continuous
 62
     7
100
AcDbLine
 10
145.7746519332
 20
249.074597189
 30
0.0
 11
145.7746537617
 21
230.671566499
 31
0.0
  0
LINE
  5
2BD
330
1F2
100
AcDbEntity
  8
DV2_Default
  6
Continuous
 62
     7
100
AcDbLine
 10
145.7746537618
 20
230.671566499
 30
0.0
 11
145.7746537903
 21
230.4014456047
 31
0.0
  0
LINE
  5
2BE
330
1F2
100
AcDbEntity
  8
DV2_Default
  6
Continuous
 62
     7
100
AcDbLine
 10
145.7746537903
 20
230.4014456047
 30
0.0
 11
145.7746537983
 21
230.2322525096
 31
0.0
  0
LINE
  5
2BF
330
1F2
100
AcDbEntity
  8
DV2_Default
  6
Continuous
 62
     7
100
AcDbLine
 10
145.7746537983
 20
230.2322525096
 30
0.0
 11
145.7746541788
 21
227.0760451798
 31
0.0
  0
ARC
  5
2C0
330
1F2
100
AcDbEntity
  8
DV2_Default
  6
Continuous
 62
     7
100
AcDbCircle
 10
145.2751749388
 20
271.0735289616
 30
0.0
 40
0.4994750336543529
100
AcDbArc
 50
359.9564689892
 51
12.2639998641
  0
ARC
  5
2C1
330
1F2
100
AcDbEntity
  8
DV2_Default
  6
Continuous
 62
     7
100
AcDbCircle
 10
145.2751792893
 20
227.0756656003
 30
0.0
 40
0.4994750337082042
100
AcDbArc
 50
269.9397691804
 51
348.7006594485
  0
ARC
  5
2C2
330
1F2
100
AcDbEntity
  8
DV2_Default
  6
Continuous
 62
     7
100
AcDbCircle
 10
141.0246542034
 20
226.8263476615
 30
0.0
 40
0.24999999999999
100
AcDbArc
 50
180.0000841566
 51
270.0000056655
  0
ARC
  5
2C3
330
1F2
100
AcDbEntity
  8
DV2_Default
  6
Continuous
 62
     7
100
AcDbCircle
 10
141.0175244136
 20
230.0025156111
 30
0.0
 40
0.242957276431858
100
AcDbArc
 50
181.5317818833
 51
191.0735121614
  0
LINE
  5
2C4
330
1F2
100
AcDbEntity
  8
DV2_Default
  6
Continuous
 62
     7
100
AcDbLine
 10
141.0246497798
 20
271.5611045156
 30
0.0
 11
141.0246497789
 21
271.5728461734
 31
0.0
  0
ARC
  5
2C5
330
1F2
100
AcDbEntity
  8
DV2_Default
  6
Continuous
 62
     7
100
AcDbCircle
 10
141.0246498036
 20
271.3228460597
 30
0.0
 40
0.2500000000000063
100
AcDbArc
 50
90.0000056655
 51
179.9999271743
  0
LINE
  5
2C6
330
1F2
100
AcDbEntity
  8
DV2_Default
  6
Continuous
 62
     7
100
AcDbLine
 10
145.2746497788
 20
271.5728468224
 30
0.0
 11
141.2746497788
 21
271.5728464269
 31
0.0
  0
LINE
  5
2C7
330
1F2
100
AcDbEntity
  8
DV2_Default
  6
Continuous
 62
     7
100
AcDbLine
 10
141.6319116663
 20
268.2753963569
 30
0.0
 11
141.5960990984
 21
268.2756836438
 31
0.0
  0
LINE
  5
2C8
330
1F2
100
AcDbEntity
  8
DV2_Default
  6
Continuous
 62
     7
100
AcDbLine
 10
141.0246500796
 20
268.275466058
 30
0.0
 11
141.5960990984
 21
268.2756845792
 31
0.0
  0
LINE
  5
2C9
330
1F2
100
AcDbEntity
  8
DV2_Default
  6
Continuous
 62
     7
100
AcDbLine
 10
141.6319154323
 20
230.1796259775
 30
0.0
 11
141.5961028644
 21
230.1804485318
 31
0.0
  0
LINE
  5
2CA
330
1F2
100
AcDbEntity
  8
DV2_Default
  6
Continuous
 62
     7
100
AcDbLine
 10
141.0246538456
 20
230.1798252525
 30
0.0
 11
141.5961028644
 21
230.180448049
 31
0.0
  0
LINE
  5
2CB
330
1F2
100
AcDbEntity
  8
DV2_Default
  6
Continuous
 62
     7
100
AcDbLine
 10
145.2746542282
 20
226.5763477393
 30
0.0
 11
141.2746542282
 21
226.5763473438
 31
0.0
  0
LINE
  5
2CC
330
1F2
100
AcDbEntity
  8
DV2_Default
  6
Continuous
 62
     7
100
AcDbLine
 10
141.2746542282
 20
226.5763473438
 30
0.0
 11
141.0246542282
 21
226.5763475478
 31
0.0
  0
LINE
  5
2CD
330
1F2
100
AcDbEntity
  8
DV2_Default
  6
Continuous
 62
     7
100
AcDbLine
 10
141.2746497788
 20
271.5728464269
 30
0.0
 11
141.0246497789
 21
271.5728461734
 31
0.0
  0
ARC
  5
2CE
330
1F2
100
AcDbEntity
  8
DV2_Default
  6
Continuous
 62
     7
100
AcDbCircle
 10
146.0246504602
 20
265.2027826123
 30
0.0
 40
0.2500000000027792
100
AcDbArc
 50
180.0000056655
 51
199.1657895017
  0
ARC
  5
2CF
330
1F2
100
AcDbEntity
  8
DV2_Default
  6
Continuous
 62
     7
100
AcDbCircle
 10
145.5935186915
 20
271.1626795132
 30
0.0
 40
0.1695804711509796
100
AcDbArc
 50
5.6481106921
 51
54.1863059364
  0
ARC
  5
2D0
330
1F2
100
AcDbEntity
  8
DV2_Default
  6
Continuous
 62
     7
100
AcDbCircle
 10
-2751.6955926874
 20
269.1864014468
 30
0.0
 40
2897.460768916114
100
AcDbArc
 50
359.9767380026
 51
0.0383669328
  0
ARC
  5
2D1
330
1F2
100
AcDbEntity
  8
DV2_Default
  6
Continuous
 62
     7
100
AcDbCircle
 10
145.2739369563
 20
271.0606885111
 30
0.0
 40
0.500803836874126
100
AcDbArc
 50
22.4711963684
 51
89.918447916
  0
LINE
  5
2D2
330
1F2
100
AcDbEntity
  8
DV2_Default
  6
Continuous
 62
     7
100
AcDbLine
 10
145.7649634665
 20
226.9775880718
 30
0.0
 11
145.7649422928
 21
230.139160065
 31
0.0
  0
ARC
  5
2D3
330
1F2
100
AcDbEntity
  8
DV2_Default
  6
Continuous
 62
     7
100
AcDbCircle
 10
145.2739413033
 20
227.0885060585
 30
0.0
 40
0.5008038443313605
100
AcDbArc
 50
270.0815643506
 51
337.528818402
  0
ARC
  5
2D4
330
1F2
100
AcDbEntity
  8
DV2_Default
  6
Continuous
 62
     7
100
AcDbCircle
 10
145.5935224706
 20
226.9865155113
 30
0.0
 40
0.1695811340973952
100
AcDbArc
 50
305.8138035134
 51
354.3519470746
  0
SPLINE
  5
2D5
330
1F2
100
AcDbEntity
  8
DV2_Default
  6
Continuous
 62
     7
100
AcDbSpline
210
0.0
220
0.0
230
1.0
 70
     8
 71
     3
 72
    19
 73
    15
 74
     0
 42
0.0000000063169514
 43
0.0000000001
 40
0.0
 40
0.0
 40
0.0
 40
0.0
 40
0.0443562689000696
 40
0.1230150002187392
 40
0.1916323297140639
 40
0.2502080979129683
 40
0.3087845489240402
 40
0.3774027900188025
 40
0.4560628684083819
 40
0.5447643565608603
 40
0.6435070086312359
 40
0.7522917061933696
 40
0.8711214217986726
 40
1.0
 40
1.0
 40
1.0
 40
1.0
 10
140.7786280688897
 20
228.4116571264188
 30
0.0
 10
140.7786280732234
 20
228.3723119023271
 30
0.0
 10
140.7786280802227
 20
228.2650874263084
 30
0.0
 10
140.7786280343608
 20
228.1061665252783
 30
0.0
 10
140.7786282697388
 20
227.9461086247326
 30
0.0
 10
140.7786275898399
 20
227.8100334045221
 30
0.0
 10
140.7786302350005
 20
227.6817095252032
 30
0.0
 10
140.778638947781
 20
227.5489074531155
 30
0.0
 10
140.7786527749504
 20
227.40925269806
 30
0.0
 10
140.778672141592
 20
227.2680872888087
 30
0.0
 10
140.7786970306913
 20
227.1312381587445
 30
0.0
 10
140.7787273106983
 20
227.0065535555729
 30
0.0
 10
140.7787640370721
 20
226.8971551684131
 30
0.0
 10
140.7787890444961
 20
226.8542094081383
 30
0.0
 10
140.7788045933022
 20
226.8286150518683
 30
0.0
  0
SPLINE
  5
2D6
330
1F2
100
AcDbEntity
  8
DV2_Default
  6
Continuous
 62
     7
100
AcDbSpline
210
0.0
220
0.0
230
1.0
 70
     8
 71
     3
 72
    23
 73
    19
 74
     0
 42
0.0000000031979461
 43
0.0000000001
 40
0.0
 40
0.0
 40
0.0
 40
0.0
 40
0.0796994071934583
 40
0.1594802815144933
 40
0.2325183924794113
 40
0.2988146211569936
 40
0.3583689771958183
 40
0.4111813856246808
 40
0.4572518783854864
 40
0.4965803497738553
 40
0.5359092627741201
 40
0.5819803610642238
 40
0.6347936649616014
 40
0.6943489018203451
 40
0.7606459400702593
 40
0.8336854032941355
 40
0.9134692760705241
 40
1.0
 40
1.0
 40
1.0
 40
1.0
 10
140.7785935747968
 20
229.9556548883166
 30
0.0
 10
140.7785935916005
 20
229.7996426425781
 30
0.0
 10
140.7785936199989
 20
229.5378172393338
 30
0.0
 10
140.7785936611417
 20
229.1517732944725
 30
0.0
 10
140.7785937000901
 20
228.8201899674679
 30
0.0
 10
140.7785937227027
 20
228.5380491253864
 30
0.0
 10
140.7785937760864
 20
228.3020456495936
 30
0.0
 10
140.7785937135892
 20
228.1063512606121
 30
0.0
 10
140.7785939887335
 20
227.9462936790339
 30
0.0
 10
140.7785932043187
 20
227.8102194764495
 30
0.0
 10
140.7785962688373
 20
227.6818937504265
 30
0.0
 10
140.7786063584105
 20
227.5490847495701
 30
0.0
 10
140.7786223733974
 20
227.4094180292057
 30
0.0
 10
140.7786448116558
 20
227.2682356281449
 30
0.0
 10
140.7786736616628
 20
227.1313654559908
 30
0.0
 10
140.7787087812922
 20
227.0066537613691
 30
0.0
 10
140.7787514060469
 20
226.8972233964296
 30
0.0
 10
140.7787804596553
 20
226.8542557757851
 30
0.0
 10
140.778798524951
 20
226.8286478673348
 30
0.0
  0
LINE
  5
2D7
330
1F2
100
AcDbEntity
  8
DV2_Default
  6
Continuous
 62
     7
100
AcDbLine
 10
140.7802442091
 20
226.7802705025
 30
0.0
 11
140.8134238744
 21
226.7403348223
 31
0.0
  0
ARC
  5
2D8
330
1F2
100
AcDbEntity
  8
DV2_Default
  6
Continuous
 62
     7
100
AcDbCircle
 10
141.0256618089
 20
226.8390166571
 30
0.0
 40
0.2509357365301159
100
AcDbArc
 50
201.0322020322
 51
269.7699389062
  0
LINE
  5
2D9
330
1F2
100
AcDbEntity
  8
DV2_Default
  6
Continuous
 62
     7
100
AcDbLine
 10
140.7914436791
 20
226.8454556183
 30
0.0
 11
140.7828023092
 21
226.842911016
 31
0.0
  0
LINE
  5
2DA
330
1F2
100
AcDbEntity
  8
DV2_Default
  6
Continuous
 62
     7
100
AcDbLine
 10
140.7827959595
 20
271.3065183078
 30
0.0
 11
140.7915516524
 21
271.3037957996
 31
0.0
  0
ARC
  5
2DB
330
1F2
100
AcDbEntity
  8
DV2_Default
  6
Continuous
 62
     7
100
AcDbCircle
 10
141.0256514299
 20
271.3101827927
 30
0.0
 40
0.2509299937560349
100
AcDbArc
 50
90.2287118837
 51
158.8960394892
  0
LINE
  5
2DC
330
1F2
100
AcDbEntity
  8
DV2_Default
  6
Continuous
 62
     7
100
AcDbLine
 10
140.8135656774
 20
271.4090893703
 30
0.0
 11
140.7802793669
 21
271.3691151478
 31
0.0
  0
SPLINE
  5
2DD
330
1F2
100
AcDbEntity
  8
DV2_Default
  6
Continuous
 62
     7
100
AcDbSpline
210
0.0
220
0.0
230
1.0
 70
     8
 71
     3
 72
    23
 73
    19
 74
     0
 42
0.0000000031980948
 43
0.0000000001
 40
0.0
 40
0.0
 40
0.0
 40
0.0
 40
0.0865306512201111
 40
0.1663143733747831
 40
0.2393537477454101
 40
0.3056507701407687
 40
0.3652060324615748
 40
0.4180193696455548
 40
0.4640904946434233
 40
0.5034194391539767
 40
0.5427479252158854
 40
0.588818438153739
 40
0.6416308708953227
 40
0.701185259982671
 40
0.7674815131403038
 40
0.8405196642906144
 40
0.9203006073583109
 40
1.0
 40
1.0
 40
1.0
 40
1.0
 10
140.7788001833203
 20
271.3205786412414
 30
0.0
 10
140.7787846359379
 20
271.2949842833009
 30
0.0
 10
140.778759631125
 20
271.2520385203412
 30
0.0
 10
140.7787229171353
 20
271.1426401292624
 30
0.0
 10
140.7786926535767
 20
271.0179555228736
 30
0.0
 10
140.7786677841062
 20
270.8811063901704
 30
0.0
 10
140.7786484387777
 20
270.739940978859
 30
0.0
 10
140.7786346334359
 20
270.6002862223056
 30
0.0
 10
140.7786259419329
 20
270.4674841492329
 30
0.0
 10
140.778623317742
 20
270.3391602694914
 30
0.0
 10
140.7786240202093
 20
270.203085049185
 30
0.0
 10
140.7786238116766
 20
270.0430271485097
 30
0.0
 10
140.7786239013666
 20
269.8473317870711
 30
0.0
 10
140.7786238983272
 20
269.6113276868903
 30
0.0
 10
140.7786239303302
 20
269.3291857121953
 30
0.0
 10
140.7786239572924
 20
268.9976012788704
 30
0.0
 10
140.7786239923558
 20
268.6115559097732
 30
0.0
 10
140.7786240157429
 20
268.3497296616038
 30
0.0
 10
140.7786240297812
 20
268.1937169900876
 30
0.0
  0
ARC
  5
2DE
330
1F2
100
AcDbEntity
  8
DV2_Default
  6
Continuous
 62
     7
100
AcDbCircle
 10
146.0246536498
 20
232.9464118214
 30
0.0
 40
0.2499999999999997
100
AcDbArc
 50
162.1619421949
 51
180.0000056655
  0
ENDBLK
  5
2E0
330
1F2
100
AcDbEntity
  8
0
100
AcDbBlockEnd
  0
BLOCK
  5
401
330
2E1
100
AcDbEntity
  8
0
100
AcDbBlockBegin
  2
SE2
 70
     0
 10
0.0
 20
0.0
 30
0.0
  3
SE2
  1

  0
LINE
  5
2E4
330
2E1
100
AcDbEntity
  8
DV3_Default
  6
Continuous
 62
     7
100
AcDbLine
 10
13.7649612041
 20
120.1294680106
 30
0.0
 11
11.1486867519
 21
112.4190773423
 31
0.0
  0
LINE
  5
2E5
330
2E1
100
AcDbEntity
  8
DV3_Default
  6
Continuous
 62
     7
100
AcDbLine
 10
11.0959475897
 20
112.2636503831
 30
0.0
 11
11.1486867519
 21
112.4190773423
 31
0.0
  0
LINE
  5
2E6
330
2E1
100
AcDbEntity
  8
DV3_Default
  6
Continuous
 62
     7
100
AcDbLine
 10
11.0645910319
 20
112.1712109267
 30
0.0
 11
11.0170155269
 21
112.0310377873
 31
0.0
  0
LINE
  5
2E7
330
2E1
100
AcDbEntity
  8
DV3_Default
  6
Continuous
 62
     7
100
AcDbLine
 10
13.8964787253
 20
120.5170729951
 30
0.0
 11
11.0170155269
 21
112.0310377873
 31
0.0
  0
LINE
  5
2E8
330
2E1
100
AcDbEntity
  8
DV3_Default
  6
Continuous
 62
     7
100
AcDbLine
 10
13.8964683118
 20
120.5170765284
 30
0.0
 11
13.849461845
 21
120.3784531535
 31
0.0
  0
LINE
  5
2E9
330
2E1
100
AcDbEntity
  8
DV3_Default
  6
Continuous
 62
     7
100
AcDbLine
 10
13.8178332735
 20
120.2852866294
 30
0.0
 11
13.8494525885
 21
120.3784562942
 31
0.0
  0
LINE
  5
2EA
330
2E1
100
AcDbEntity
  8
DV3_Default
  6
Continuous
 62
     7
100
AcDbLine
 10
13.7649612041
 20
120.1294680106
 30
0.0
 11
13.8178332735
 21
120.2852866294
 31
0.0
  0
ARC
  5
2EB
330
2E1
100
AcDbEntity
  8
DV3_Default
  6
Continuous
 62
     7
100
AcDbCircle
 10
13.6154388038
 20
120.6064327687
 30
0.0
 40
0.2949044025072537
100
AcDbArc
 50
342.3613580978
 51
348.088022251
  0
ARC
  5
2EC
330
2E1
100
AcDbEntity
  8
DV3_Default
  6
Continuous
 62
     7
100
AcDbCircle
 10
42.9421223961
 20
211.5698195726
 30
0.0
 40
95.1242770350122
100
AcDbArc
 50
252.4894133785
 51
256.0897898009
  0
SPLINE
  5
2ED
330
2E1
100
AcDbEntity
  8
DV3_Default
  6
Continuous
 62
     7
100
AcDbSpline
210
0.0
220
0.0
230
1.0
 70
     8
 71
     3
 72
     8
 73
     4
 74
     0
 42
0.0000000143640515
 43
0.0000000001
 40
0.0
 40
0.0
 40
0.0
 40
0.0
 40
1.0
 40
1.0
 40
1.0
 40
1.0
 10
20.61926182109579
 20
118.9465211668488
 30
0.0
 10
20.64050013852266
 20
119.034894649534
 30
0.0
 10
20.40405641436755
 20
119.1575856488892
 30
0.0
 10
20.07414899091691
 20
119.2351896996666
 30
0.0
  0
ARC
  5
2EE
330
2E1
100
AcDbEntity
  8
DV3_Default
  6
Continuous
 62
     7
100
AcDbCircle
 10
42.0884468411
 20
208.3994191492
 30
0.0
 40
92.20867555611203
100
AcDbArc
 50
256.6330806725
 51
263.8820882995
  0
ARC
  5
2EF
330
2E1
100
AcDbEntity
  8
DV3_Default
  6
Continuous
 62
     7
100
AcDbCircle
 10
42.4432926143
 20
207.8443787575
 30
0.0
 40
91.25098662254466
100
AcDbArc
 50
283.8213365593
 51
287.5745939088
  0
ARC
  5
2F0
330
2E1
100
AcDbEntity
  8
DV3_Default
  6
Continuous
 62
     7
100
AcDbCircle
 10
42.1464423845
 20
208.8966106782
 30
0.0
 40
92.90605074710444
100
AcDbArc
 50
276.0737111724
 51
283.346788491
  0
ARC
  5
2F1
330
2E1
100
AcDbEntity
  8
DV3_Default
  6
Continuous
 62
     7
100
AcDbCircle
 10
42.2557366893
 20
209.3559374939
 30
0.0
 40
93.36840425364285
100
AcDbArc
 50
256.6675213317
 51
263.9039113523
  0
ARC
  5
2F2
330
2E1
100
AcDbEntity
  8
DV3_Default
  6
Continuous
 62
     7
100
AcDbCircle
 10
52.9261407546
 20
116.5707012956
 30
0.0
 40
1.203809376415579
100
AcDbArc
 50
161.6237461325
 51
179.0950845778
  0
ELLIPSE
  5
2F3
330
2E1
100
AcDbEntity
  8
DV3_Default
  6
Continuous
 62
     7
100
AcDbEllipse
 10
51.96836066
 20
116.5896488587
 30
0.0
 11
0.2495535223267734
 21
-0.01484250140708354
 31
0.0
210
0.0
220
0.0
230
1.0
 40
0.3075474554
 41
3.332612739392506
 42
4.76385331514908
  0
ARC
  5
2F4
330
2E1
100
AcDbEntity
  8
DV3_Default
  6
Continuous
 62
     7
100
AcDbCircle
 10
20.6745074179
 20
118.3046278811
 30
0.0
 40
0.2056016982799443
100
AcDbArc
 50
75.8250014683
 51
134.124136898
  0
ARC
  5
2F5
330
2E1
100
AcDbEntity
  8
DV3_Default
  6
Continuous
 62
     7
100
AcDbCircle
 10
18.7035704238
 20
110.2286316351
 30
0.0
 40
0.2119510051989107
100
AcDbArc
 50
199.3656916586
 51
257.3740661953
  0
ARC
  5
2F6
330
2E1
100
AcDbEntity
  8
DV3_Default
  6
Continuous
 62
     7
100
AcDbCircle
 10
42.1585379401
 20
208.6234136646
 30
0.0
 40
101.3636422843875
100
AcDbArc
 50
256.5939072841
 51
283.4058456206
  0
ARC
  5
2F7
330
2E1
100
AcDbEntity
  8
DV3_Default
  6
Continuous
 62
     7
100
AcDbCircle
 10
65.6141195993
 20
110.2280134271
 30
0.0
 40
0.2112213784090747
100
AcDbArc
 50
282.381456812
 51
340.7458097776
  0
SPLINE
  5
2F8
330
2E1
100
AcDbEntity
  8
DV3_Default
  6
Continuous
 62
     7
100
AcDbSpline
210
0.0
220
0.0
230
1.0
 70
     8
 71
     3
 72
    11
 73
     7
 74
     0
 42
0.0000000475613366
 43
0.0000000001
 40
0.0
 40
0.0
 40
0.0
 40
0.0
 40
0.2484285353133552
 40
0.3693539328810642
 40
0.4963494055525826
 40
1.0
 40
1.0
 40
1.0
 40
1.0
 10
63.59328124318396
 20
118.4998885672618
 30
0.0
 10
63.61056393679191
 20
118.5030409736561
 30
0.0
 10
63.63626017679361
 20
118.5077236338307
 30
0.0
 10
63.67092598446611
 20
118.5046418754341
 30
0.0
 10
63.72260868363671
 20
118.4947017030246
 30
0.0
 10
63.75817718518596
 20
118.4688099380286
 30
0.0
 10
63.78658488246186
 20
118.4481247595271
 30
0.0
  0
LINE
  5
2F9
330
2E1
100
AcDbEntity
  8
DV3_Default
  6
Continuous
 62
     7
100
AcDbLine
 10
64.0573132492
 20
118.7328057618
 30
0.0
 11
64.0924071565
 21
118.5893528838
 31
0.0
  0
ARC
  5
2FA
330
2E1
100
AcDbEntity
  8
DV3_Default
  6
Continuous
 62
     7
100
AcDbCircle
 10
63.7725945659
 20
118.6577352489
 30
0.0
 40
0.2944519933670243
100
AcDbArc
 50
14.7872575392
 51
20.2531282403
  0
SPLINE
  5
2FB
330
2E1
100
AcDbEntity
  8
DV3_Default
  6
Continuous
 62
     7
100
AcDbSpline
210
0.0
220
0.0
230
1.0
 70
     8
 71
     3
 72
     9
 73
     5
 74
     0
 42
0.0000005960881573
 43
0.0000000001
 40
0.0
 40
0.0
 40
0.0
 40
0.0
 40
0.6769563120226314
 40
1.0
 40
1.0
 40
1.0
 40
1.0
 10
64.05729436090715
 20
118.7328884467299
 30
0.0
 10
64.0567616836203
 20
118.7364606751218
 30
0.0
 10
64.0559741973896
 20
118.7417374211251
 30
0.0
 10
64.05662849241762
 20
118.7475626706632
 30
0.0
 10
64.05697413158131
 20
118.749499322249
 30
0.0
  0
SPLINE
  5
2FC
330
2E1
100
AcDbEntity
  8
DV3_Default
  6
Continuous
 62
     7
100
AcDbSpline
210
0.0
220
0.0
230
1.0
 70
     8
 71
     3
 72
    14
 73
    10
 74
     0
 42
0.0000000330133448
 43
0.0000000001
 40
0.0
 40
0.0
 40
0.0
 40
0.0
 40
0.0511151560836324
 40
0.2051448623758828
 40
0.3582958772097958
 40
0.5301284442183826
 40
0.6991977575440378
 40
0.8591915026203718
 40
0.9999999999999999
 40
0.9999999999999999
 40
0.9999999999999999
 40
0.9999999999999999
 10
64.07048625485504
 20
118.7819033270751
 30
0.0
 10
64.07215579856474
 20
118.7847355905957
 30
0.0
 10
64.07940711349819
 20
118.796371535333
 30
0.0
 10
64.09582632763255
 20
118.8185609828345
 30
0.0
 10
64.12510059470334
 20
118.8496110823285
 30
0.0
 10
64.1633217505318
 20
118.881465420927
 30
0.0
 10
64.21039667626722
 20
118.9112030919282
 30
0.0
 10
64.26096078299258
 20
118.9353496001506
 30
0.0
 10
64.29619225411803
 20
118.9462942792325
 30
0.0
 10
64.31268445334214
 20
118.95141759149
 30
0.0
  0
SPLINE
  5
2FD
330
2E1
100
AcDbEntity
  8
DV3_Default
  6
Continuous
 62
     7
100
AcDbSpline
210
0.0
220
0.0
230
1.0
 70
     8
 71
     3
 72
     9
 73
     5
 74
     0
 42
0.0000005719568892
 43
0.0000000001
 40
0.0
 40
0.0
 40
0.0
 40
0.0
 40
0.4243624964146251
 40
1.0
 40
1.0
 40
1.0
 40
1.0
 10
66.19384969897067
 20
110.0150263319126
 30
0.0
 10
66.19215642117662
 20
110.0171514439292
 30
0.0
 10
66.18876111341173
 20
110.0222074479238
 30
0.0
 10
66.18702392782902
 20
110.0274328039381
 30
0.0
 10
66.18602374823149
 20
110.0304406682509
 30
0.0
  0
LINE
  5
2FE
330
2E1
100
AcDbEntity
  8
DV3_Default
  6
Continuous
 62
     7
100
AcDbLine
 10
64.0572943609
 20
118.7328884467
 30
0.0
 11
66.1860237482
 21
110.0304406683
 31
0.0
  0
LINE
  5
2FF
330
2E1
100
AcDbEntity
  8
DV3_Default
  6
Continuous
 62
     7
100
AcDbLine
 10
64.0923872147
 20
118.5894344622
 30
0.0
 11
64.1157140308
 21
118.4940649721
 31
0.0
  0
LINE
  5
300
330
2E1
100
AcDbEntity
  8
DV3_Default
  6
Continuous
 62
     7
100
AcDbLine
 10
64.1157140308
 20
118.4940649721
 30
0.0
 11
64.1544795749
 21
118.335587716
 31
0.0
  0
LINE
  5
301
330
2E1
100
AcDbEntity
  8
DV3_Default
  6
Continuous
 62
     7
100
AcDbLine
 10
64.1544795749
 20
118.335587716
 30
0.0
 11
66.0889743271
 21
110.4271886713
 31
0.0
  0
LINE
  5
302
330
2E1
100
AcDbEntity
  8
DV3_Default
  6
Continuous
 62
     7
100
AcDbLine
 10
66.1278267481
 20
110.2683562834
 30
0.0
 11
66.0889743271
 21
110.4271886713
 31
0.0
  0
LINE
  5
303
330
2E1
100
AcDbEntity
  8
DV3_Default
  6
Continuous
 62
     7
100
AcDbLine
 10
66.1278267481
 20
110.2683562834
 30
0.0
 11
66.1511220896
 21
110.1731239445
 31
0.0
  0
LINE
  5
304
330
2E1
100
AcDbEntity
  8
DV3_Default
  6
Continuous
 62
     7
100
AcDbLine
 10
66.151102856
 20
110.1732049499
 30
0.0
 11
66.1860031968
 21
110.0305221561
 31
0.0
  0
ARC
  5
305
330
2E1
100
AcDbEntity
  8
DV3_Default
  6
Continuous
 62
     7
100
AcDbCircle
 10
65.8984420823
 20
109.9657372165
 30
0.0
 40
0.2947706757175186
100
AcDbArc
 50
6.9993916831
 51
12.6799239931
  0
ARC
  5
306
330
2E1
100
AcDbEntity
  8
DV3_Default
  6
Continuous
 62
     7
100
AcDbCircle
 10
42.1586086365
 20
208.7161326181
 30
0.0
 40
101.6439084404909
100
AcDbArc
 50
256.604546803
 51
283.3952258478
  0
ARC
  5
307
330
2E1
100
AcDbEntity
  8
DV3_Default
  6
Continuous
 62
     7
100
AcDbCircle
 10
41.7174998682
 20
207.1636655258
 30
0.0
 40
100.4013092057306
100
AcDbArc
 50
252.2850619889
 51
256.1793411569
  0
ARC
  5
308
330
2E1
100
AcDbEntity
  8
DV3_Default
  6
Continuous
 62
     7
100
AcDbCircle
 10
42.1486696603
 20
208.8911988936
 30
0.0
 40
102.1866867803605
100
AcDbArc
 50
283.8347218904
 51
287.6609900211
  0
SPLINE
  5
309
330
2E1
100
AcDbEntity
  8
DV3_Default
  6
Continuous
 62
     7
100
AcDbSpline
210
0.0
220
0.0
230
1.0
 70
     8
 71
     3
 72
    15
 73
    11
 74
     0
 42
0.0000000153201802
 43
0.0000000001
 40
0.0
 40
0.0
 40
0.0
 40
0.0
 40
0.0859338248111206
 40
0.1803578122762764
 40
0.2832599710863242
 40
0.3947075227663391
 40
0.5148533215047535
 40
0.7106710618787121
 40
0.871832268969452
 40
1.0
 40
1.0
 40
1.0
 40
1.0
 10
65.96153072555077
 20
109.6777969894542
 30
0.0
 10
65.96418027659793
 20
109.6709952851831
 30
0.0
 10
65.96980857934254
 20
109.6564364158494
 30
0.0
 10
65.99319952449068
 20
109.6381416519785
 30
0.0
 10
66.031158971811
 20
109.6227791403878
 30
0.0
 10
66.08742389335636
 20
109.6122654260395
 30
0.0
 10
66.17789101069705
 20
109.6074369531989
 30
0.0
 10
66.30459672390411
 20
109.6157634097732
 30
0.0
 10
66.45225528460084
 20
109.6387085239451
 30
0.0
 10
66.54337613173486
 20
109.6597166346372
 30
0.0
 10
66.58374763812303
 20
109.6689941239095
 30
0.0
  0
SPLINE
  5
30A
330
2E1
100
AcDbEntity
  8
DV3_Default
  6
Continuous
 62
     7
100
AcDbSpline
210
0.0
220
0.0
230
1.0
 70
     8
 71
     3
 72
    15
 73
    11
 74
     0
 42
0.0000000152820244
 43
0.0000000001
 40
0.0
 40
0.0
 40
0.0
 40
0.0
 40
0.0789023507254147
 40
0.167330673753562
 40
0.2653966460355787
 40
0.3736433048550862
 40
0.4929327121466615
 40
0.6334006749639066
 40
0.8010806213403323
 40
1.0
 40
1.0
 40
1.0
 40
1.0
 10
17.73327378741021
 20
109.6691539391201
 30
0.0
 10
17.75802863780401
 20
109.6631718107945
 30
0.0
 10
17.81059400000933
 20
109.6507573136549
 30
0.0
 10
17.89327445011092
 20
109.6347140848682
 30
0.0
 10
17.9818771894525
 20
109.6209443268487
 30
0.0
 10
18.07312165968221
 20
109.6114946574918
 30
0.0
 10
18.16508766861303
 20
109.6081307505114
 30
0.0
 10
18.25269559163332
 20
109.6143706405875
 30
0.0
 10
18.32902572451644
 20
109.6346350519667
 30
0.0
 10
18.34580312831653
 20
109.6627937594456
 30
0.0
 10
18.35487442807093
 20
109.6779385722904
 30
0.0
  0
ARC
  5
30B
330
2E1
100
AcDbEntity
  8
DV3_Default
  6
Continuous
 62
     7
100
AcDbCircle
 10
18.4187707805
 20
109.9658852806
 30
0.0
 40
0.2949509292769012
100
AcDbArc
 50
167.3574558525
 51
173.0587948683
  0
SPLINE
  5
30C
330
2E1
100
AcDbEntity
  8
DV3_Default
  6
Continuous
 62
     7
100
AcDbSpline
210
0.0
220
0.0
230
1.0
 70
     8
 71
     3
 72
     8
 73
     4
 74
     0
 42
0.0000005756275942
 43
0.0000000001
 40
0.0
 40
0.0
 40
0.0
 40
0.0
 40
1.0
 40
1.0
 40
1.0
 40
1.0
 10
18.12273188142451
 20
110.015234136448
 30
0.0
 10
18.12633797992314
 20
110.020245854077
 30
0.0
 10
18.12865447473306
 20
110.0253432163485
 30
0.0
 10
18.13097107990152
 20
110.0304405516249
 30
0.0
  0
SPLINE
  5
30D
330
2E1
100
AcDbEntity
  8
DV3_Default
  6
Continuous
 62
     7
100
AcDbSpline
210
0.0
220
0.0
230
1.0
 70
     8
 71
     3
 72
     9
 73
     5
 74
     0
 42
0.0000005789680797
 43
0.0000000001
 40
0.0
 40
0.0
 40
0.0
 40
0.0
 40
0.9002336013504225
 40
1.0
 40
1.0
 40
1.0
 40
1.0
 10
11.01701552689826
 20
112.0310377873328
 30
0.0
 10
11.01605461789656
 20
112.0261765074126
 30
0.0
 10
11.01498477588827
 20
112.0207773156396
 30
0.0
 10
11.01550492422274
 20
112.0146126579298
 30
0.0
 10
11.01557196687036
 20
112.0139902159907
 30
0.0
  0
ARC
  5
30E
330
2E1
100
AcDbEntity
  8
DV3_Default
  6
Continuous
 62
     7
100
AcDbCircle
 10
10.7407936328
 20
112.1300248217
 30
0.0
 40
0.2934228479813613
100
AcDbArc
 50
334.6086851376
 51
340.2843227244
  0
ARC
  5
30F
330
2E1
100
AcDbEntity
  8
DV3_Default
  6
Continuous
 62
     7
100
AcDbCircle
 10
103.4082324758
 20
92.4970681322
 30
0.0
 40
57.12308331740903
100
AcDbArc
 50
153.9681496432
 51
154.654346742
  0
ARC
  5
310
330
2E1
100
AcDbEntity
  8
DV3_Default
  6
Continuous
 62
     7
100
AcDbCircle
 10
73.5762200002
 20
112.130064267
 30
0.0
 40
0.2934538139111704
100
AcDbArc
 50
199.7217014355
 51
205.3938617667
  0
LINE
  5
311
330
2E1
100
AcDbEntity
  8
DV3_Default
  6
Continuous
 62
     7
100
AcDbLine
 10
73.2999793658
 20
112.0310377413
 30
0.0
 11
73.2520151878
 21
112.1723752931
 31
0.0
  0
LINE
  5
312
330
2E1
100
AcDbEntity
  8
DV3_Default
  6
Continuous
 62
     7
100
AcDbLine
 10
73.2212922685
 20
112.2629281608
 30
0.0
 11
73.2520151878
 21
112.1723752931
 31
0.0
  0
LINE
  5
313
330
2E1
100
AcDbEntity
  8
DV3_Default
  6
Continuous
 62
     7
100
AcDbLine
 10
73.1681716456
 20
112.4194792945
 30
0.0
 11
73.2212922685
 21
112.2629281608
 31
0.0
  0
LINE
  5
314
330
2E1
100
AcDbEntity
  8
DV3_Default
  6
Continuous
 62
     7
100
AcDbLine
 10
73.1681716456
 20
112.4194792945
 30
0.0
 11
70.5524288819
 21
120.1283030705
 31
0.0
  0
LINE
  5
315
330
2E1
100
AcDbEntity
  8
DV3_Default
  6
Continuous
 62
     7
100
AcDbLine
 10
70.49977548
 20
120.2834772827
 30
0.0
 11
70.5524288819
 21
120.1283030705
 31
0.0
  0
LINE
  5
316
330
2E1
100
AcDbEntity
  8
DV3_Default
  6
Continuous
 62
     7
100
AcDbLine
 10
70.4683512421
 20
120.3760704043
 30
0.0
 11
70.49977548
 21
120.2834772827
 31
0.0
  0
LINE
  5
317
330
2E1
100
AcDbEntity
  8
DV3_Default
  6
Continuous
 62
     7
100
AcDbLine
 10
70.4683409664
 20
120.3760669179
 30
0.0
 11
70.4211567294
 21
120.5152243683
 31
0.0
  0
LINE
  5
318
330
2E1
100
AcDbEntity
  8
DV3_Default
  6
Continuous
 62
     7
100
AcDbLine
 10
70.4997725245
 20
120.2834985753
 30
0.0
 11
73.2999793658
 21
112.0310377413
 31
0.0
  0
SPLINE
  5
319
330
2E1
100
AcDbEntity
  8
DV3_Default
  6
Continuous
 62
     7
100
AcDbSpline
210
0.0
220
0.0
230
1.0
 70
     8
 71
     3
 72
     9
 73
     5
 74
     0
 42
0.0000005727838976
 43
0.0000000001
 40
0.0
 40
0.0
 40
0.0
 40
0.0
 40
0.8998643782879049
 40
1.0
 40
1.0
 40
1.0
 40
1.0
 10
70.42114516948969
 20
120.5152204459408
 30
0.0
 10
70.41895113354212
 20
120.5197044280949
 30
0.0
 10
70.41651723050116
 20
120.524688834364
 30
0.0
 10
70.41238607609633
 20
120.529420760757
 30
0.0
 10
70.41195603312732
 20
120.5298922800487
 30
0.0
  0
SPLINE
  5
31A
330
2E1
100
AcDbEntity
  8
DV3_Default
  6
Continuous
 62
     7
100
AcDbSpline
210
0.0
220
0.0
230
1.0
 70
     8
 71
     3
 72
     8
 73
     4
 74
     0
 42
0.0000005797854551
 43
0.0000000001
 40
0.0
 40
0.0
 40
0.0
 40
0.0
 40
1.0
 40
1.0
 40
1.0
 40
1.0
 10
73.30108399965928
 20
112.0139069419666
 30
0.0
 10
73.3014924916355
 20
112.0200071477642
 30
0.0
 10
73.30073529760016
 20
112.0255222304112
 30
0.0
 10
73.29997936575822
 20
112.0310377413431
 30
0.0
  0
ARC
  5
31B
330
2E1
100
AcDbEntity
  8
DV3_Default
  6
Continuous
 62
     7
100
AcDbCircle
 10
70.7034716808
 20
120.6047077793
 30
0.0
 40
0.2961692789851133
100
AcDbArc
 50
191.884119255
 51
197.5867394859
  0
ARC
  5
31C
330
2E1
100
AcDbEntity
  8
DV3_Default
  6
Continuous
 62
     7
100
AcDbCircle
 10
169.2883911152
 20
183.3131653937
 30
0.0
 40
152.0059677747487
100
AcDbArc
 50
205.6294592435
 51
205.8852564497
  0
ARC
  5
31D
330
2E1
100
AcDbEntity
  8
DV3_Default
  6
Continuous
 62
     7
100
AcDbCircle
 10
31.4371389779
 20
116.5797914645
 30
0.0
 40
1.157457185109751
100
AcDbArc
 50
0.6706928782
 51
18.7516247836
  0
SPLINE
  5
31E
330
2E1
100
AcDbEntity
  8
DV3_Default
  6
Continuous
 62
     7
100
AcDbSpline
210
0.0
220
0.0
230
1.0
 70
     8
 71
     3
 72
    10
 73
     6
 74
     0
 42
0.0000000363257493
 43
0.0000000001
 40
0.0
 40
0.0
 40
0.0
 40
0.0
 40
0.5
 40
0.5
 40
1.0
 40
1.0
 40
1.0
 40
1.0
 10
32.34036773827513
 20
116.5155132626797
 30
0.0
 10
32.39307956844583
 20
116.5177610159637
 30
0.0
 10
32.45479775632664
 20
116.5263541087663
 30
0.0
 10
32.55232948113147
 20
116.5555978275732
 30
0.0
 10
32.58481355087672
 20
116.5755346511363
 30
0.0
 10
32.59451686319539
 20
116.5933401161898
 30
0.0
  0
ARC
  5
31F
330
2E1
100
AcDbEntity
  8
DV3_Default
  6
Continuous
 62
     7
100
AcDbCircle
 10
51.087971536
 20
114.2186793576
 30
0.0
 40
0.6594051700194332
100
AcDbArc
 50
206.6715869724
 51
229.1354185813
  0
SPLINE
  5
320
330
2E1
100
AcDbEntity
  8
DV3_Default
  6
Continuous
 62
     7
100
AcDbSpline
210
0.0
220
0.0
230
1.0
 70
    12
 71
     3
 72
    16
 73
    12
 74
     0
 42
0.0000000359442614
 43
0.0000000001
 40
0.0
 40
0.0
 40
0.0
 40
0.0
 40
0.05127040039437
 40
0.1153758117074
 40
0.2435866343333
 40
0.3717974569593
 40
0.5000082795852
 40
0.6250087754625999
 40
0.7500092713399
 40
0.8750097672173
 40
1.0
 40
1.0
 40
1.0
 40
1.0
 10
50.38223986272144
 20
113.686634934075
 30
0.0
 41
1.0
 10
50.38740006319347
 20
113.6867189110992
 30
0.0
 41
1.0
 10
50.39904157138402
 20
113.6869257796163
 30
0.0
 41
1.0
 10
50.42378698552137
 20
113.6872344593269
 30
0.0
 41
1.0
 10
50.45640986344104
 20
113.6878126318054
 30
0.0
 41
1.0
 10
50.49499841198158
 20
113.6892116062696
 30
0.0
 41
1.0
 10
50.53210956619962
 20
113.69173056667
 30
0.0
 41
1.0
 10
50.56721271043205
 20
113.6957177724342
 30
0.0
 41
1.0
 10
50.59983816735217
 20
113.7014966239991
 30
0.0
 41
1.0
 10
50.6298235496416
 20
113.7094335999093
 30
0.0
 41
1.0
 10
50.64793175888781
 20
113.7162438721696
 30
0.0
 41
1.0
 10
50.65654024571673
 20
113.7199988787448
 30
0.0
 41
1.0
  0
SPLINE
  5
321
330
2E1
100
AcDbEntity
  8
DV3_Default
  6
Continuous
 62
     7
100
AcDbSpline
210
0.0
220
0.0
230
1.0
 70
    12
 71
     3
 72
    16
 73
    12
 74
     0
 42
0.0000000359444944
 43
0.0000000001
 40
0.0
 40
0.0
 40
0.0
 40
0.0
 40
0.1249901944635
 40
0.2499906931532
 40
0.3749911918428
 40
0.4999916905325
 40
0.6282015535212
 40
0.7564114165099
 40
0.8846212794986
 40
0.948726210993
 40
1.0
 40
1.0
 40
1.0
 40
1.0
 10
33.66045424430573
 20
113.7199989497798
 30
0.0
 41
1.0
 10
33.66906251900883
 20
113.7162439332109
 30
0.0
 41
1.0
 10
33.68717068134166
 20
113.7094343497017
 30
0.0
 41
1.0
 10
33.71715649562726
 20
113.7014993465236
 30
0.0
 41
1.0
 10
33.74978254886016
 20
113.6957225747466
 30
0.0
 41
1.0
 10
33.78488613160172
 20
113.6917370346263
 30
0.0
 41
1.0
 10
33.82199741978167
 20
113.6892189656367
 30
0.0
 41
1.0
 10
33.86058566346813
 20
113.6878197416709
 30
0.0
 41
1.0
 10
33.89320781881244
 20
113.6872398921904
 30
0.0
 41
1.0
 10
33.91795261767906
 20
113.6869285784604
 30
0.0
 41
1.0
 10
33.9295938170375
 20
113.6867198417446
 30
0.0
 41
1.0
 10
33.93475406355847
 20
113.6866349537922
 30
0.0
 41
1.0
  0
ARC
  5
322
330
2E1
100
AcDbEntity
  8
DV3_Default
  6
Continuous
 62
     7
100
AcDbCircle
 10
33.234946936
 20
114.2139697325
 30
0.0
 40
0.6519690204404598
100
AcDbArc
 50
310.7416681246
 51
333.4649090534
  0
SPLINE
  5
323
330
2E1
100
AcDbEntity
  8
DV3_Default
  6
Continuous
 62
     7
100
AcDbSpline
210
0.0
220
0.0
230
1.0
 70
     8
 71
     3
 72
     8
 73
     4
 74
     0
 42
0.000000573014081
 43
0.0000000001
 40
0.0
 40
0.0
 40
0.0
 40
0.0
 40
1.0
 40
1.0
 40
1.0
 40
1.0
 10
13.90599581244725
 20
120.5316144429095
 30
0.0
 10
13.90198238610108
 20
120.5268721250884
 30
0.0
 10
13.89923154671513
 20
120.5219722238225
 30
0.0
 10
13.8964787252712
 20
120.5170729951046
 30
0.0
  0
ARC
  5
324
330
2E1
100
AcDbEntity
  8
DV3_Default
  6
Continuous
 62
     7
100
AcDbCircle
 10
20.5453354962
 20
118.6614818926
 30
0.0
 40
0.2944698446131215
100
AcDbArc
 50
159.5706119686
 51
165.2168194847
  0
SPLINE
  5
325
330
2E1
100
AcDbEntity
  8
DV3_Default
  6
Continuous
 62
     7
100
AcDbSpline
210
0.0
220
0.0
230
1.0
 70
     8
 71
     3
 72
     9
 73
     5
 74
     0
 42
0.0000005744496974
 43
0.0000000001
 40
0.0
 40
0.0
 40
0.0
 40
0.0
 40
0.4253515014461932
 40
1.0
 40
1.0
 40
1.0
 40
1.0
 10
20.2607484192444
 20
118.7538269432883
 30
0.0
 10
20.26127972481111
 20
118.7511681948889
 30
0.0
 10
20.26197412377725
 20
118.7451463825812
 30
0.0
 10
20.26110955018331
 20
118.7397312658139
 30
0.0
 10
20.26061309386017
 20
118.7366193866852
 30
0.0
  0
LINE
  5
326
330
2E1
100
AcDbEntity
  8
DV3_Default
  6
Continuous
 62
     7
100
AcDbLine
 10
18.1309710799
 20
110.0304405516
 30
0.0
 11
20.2606130939
 21
118.7366193867
 31
0.0
  0
LINE
  5
327
330
2E1
100
AcDbEntity
  8
DV3_Default
  6
Continuous
 62
     7
100
AcDbLine
 10
20.2023568055
 20
118.4984638563
 30
0.0
 11
20.2254348656
 21
118.5928112704
 31
0.0
  0
LINE
  5
328
330
2E1
100
AcDbEntity
  8
DV3_Default
  6
Continuous
 62
     7
100
AcDbLine
 10
20.2254137851
 20
118.5927293065
 30
0.0
 11
20.2605939101
 21
118.7365361024
 31
0.0
  0
LINE
  5
329
330
2E1
100
AcDbEntity
  8
DV3_Default
  6
Continuous
 62
     7
100
AcDbLine
 10
18.1309917943
 20
110.030522678
 30
0.0
 11
18.1660308177
 21
110.1737726591
 31
0.0
  0
LINE
  5
32A
330
2E1
100
AcDbEntity
  8
DV3_Default
  6
Continuous
 62
     7
100
AcDbLine
 10
18.1660114424
 20
110.1736910525
 30
0.0
 11
18.1890839004
 21
110.2680122659
 31
0.0
  0
LINE
  5
32B
330
2E1
100
AcDbEntity
  8
DV3_Default
  6
Continuous
 62
     7
100
AcDbLine
 10
18.1890839004
 20
110.2680122659
 30
0.0
 11
18.2281582817
 21
110.4277520817
 31
0.0
  0
LINE
  5
32C
330
2E1
100
AcDbEntity
  8
DV3_Default
  6
Continuous
 62
     7
100
AcDbLine
 10
18.2281582817
 20
110.4277520817
 30
0.0
 11
20.163549565
 21
118.3398161768
 31
0.0
  0
LINE
  5
32D
330
2E1
100
AcDbEntity
  8
DV3_Default
  6
Continuous
 62
     7
100
AcDbLine
 10
20.2023568055
 20
118.4984638563
 30
0.0
 11
20.163549565
 21
118.3398161768
 31
0.0
  0
ARC
  5
32E
330
2E1
100
AcDbEntity
  8
DV3_Default
  6
Continuous
 62
     7
100
AcDbCircle
 10
42.0694247044
 20
208.4560427598
 30
0.0
 40
91.53737594279849
100
AcDbArc
 50
249.4597961882
 51
263.6095557378
  0
ARC
  5
32F
330
2E1
100
AcDbEntity
  8
DV3_Default
  6
Continuous
 62
     7
100
AcDbCircle
 10
42.2053247954
 20
208.6454516617
 30
0.0
 40
91.73288977346398
100
AcDbArc
 50
276.4034633613
 51
284.0598897041
  0
ARC
  5
330
330
2E1
100
AcDbEntity
  8
DV3_Default
  6
Continuous
 62
     7
100
AcDbCircle
 10
42.239134301
 20
208.484475569
 30
0.0
 40
91.56852282258664
100
AcDbArc
 50
284.0638381112
 51
290.5385532987
  0
ARC
  5
331
330
2E1
100
AcDbEntity
  8
DV3_Default
  6
Continuous
 62
     7
100
AcDbCircle
 10
42.1584977118
 20
208.7400936009
 30
0.0
 40
102.3900936009029
100
AcDbArc
 50
249.6467280253
 51
290.3533108103
  0
ARC
  5
332
330
2E1
100
AcDbEntity
  8
DV3_Default
  6
Continuous
 62
     7
100
AcDbCircle
 10
6.6500417163
 20
113.0221458766
 30
0.0
 40
0.3000210357029852
100
AcDbArc
 50
180.3082722436
 51
249.6660621465
  0
ARC
  5
333
330
2E1
100
AcDbEntity
  8
DV3_Default
  6
Continuous
 62
     7
100
AcDbCircle
 10
21.5852810924
 20
113.2194172702
 30
0.0
 40
15.23394441413439
100
AcDbArc
 50
141.8299780064
 51
180.7483227337
  0
LINE
  5
334
330
2E1
100
AcDbEntity
  8
DV3_Default
  6
Continuous
 62
     7
100
AcDbLine
 10
52.1586010844
 20
117.7274062597
 30
0.0
 11
52.1586010881
 21
122.3069877309
 31
0.0
  0
ARC
  5
335
330
2E1
100
AcDbEntity
  8
DV3_Default
  6
Continuous
 62
     7
100
AcDbCircle
 10
52.408598504
 20
117.7311447909
 30
0.0
 40
0.2500005597241646
100
AcDbArc
 50
179.4713489515
 51
276.9418072236
  0
ARC
  5
336
330
2E1
100
AcDbEntity
  8
DV3_Default
  6
Continuous
 62
     7
100
AcDbCircle
 10
77.6669534536
 20
113.0221458142
 30
0.0
 40
0.3000210357188082
100
AcDbArc
 50
290.3339389737
 51
359.6917276325
  0
ARC
  5
337
330
2E1
100
AcDbEntity
  8
DV3_Default
  6
Continuous
 62
     7
100
AcDbCircle
 10
62.7293187694
 20
113.2164072389
 30
0.0
 40
15.23624423847405
100
AcDbArc
 50
359.263088415
 51
38.1541738855
  0
ARC
  5
338
330
2E1
100
AcDbEntity
  8
DV3_Default
  6
Continuous
 62
     7
100
AcDbCircle
 10
74.4722841086
 20
122.4512077291
 30
0.0
 40
0.2999890702791058
100
AcDbArc
 50
37.2766021579
 51
111.0022252885
  0
ARC
  5
339
330
2E1
100
AcDbEntity
  8
DV3_Default
  6
Continuous
 62
     7
100
AcDbCircle
 10
31.9083960976
 20
117.7310632129
 30
0.0
 40
0.2500005854308064
100
AcDbArc
 50
263.0551699451
 51
0.5093860492
  0
LINE
  5
33A
330
2E1
100
AcDbEntity
  8
DV3_Default
  6
Continuous
 62
     7
100
AcDbLine
 10
32.1583940967
 20
122.3069877468
 30
0.0
 11
32.158394093
 21
117.7136411336
 31
0.0
  0
SPLINE
  5
33B
330
2E1
100
AcDbEntity
  8
DV3_Default
  6
Continuous
 62
     7
100
AcDbSpline
210
0.0
220
0.0
230
1.0
 70
     8
 71
     3
 72
     8
 73
     4
 74
     0
 42
0.0000001706478797
 43
0.0000000001
 40
0.0
 40
0.0
 40
0.0
 40
0.0
 40
0.9999999999999999
 40
0.9999999999999999
 40
0.9999999999999999
 40
0.9999999999999999
 10
51.31327811043785
 20
122.5995667307013
 30
0.0
 10
51.29413690721707
 20
122.5996686533326
 30
0.0
 10
51.27459079352721
 20
122.5997631441564
 30
0.0
 10
51.2546786016961
 20
122.5998506360129
 30
0.0
  0
SPLINE
  5
33C
330
2E1
100
AcDbEntity
  8
DV3_Default
  6
Continuous
 62
     7
100
AcDbSpline
210
0.0
220
0.0
230
1.0
 70
     8
 71
     3
 72
    19
 73
    15
 74
     0
 42
0.0000000114836682
 43
0.0000000001
 40
0.0
 40
0.0
 40
0.0
 40
0.0
 40
0.1105986680321537
 40
0.3146211372897625
 40
0.4950205121098533
 40
0.6276773784862245
 40
0.7444718197335902
 40
0.8441974736488307
 40
0.9019464892549051
 40
0.9447755508539759
 40
0.9612598819505834
 40
0.9751560290091208
 40
0.9875308442811742
 40
1.0
 40
1.0
 40
1.0
 40
1.0
 10
32.86297948588148
 20
122.5986062863216
 30
0.0
 10
32.82615176362258
 20
122.598288670042
 30
0.0
 10
32.72660140712831
 20
122.5972520186131
 30
0.0
 10
32.5919665923625
 20
122.5948894951595
 30
0.0
 10
32.47982291999519
 20
122.590502825826
 30
0.0
 10
32.40599489495674
 20
122.585374483962
 30
0.0
 10
32.35492826415436
 20
122.5773883195563
 30
0.0
 10
32.3281843853236
 20
122.5730917753226
 30
0.0
 10
32.28516548598308
 20
122.5509949206639
 30
0.0
 10
32.24222916570418
 20
122.5171615280968
 30
0.0
 10
32.20551520103898
 20
122.469122879335
 30
0.0
 10
32.18247561508552
 20
122.4266877488018
 30
0.0
 10
32.16336235645304
 20
122.370216792987
 30
0.0
 10
32.16069423291763
 20
122.3302116178086
 30
0.0
 10
32.15930686532762
 20
122.3069877468088
 30
0.0
  0
ARC
  5
33D
330
2E1
100
AcDbEntity
  8
DV3_Default
  6
Continuous
 62
     7
100
AcDbCircle
 10
9.8447491654
 20
122.4512635367
 30
0.0
 40
0.2999865327685307
100
AcDbArc
 50
69.0134466486
 51
142.2695908936
  0
LINE
  5
33E
330
2E1
100
AcDbEntity
  8
DV3_Default
  6
Continuous
 62
     7
100
AcDbLine
 10
32.9026085048
 20
124.6069856593
 30
0.0
 11
31.354586295
 21
124.6069861107
 31
0.0
  0
LINE
  5
33F
330
2E1
100
AcDbEntity
  8
DV3_Default
  6
Continuous
 62
     7
100
AcDbLine
 10
32.9026081561
 20
124.6069865571
 30
0.0
 11
32.9685071979
 21
124.6069865657
 31
0.0
  0
LINE
  5
340
330
2E1
100
AcDbEntity
  8
DV3_Default
  6
Continuous
 62
     7
100
AcDbLine
 10
32.9685071979
 20
124.6069865657
 30
0.0
 11
33.0740171012
 21
124.6069865654
 31
0.0
  0
LINE
  5
341
330
2E1
100
AcDbEntity
  8
DV3_Default
  6
Continuous
 62
     7
100
AcDbLine
 10
33.0740171012
 20
124.6069865654
 30
0.0
 11
51.2346274018
 21
124.6069865364
 31
0.0
  0
LINE
  5
342
330
2E1
100
AcDbEntity
  8
DV3_Default
  6
Continuous
 62
     7
100
AcDbLine
 10
51.2346274018
 20
124.6069865364
 30
0.0
 11
51.3401380876
 21
124.6069865363
 31
0.0
  0
LINE
  5
343
330
2E1
100
AcDbEntity
  8
DV3_Default
  6
Continuous
 62
     7
100
AcDbLine
 10
51.3401380876
 20
124.6069865363
 30
0.0
 11
51.406036779
 21
124.6069865276
 31
0.0
  0
LINE
  5
344
330
2E1
100
AcDbEntity
  8
DV3_Default
  6
Continuous
 62
     7
100
AcDbLine
 10
51.406036779
 20
124.6069865276
 30
0.0
 11
52.9540589887
 21
124.6069860762
 31
0.0
  0
ARC
  5
345
330
2E1
100
AcDbEntity
  8
DV3_Default
  6
Continuous
 62
     7
100
AcDbCircle
 10
51.8021532071
 20
124.2851884776
 30
0.0
 40
0.251413490455045
100
AcDbArc
 50
155.6210150141
 51
182.7480190618
  0
ARC
  5
346
330
2E1
100
AcDbEntity
  8
DV3_Default
  6
Continuous
 62
     7
100
AcDbCircle
 10
51.8026302941
 20
122.9288756827
 30
0.0
 40
0.2518857826830679
100
AcDbArc
 50
177.2774342845
 51
204.3531771517
  0
LINE
  5
347
330
2E1
100
AcDbEntity
  8
DV3_Default
  6
Continuous
 62
     7
100
AcDbLine
 10
52.9540589855
 20
122.6069860532
 30
0.0
 11
51.4060361927
 21
122.6069865046
 31
0.0
  0
LINE
  5
348
330
2E1
100
AcDbEntity
  8
DV3_Default
  6
Continuous
 62
     7
100
AcDbLine
 10
51.3401383784
 20
122.6069865065
 30
0.0
 11
51.4060361927
 21
122.6069865046
 31
0.0
  0
LINE
  5
349
330
2E1
100
AcDbEntity
  8
DV3_Default
  6
Continuous
 62
     7
100
AcDbLine
 10
51.2346291023
 20
122.6069865133
 30
0.0
 11
51.3401383784
 21
122.6069865065
 31
0.0
  0
ARC
  5
34A
330
2E1
100
AcDbEntity
  8
DV3_Default
  6
Continuous
 62
     7
100
AcDbCircle
 10
51.2940950122
 20
122.9390315293
 30
0.0
 40
0.1335821479653399
100
AcDbArc
 50
301.3969119661
 51
0.7758067687
  0
ARC
  5
34B
330
2E1
100
AcDbEntity
  8
DV3_Default
  6
Continuous
 62
     7
100
AcDbCircle
 10
51.2940825344
 20
124.2749343764
 30
0.0
 40
0.1335945033347773
100
AcDbArc
 50
359.2281849531
 51
58.5999047031
  0
ARC
  5
34C
330
2E1
100
AcDbEntity
  8
DV3_Default
  6
Continuous
 62
     7
100
AcDbCircle
 10
33.0145472224
 20
124.2749431115
 30
0.0
 40
0.1335792259072835
100
AcDbArc
 50
121.3960534744
 51
180.7756377135
  0
ARC
  5
34D
330
2E1
100
AcDbEntity
  8
DV3_Default
  6
Continuous
 62
     7
100
AcDbCircle
 10
33.0145657238
 20
122.9390399661
 30
0.0
 40
0.1335976200730012
100
AcDbArc
 50
179.2278890075
 51
238.5996106664
  0
LINE
  5
34E
330
2E1
100
AcDbEntity
  8
DV3_Default
  6
Continuous
 62
     7
100
AcDbLine
 10
51.2346291023
 20
122.6069865133
 30
0.0
 11
33.0740153943
 21
122.6069865423
 31
0.0
  0
LINE
  5
34F
330
2E1
100
AcDbEntity
  8
DV3_Default
  6
Continuous
 62
     7
100
AcDbLine
 10
32.9685069008
 20
122.6069865358
 30
0.0
 11
33.0740153943
 21
122.6069865423
 31
0.0
  0
LINE
  5
350
330
2E1
100
AcDbEntity
  8
DV3_Default
  6
Continuous
 62
     7
100
AcDbLine
 10
32.9026087359
 20
122.6069865341
 30
0.0
 11
32.9685069008
 21
122.6069865358
 31
0.0
  0
ARC
  5
351
330
2E1
100
AcDbEntity
  8
DV3_Default
  6
Continuous
 62
     7
100
AcDbCircle
 10
32.5064830502
 20
122.9287863713
 30
0.0
 40
0.2514223858880982
100
AcDbArc
 50
335.6215132647
 51
2.7479704404
  0
ARC
  5
352
330
2E1
100
AcDbEntity
  8
DV3_Default
  6
Continuous
 62
     7
100
AcDbCircle
 10
32.5060218689
 20
124.2850986047
 30
0.0
 40
0.2518787435168806
100
AcDbArc
 50
357.2775345949
 51
24.3533354314
  0
LINE
  5
353
330
2E1
100
AcDbEntity
  8
DV3_Default
  6
Continuous
 62
     7
100
AcDbLine
 10
31.3545862918
 20
122.6069860877
 30
0.0
 11
32.9026090846
 21
122.6069856363
 31
0.0
  0
LINE
  5
354
330
2E1
100
AcDbEntity
  8
DV3_Default
  6
Continuous
 62
     7
100
AcDbLine
 10
32.9685068994
 20
122.6069856275
 30
0.0
 11
32.9026090846
 21
122.6069856363
 31
0.0
  0
LINE
  5
355
330
2E1
100
AcDbEntity
  8
DV3_Default
  6
Continuous
 62
     7
100
AcDbLine
 10
33.074016175
 20
122.6069856275
 30
0.0
 11
32.9685068994
 21
122.6069856275
 31
0.0
  0
LINE
  5
356
330
2E1
100
AcDbEntity
  8
DV3_Default
  6
Continuous
 62
     7
100
AcDbLine
 10
33.074016175
 20
122.6069856275
 30
0.0
 11
33.7765970778
 21
122.6069856264
 31
0.0
  0
LINE
  5
357
330
2E1
100
AcDbEntity
  8
DV3_Default
  6
Continuous
 62
     7
100
AcDbLine
 10
33.8541659819
 20
122.6069856263
 30
0.0
 11
37.1585072617
 21
122.606985621
 31
0.0
  0
LINE
  5
358
330
2E1
100
AcDbEntity
  8
DV3_Default
  6
Continuous
 62
     7
100
AcDbLine
 10
47.1585074228
 20
122.606985605
 30
0.0
 11
50.4626468942
 21
122.6069855998
 31
0.0
  0
LINE
  5
359
330
2E1
100
AcDbEntity
  8
DV3_Default
  6
Continuous
 62
     7
100
AcDbLine
 10
50.5638329679
 20
122.6069855996
 30
0.0
 11
51.234629883
 21
122.6069855985
 31
0.0
  0
LINE
  5
35A
330
2E1
100
AcDbEntity
  8
DV3_Default
  6
Continuous
 62
     7
100
AcDbLine
 10
51.3401383765
 20
122.6069855982
 30
0.0
 11
51.234629883
 21
122.6069855985
 31
0.0
  0
LINE
  5
35B
330
2E1
100
AcDbEntity
  8
DV3_Default
  6
Continuous
 62
     7
100
AcDbLine
 10
51.4060365414
 20
122.6069856067
 30
0.0
 11
51.3401383765
 21
122.6069855982
 31
0.0
  0
LINE
  5
35C
330
2E1
100
AcDbEntity
  8
DV3_Default
  6
Continuous
 62
     7
100
AcDbLine
 10
37.0085071583
 20
122.6069863301
 30
0.0
 11
47.3085071583
 21
122.6069863136
 31
0.0
  0
LINE
  5
35D
330
2E1
100
AcDbEntity
  8
DV3_Default
  6
Continuous
 62
     7
100
AcDbLine
 10
47.3085072293
 20
122.6069858044
 30
0.0
 11
47.1585074228
 21
122.6069858046
 31
0.0
  0
LINE
  5
35E
330
2E1
100
AcDbEntity
  8
DV3_Default
  6
Continuous
 62
     7
100
AcDbLine
 10
37.1585072617
 20
122.6069858206
 30
0.0
 11
37.0085072293
 21
122.6069858208
 31
0.0
  0
ARC
  5
35F
330
2E1
100
AcDbEntity
  8
DV3_Default
  6
Continuous
 62
     7
100
AcDbCircle
 10
31.5764251016
 20
120.7235194816
 30
0.0
 40
3.879753460324057
100
AcDbArc
 50
88.7931793653
 51
94.4063088553
  0
ARC
  5
360
330
2E1
100
AcDbEntity
  8
DV3_Default
  6
Continuous
 62
     7
100
AcDbCircle
 10
31.3554530588
 20
124.4072258174
 30
0.0
 40
0.2000370699180185
100
AcDbArc
 50
112.6717431568
 51
180.0686571305
  0
ARC
  5
361
330
2E1
100
AcDbEntity
  8
DV3_Default
  6
Continuous
 62
     7
100
AcDbCircle
 10
52.9531922243
 20
124.4072257829
 30
0.0
 40
0.2000370699231756
100
AcDbArc
 50
359.9313426868
 51
67.3282566598
  0
ARC
  5
362
330
2E1
100
AcDbEntity
  8
DV3_Default
  6
Continuous
 62
     7
100
AcDbCircle
 10
52.9140114014
 20
123.8603202865
 30
0.0
 40
0.7406706565061605
100
AcDbArc
 50
80.9671719671
 51
91.1474015207
  0
ARC
  5
363
330
2E1
100
AcDbEntity
  8
DV3_Default
  6
Continuous
 62
     7
100
AcDbCircle
 10
52.7592881528
 20
121.7879345102
 30
0.0
 40
2.816937949078731
100
AcDbArc
 50
85.0944917842
 51
92.0334584447
  0
LINE
  5
364
330
2E1
100
AcDbEntity
  8
DV3_Default
  6
Continuous
 62
     7
100
AcDbLine
 10
53.1538566289
 20
122.8069860495
 30
0.0
 11
53.1538566315
 21
124.4069860793
 31
0.0
  0
ARC
  5
365
330
2E1
100
AcDbEntity
  8
DV3_Default
  6
Continuous
 62
     7
100
AcDbCircle
 10
52.7322218623
 20
126.4906243759
 30
0.0
 40
3.879924732992966
100
AcDbArc
 50
268.7932145032
 51
274.406079586
  0
ARC
  5
366
330
2E1
100
AcDbEntity
  8
DV3_Default
  6
Continuous
 62
     7
100
AcDbCircle
 10
52.9531922217
 20
122.8067463465
 30
0.0
 40
0.2000370699099916
100
AcDbArc
 50
292.6717431558
 51
0.0686571354
  0
LINE
  5
367
330
2E1
100
AcDbEntity
  8
DV3_Default
  6
Continuous
 62
     7
100
AcDbLine
 10
31.1547886516
 20
124.4069861144
 30
0.0
 11
31.154788649
 21
122.8069860846
 31
0.0
  0
ARC
  5
368
330
2E1
100
AcDbEntity
  8
DV3_Default
  6
Continuous
 62
     7
100
AcDbCircle
 10
31.3554530562
 20
122.806746381
 30
0.0
 40
0.2000370699248247
100
AcDbArc
 50
179.9313426884
 51
247.3282566602
  0
ARC
  5
369
330
2E1
100
AcDbEntity
  8
DV3_Default
  6
Continuous
 62
     7
100
AcDbCircle
 10
31.5493588775
 20
125.4259561858
 30
0.0
 40
2.816856880958362
100
AcDbArc
 50
267.6674555732
 51
272.033483779
  0
ARC
  5
36A
330
2E1
100
AcDbEntity
  8
DV3_Default
  6
Continuous
 62
     7
100
AcDbCircle
 10
31.3946334065
 20
123.3536705185
 30
0.0
 40
0.7406891092558582
100
AcDbArc
 50
260.9674719533
 51
271.1474022803
  0
LINE
  5
36B
330
2E1
100
AcDbEntity
  8
DV3_Default
  6
Continuous
 62
     7
100
AcDbLine
 10
23.3944102773
 20
159.606987917
 30
0.0
 11
23.1917180708
 21
159.6069878363
 31
0.0
  0
ARC
  5
36C
330
2E1
100
AcDbEntity
  8
DV3_Default
  6
Continuous
 62
     7
100
AcDbCircle
 10
61.5948523334
 20
159.3569871561
 30
0.0
 40
0.249999999994286
100
AcDbArc
 50
0.0
 51
77.5685012737
  0
LINE
  5
36D
330
2E1
100
AcDbEntity
  8
DV3_Default
  6
Continuous
 62
     7
100
AcDbLine
 10
61.8448526543
 20
159.1501519075
 30
0.0
 11
61.8448525031
 21
159.3569871553
 31
0.0
  0
LINE
  5
36E
330
2E1
100
AcDbEntity
  8
DV3_Default
  6
Continuous
 62
     7
100
AcDbLine
 10
22.4721640137
 20
159.1501520332
 30
0.0
 11
22.4721641662
 21
159.3569871569
 31
0.0
  0
ARC
  5
36F
330
2E1
100
AcDbEntity
  8
DV3_Default
  6
Continuous
 62
     7
100
AcDbCircle
 10
22.7221643359
 20
159.3569871561
 30
0.0
 40
0.2499999999946087
100
AcDbArc
 50
102.416763288
 51
179.9999998171
  0
ARC
  5
370
330
2E1
100
AcDbEntity
  8
DV3_Default
  6
Continuous
 62
     7
100
AcDbCircle
 10
23.2485691363
 20
535.6842745869
 30
0.0
 40
376.5349230179556
100
AcDbArc
 50
269.8818575237
 51
270.2769292487
  0
SPLINE
  5
371
330
2E1
100
AcDbEntity
  8
DV3_Default
  6
Continuous
 62
     7
100
AcDbSpline
210
0.0
220
0.0
230
1.0
 70
     8
 71
     3
 72
    12
 73
     8
 74
     0
 42
0.0000000525087853
 43
0.0000000001
 40
0.0
 40
0.0
 40
0.0
 40
0.0
 40
0.2492169025273864
 40
0.4993814582176594
 40
0.749533646274448
 40
0.8746640688061063
 40
1.0
 40
1.0
 40
1.0
 40
1.0
 10
25.25864520306904
 20
159.1569752278953
 30
0.0
 10
25.23801143920739
 20
159.1569718613345
 30
0.0
 10
25.1963515228957
 20
159.1569753114627
 30
0.0
 10
25.15078544197358
 20
159.1568461613032
 30
0.0
 10
25.11339387234649
 20
159.1574577799378
 30
0.0
 10
25.0865751355365
 20
159.1568630859099
 30
0.0
 10
25.07453548685252
 20
159.1547858725915
 30
0.0
 10
25.06847853009659
 20
159.1537496862378
 30
0.0
  0
LINE
  5
372
330
2E1
100
AcDbEntity
  8
DV3_Default
  6
Continuous
 62
     7
100
AcDbLine
 10
25.2585251644
 20
159.1569752275
 30
0.0
 11
25.2586914029
 21
159.3569885475
 31
0.0
  0
LINE
  5
373
330
2E1
100
AcDbEntity
  8
DV3_Default
  6
Continuous
 62
     7
100
AcDbLine
 10
25.3913075013
 20
159.1569806419
 30
0.0
 11
25.2585256212
 21
159.1569701171
 31
0.0
  0
LINE
  5
374
330
2E1
100
AcDbEntity
  8
DV3_Default
  6
Continuous
 62
     7
100
AcDbLine
 10
25.5444148747
 20
159.156969305
 30
0.0
 11
25.3914762895
 21
159.1569806419
 31
0.0
  0
LINE
  5
375
330
2E1
100
AcDbEntity
  8
DV3_Default
  6
Continuous
 62
     7
100
AcDbLine
 10
25.5444162106
 20
159.1569822844
 30
0.0
 11
25.5445131788
 21
159.356988825
 31
0.0
  0
ARC
  5
376
330
2E1
100
AcDbEntity
  8
DV3_Default
  6
Continuous
 62
     7
100
AcDbCircle
 10
25.700484525
 20
153.1885573386
 30
0.0
 40
5.970460712480555
100
AcDbArc
 50
87.5898759928
 51
91.4962696017
  0
ARC
  5
377
330
2E1
100
AcDbEntity
  8
DV3_Default
  6
Continuous
 62
     7
100
AcDbCircle
 10
36.2627854611
 20
10146.1530784423
 30
0.0
 40
9987.00466476202
100
AcDbArc
 50
269.9408441186
 51
270.0338239387
  0
ARC
  5
378
330
2E1
100
AcDbEntity
  8
DV3_Default
  6
Continuous
 62
     7
100
AcDbCircle
 10
48.0097702777
 20
10310.8579898809
 30
0.0
 40
10151.70952224713
100
AcDbArc
 50
269.966975724
 51
270.0584478623
  0
ARC
  5
379
330
2E1
100
AcDbEntity
  8
DV3_Default
  6
Continuous
 62
     7
100
AcDbCircle
 10
58.6110111933
 20
153.8723753771
 30
0.0
 40
5.287072785225135
100
AcDbArc
 50
88.2474914993
 51
92.6604131813
  0
LINE
  5
37A
330
2E1
100
AcDbEntity
  8
DV3_Default
  6
Continuous
 62
     7
100
AcDbLine
 10
58.7727916039
 20
159.1569751488
 30
0.0
 11
58.7730127295
 21
159.3569885788
 31
0.0
  0
LINE
  5
37B
330
2E1
100
AcDbEntity
  8
DV3_Default
  6
Continuous
 62
     7
100
AcDbLine
 10
58.9260365553
 20
159.1569805348
 30
0.0
 11
58.7727922117
 21
159.1569700383
 31
0.0
  0
LINE
  5
37C
330
2E1
100
AcDbEntity
  8
DV3_Default
  6
Continuous
 62
     7
100
AcDbLine
 10
59.0588797189
 20
159.1569691697
 30
0.0
 11
58.9258694518
 21
159.1569805348
 31
0.0
  0
LINE
  5
37D
330
2E1
100
AcDbEntity
  8
DV3_Default
  6
Continuous
 62
     7
100
AcDbLine
 10
59.0588807258
 20
159.1569821491
 30
0.0
 11
59.0589538033
 21
159.3569887997
 31
0.0
  0
SPLINE
  5
37E
330
2E1
100
AcDbEntity
  8
DV3_Default
  6
Continuous
 62
     7
100
AcDbSpline
210
0.0
220
0.0
230
1.0
 70
     8
 71
     3
 72
    12
 73
     8
 74
     0
 42
0.0000000525407546
 43
0.0000000001
 40
0.0
 40
0.0
 40
0.0
 40
0.0
 40
0.1428276340785938
 40
0.2499330898386949
 40
0.4999963118583531
 40
0.753273395095666
 40
1.0
 40
1.0
 40
1.0
 40
1.0
 10
59.24869618568228
 20
159.1537364785968
 30
0.0
 10
59.24169802551313
 20
159.1546565620278
 30
0.0
 10
59.22968419455972
 20
159.1562902009073
 30
0.0
 10
59.2026805618732
 20
159.1580240646182
 30
0.0
 10
59.16631469170654
 20
159.1563466871964
 30
0.0
 10
59.12063457851458
 20
159.1576731885441
 30
0.0
 10
59.07899426631902
 20
159.1572017478922
 30
0.0
 10
59.05865591151144
 20
159.1569821509673
 30
0.0
  0
ARC
  5
37F
330
2E1
100
AcDbEntity
  8
DV3_Default
  6
Continuous
 62
     7
100
AcDbCircle
 10
61.1209448068
 20
574.9997935025
 30
0.0
 40
415.8502716810708
100
AcDbArc
 50
269.7420410328
 51
270.0997399501
  0
LINE
  5
380
330
2E1
100
AcDbEntity
  8
DV3_Default
  6
Continuous
 62
     7
100
AcDbLine
 10
61.8448525031
 20
159.3569871553
 30
0.0
 11
61.8352229906
 21
159.3569871612
 31
0.0
  0
ARC
  5
381
330
2E1
100
AcDbEntity
  8
DV3_Default
  6
Continuous
 62
     7
100
AcDbCircle
 10
61.3527828234
 20
159.1071908127
 30
0.0
 40
0.4939416707194629
100
AcDbArc
 50
333.0449490568
 51
4.9896650422
  0
ARC
  5
382
330
2E1
100
AcDbEntity
  8
DV3_Default
  6
Continuous
 62
     7
100
AcDbCircle
 10
22.9642338446
 20
159.1071909354
 30
0.0
 40
0.493941671052413
100
AcDbArc
 50
175.0103346051
 51
206.9550505685
  0
ARC
  5
383
330
2E1
100
AcDbEntity
  8
DV3_Default
  6
Continuous
 62
     7
100
AcDbCircle
 10
24.3256799358
 20
157.9774528808
 30
0.0
 40
1.216986799576291
100
AcDbArc
 50
22.6949993485
 51
44.2882791925
  0
SPLINE
  5
384
330
2E1
100
AcDbEntity
  8
DV3_Default
  6
Continuous
 62
     7
100
AcDbSpline
210
0.0
220
0.0
230
1.0
 70
     8
 71
     3
 72
    15
 73
    11
 74
     0
 42
0.0000000232035881
 43
0.0000000001
 40
0.0
 40
0.0
 40
0.0
 40
0.0
 40
0.1346448923548967
 40
0.2663640769136165
 40
0.3986554083753973
 40
0.5350089608541627
 40
0.6592333401512286
 40
0.7812937430450063
 40
0.8930691549147732
 40
1.0
 40
1.0
 40
1.0
 40
1.0
 10
58.59014148729788
 20
158.4469973718322
 30
0.0
 10
58.59760355940749
 20
158.4663668771712
 30
0.0
 10
58.61254252170313
 20
158.5043734756457
 30
0.0
 10
58.62260757832719
 20
158.5626572689266
 30
0.0
 10
58.62269543035129
 20
158.6202920607754
 30
0.0
 10
58.61273592746583
 20
158.6747206992639
 30
0.0
 10
58.59432652723271
 20
158.7246550649627
 30
0.0
 10
58.56817663057027
 20
158.7667799103095
 30
0.0
 10
58.53627514531731
 20
158.8023319265862
 30
0.0
 10
58.50971631941803
 20
158.8191175882256
 30
0.0
 10
58.49677985040382
 20
158.8272368260783
 30
0.0
  0
LINE
  5
385
330
2E1
100
AcDbEntity
  8
DV3_Default
  6
Continuous
 62
     7
100
AcDbLine
 10
52.0803087357
 20
125.1067295918
 30
0.0
 11
52.1568832941
 21
125.1068237781
 31
0.0
  0
ARC
  5
386
330
2E1
100
AcDbEntity
  8
DV3_Default
  6
Continuous
 62
     7
100
AcDbCircle
 10
119.921809715
 20
124.0367829509
 30
0.0
 40
67.77337412436499
100
AcDbArc
 50
149.0585270911
 51
179.0953472285
  0
LINE
  5
387
330
2E1
100
AcDbEntity
  8
DV3_Default
  6
Continuous
 62
     7
100
AcDbLine
 10
32.2367077189
 20
125.106729557
 30
0.0
 11
32.1601331566
 21
125.106823842
 31
0.0
  0
ARC
  5
388
330
2E1
100
AcDbEntity
  8
DV3_Default
  6
Continuous
 62
     7
100
AcDbCircle
 10
-35.6047932712
 20
124.0367834474
 30
0.0
 40
67.77337412439053
100
AcDbArc
 50
0.9046524057
 51
30.941472543
  0
LINE
  5
389
330
2E1
100
AcDbEntity
  8
DV3_Default
  6
Continuous
 62
     7
100
AcDbLine
 10
32.1601331566
 20
125.106823842
 30
0.0
 11
32.2371518116
 21
125.1067291089
 31
0.0
  0
ARC
  5
38A
330
2E1
100
AcDbEntity
  8
DV3_Default
  6
Continuous
 62
     7
100
AcDbCircle
 10
49.1450467124
 20
125.3548127794
 30
0.0
 40
1.551644527468151
100
AcDbArc
 50
339.4863668952
 51
2.9289930638
  0
LINE
  5
38B
330
2E1
100
AcDbEntity
  8
DV3_Default
  6
Continuous
 62
     7
100
AcDbLine
 10
47.1610440491
 20
124.6069862422
 30
0.0
 11
49.9980355056
 21
124.6069862764
 31
0.0
  0
LINE
  5
38C
330
2E1
100
AcDbEntity
  8
DV3_Default
  6
Continuous
 62
     7
100
AcDbLine
 10
34.3189911853
 20
124.6069863264
 30
0.0
 11
37.154780876
 21
124.6069862741
 31
0.0
  0
ARC
  5
38D
330
2E1
100
AcDbEntity
  8
DV3_Default
  6
Continuous
 62
     7
100
AcDbCircle
 10
32.6599862234
 20
125.1068401303
 30
0.0
 40
0.4998530671268023
100
AcDbArc
 50
242.618246972
 51
256.5520211689
  0
ARC
  5
38E
330
2E1
100
AcDbEntity
  8
DV3_Default
  6
Continuous
 62
     7
100
AcDbCircle
 10
32.6599862234
 20
125.1068401303
 30
0.0
 40
0.4998530671268023
100
AcDbArc
 50
180.0018670524
 51
234.9463256888
  0
ARC
  5
38F
330
2E1
100
AcDbEntity
  8
DV3_Default
  6
Continuous
 62
     7
100
AcDbCircle
 10
35.1717787317
 20
125.3548194793
 30
0.0
 40
1.551468602860464
100
AcDbArc
 50
177.0709202543
 51
200.5163260339
  0
LINE
  5
390
330
2E1
100
AcDbEntity
  8
DV3_Default
  6
Continuous
 62
     7
100
AcDbLine
 10
42.1585088182
 20
124.6069880602
 30
0.0
 11
34.3189809419
 21
124.6069879656
 31
0.0
  0
LINE
  5
391
330
2E1
100
AcDbEntity
  8
DV3_Default
  6
Continuous
 62
     7
100
AcDbLine
 10
50.27785538
 20
124.6069878979
 30
0.0
 11
49.9980252622
 21
124.6069879155
 31
0.0
  0
LINE
  5
392
330
2E1
100
AcDbEntity
  8
DV3_Default
  6
Continuous
 62
     7
100
AcDbLine
 10
50.4470127182
 20
124.6069878697
 30
0.0
 11
50.27785538
 21
124.6069878979
 31
0.0
  0
LINE
  5
393
330
2E1
100
AcDbEntity
  8
DV3_Default
  6
Continuous
 62
     7
100
AcDbLine
 10
34.3189809419
 20
124.6069879656
 30
0.0
 11
34.039161551
 21
124.6069879497
 31
0.0
  0
LINE
  5
394
330
2E1
100
AcDbEntity
  8
DV3_Default
  6
Continuous
 62
     7
100
AcDbLine
 10
34.039161551
 20
124.6069879497
 30
0.0
 11
33.8700072158
 21
124.6069879226
 31
0.0
  0
LINE
  5
395
330
2E1
100
AcDbEntity
  8
DV3_Default
  6
Continuous
 62
     7
100
AcDbLine
 10
33.8700037293
 20
124.6069863723
 30
0.0
 11
34.0391610674
 21
124.606986344
 31
0.0
  0
LINE
  5
396
330
2E1
100
AcDbEntity
  8
DV3_Default
  6
Continuous
 62
     7
100
AcDbLine
 10
34.0391610674
 20
124.606986344
 30
0.0
 11
34.3189911853
 21
124.6069863264
 31
0.0
  0
LINE
  5
397
330
2E1
100
AcDbEntity
  8
DV3_Default
  6
Continuous
 62
     7
100
AcDbLine
 10
49.9980355056
 20
124.6069862764
 30
0.0
 11
50.2778548964
 21
124.6069862922
 31
0.0
  0
LINE
  5
398
330
2E1
100
AcDbEntity
  8
DV3_Default
  6
Continuous
 62
     7
100
AcDbLine
 10
50.2778548964
 20
124.6069862922
 30
0.0
 11
50.4470092317
 21
124.6069863193
 31
0.0
  0
LINE
  5
399
330
2E1
100
AcDbEntity
  8
DV3_Default
  6
Continuous
 62
     7
100
AcDbLine
 10
47.5585081736
 20
124.6069865698
 30
0.0
 11
47.1585074244
 21
124.606986571
 31
0.0
  0
LINE
  5
39A
330
2E1
100
AcDbEntity
  8
DV3_Default
  6
Continuous
 62
     7
100
AcDbLine
 10
37.1585072633
 20
124.606986603
 30
0.0
 11
36.7585081736
 21
124.6069866042
 31
0.0
  0
LINE
  5
39B
330
2E1
100
AcDbEntity
  8
DV3_Default
  6
Continuous
 62
     7
100
AcDbLine
 10
36.7585084952
 20
124.6069876722
 30
0.0
 11
47.5585084952
 21
124.6069876377
 31
0.0
  0
ARC
  5
39C
330
2E1
100
AcDbEntity
  8
DV3_Default
  6
Continuous
 62
     7
100
AcDbCircle
 10
22.732550186
 20
159.3561738979
 30
0.0
 40
0.2507549199146757
100
AcDbArc
 50
111.2183832913
 51
180.2982053653
  0
ARC
  5
39D
330
2E1
100
AcDbEntity
  8
DV3_Default
  6
Continuous
 62
     7
100
AcDbCircle
 10
61.5844686472
 20
159.3561758766
 30
0.0
 40
0.2507529931989723
100
AcDbArc
 50
359.7014674748
 51
68.7544175491
  0
SPLINE
  5
39E
330
2E1
100
AcDbEntity
  8
DV3_Default
  6
Continuous
 62
     7
100
AcDbSpline
210
0.0
220
0.0
230
1.0
 70
     8
 71
     3
 72
     8
 73
     4
 74
     0
 42
0.0000002271090382
 43
0.0000000001
 40
0.0
 40
0.0
 40
0.0
 40
0.0
 40
1.0
 40
1.0
 40
1.0
 40
1.0
 10
51.75585065105741
 20
124.616816428353
 30
0.0
 10
51.7794418025245
 20
124.6215500437944
 30
0.0
 10
51.78990252994376
 20
124.6276213885998
 30
0.0
 10
51.78723283331518
 20
124.6350304627691
 30
0.0
  0
SPLINE
  5
39F
330
2E1
100
AcDbEntity
  8
DV3_Default
  6
Continuous
 62
     7
100
AcDbSpline
210
0.0
220
0.0
230
1.0
 70
     8
 71
     3
 72
     8
 73
     4
 74
     0
 42
0.0000000118539193
 43
0.0000000001
 40
0.0
 40
0.0
 40
0.0
 40
0.0
 40
1.0
 40
1.0
 40
1.0
 40
1.0
 10
50.54154301387295
 20
124.6167754942407
 30
0.0
 10
50.90125197749834
 20
124.616949544657
 30
0.0
 10
51.18245286769087
 20
124.6171250302349
 30
0.0
 10
51.38514568445052
 20
124.6173019509744
 30
0.0
  0
ARC
  5
3A0
330
2E1
100
AcDbEntity
  8
DV3_Default
  6
Continuous
 62
     7
100
AcDbCircle
 10
52.5642087604
 20
130.2179006685
 30
0.0
 40
5.696989180093599
100
AcDbArc
 50
258.0051320872
 51
260.0261007916
  0
SPLINE
  5
3A1
330
2E1
100
AcDbEntity
  8
DV3_Default
  6
Continuous
 62
     7
100
AcDbSpline
210
0.0
220
0.0
230
1.0
 70
     8
 71
     3
 72
    10
 73
     6
 74
     0
 42
0.0000000154777201
 43
0.0000000001
 40
0.0
 40
0.0
 40
0.0
 40
0.0
 40
0.4961562185628842
 40
0.7465052366913792
 40
1.0
 40
1.0
 40
1.0
 40
1.0
 10
51.6955818499203
 20
124.645338265424
 30
0.0
 10
51.80372579432063
 20
124.701574297353
 30
0.0
 10
51.93720676753651
 20
124.7749081148261
 30
0.0
 10
52.0518002978169
 20
124.9616309428036
 30
0.0
 10
52.07051965480661
 20
125.0551709311607
 30
0.0
 10
52.08057546233197
 20
125.1117056293936
 30
0.0
  0
SPLINE
  5
3A2
330
2E1
100
AcDbEntity
  8
DV3_Default
  6
Continuous
 62
     7
100
AcDbSpline
210
0.0
220
0.0
230
1.0
 70
     8
 71
     3
 72
    11
 73
     7
 74
     0
 42
0.0000000152063729
 43
0.0000000001
 40
0.0
 40
0.0
 40
0.0
 40
0.0
 40
0.2581090969872925
 40
0.5144956038157137
 40
0.7696136938212035
 40
1.0
 40
1.0
 40
1.0
 40
1.0
 10
32.23644073812193
 20
125.1117056927586
 30
0.0
 10
32.22866605155471
 20
125.0460253497104
 30
0.0
 10
32.21809922974923
 20
124.9366452127564
 30
0.0
 10
32.2821635591281
 20
124.7854669696593
 30
0.0
 10
32.39368594101059
 20
124.6723747929546
 30
0.0
 10
32.48955600386898
 20
124.6402779939336
 30
0.0
 10
32.54441555016992
 20
124.6231613004115
 30
0.0
  0
LINE
  5
3A3
330
2E1
100
AcDbEntity
  8
DV3_Default
  6
Continuous
 62
     7
100
AcDbLine
 10
30.7541590201
 20
159.6069882264
 30
0.0
 11
30.0980372564
 21
159.6069883092
 31
0.0
  0
LINE
  5
3A4
330
2E1
100
AcDbEntity
  8
DV3_Default
  6
Continuous
 62
     7
100
AcDbLine
 10
30.0689328706
 20
159.6069883128
 30
0.0
 11
28.186672353
 21
159.6069885501
 31
0.0
  0
LINE
  5
3A5
330
2E1
100
AcDbEntity
  8
DV3_Default
  6
Continuous
 62
     7
100
AcDbLine
 10
30.7541590202
 20
159.6069859711
 30
0.0
 11
30.0980242912
 21
159.6069859182
 31
0.0
  0
LINE
  5
3A6
330
2E1
100
AcDbEntity
  8
DV3_Default
  6
Continuous
 62
     7
100
AcDbLine
 10
30.068932908
 20
159.6069859159
 30
0.0
 11
28.1866752366
 21
159.6069857642
 31
0.0
  0
LINE
  5
3A7
330
2E1
100
AcDbEntity
  8
DV3_Default
  6
Continuous
 62
     7
100
AcDbLine
 10
19.9967655561
 20
164.6069872381
 30
0.0
 11
23.0799325257
 21
164.606988883
 31
0.0
  0
LINE
  5
3A8
330
2E1
100
AcDbEntity
  8
DV3_Default
  6
Continuous
 62
     7
100
AcDbLine
 10
23.079641103
 20
164.6069890098
 30
0.0
 11
23.1350685398
 21
164.6069890254
 31
0.0
  0
LINE
  5
3A9
330
2E1
100
AcDbEntity
  8
DV3_Default
  6
Continuous
 62
     7
100
AcDbLine
 10
23.1350685836
 20
164.6069890254
 30
0.0
 11
23.1930129865
 21
164.6069890416
 31
0.0
  0
LINE
  5
3AA
330
2E1
100
AcDbEntity
  8
DV3_Default
  6
Continuous
 62
     7
100
AcDbLine
 10
23.1930130302
 20
164.6069890416
 30
0.0
 11
23.346411553
 21
164.6069890563
 31
0.0
  0
LINE
  5
3AB
330
2E1
100
AcDbEntity
  8
DV3_Default
  6
Continuous
 62
     7
100
AcDbLine
 10
23.3464115299
 20
164.6069890563
 30
0.0
 11
23.5120761725
 21
164.6069890615
 31
0.0
  0
LINE
  5
3AC
330
2E1
100
AcDbEntity
  8
DV3_Default
  6
Continuous
 62
     7
100
AcDbLine
 10
23.5120761328
 20
164.6069890615
 30
0.0
 11
23.6729751924
 21
164.6069890665
 31
0.0
  0
LINE
  5
3AD
330
2E1
100
AcDbEntity
  8
DV3_Default
  6
Continuous
 62
     7
100
AcDbLine
 10
23.6729840855
 20
164.6069890395
 30
0.0
 11
42.1585113744
 21
164.6069893209
 31
0.0
  0
LINE
  5
3AE
330
2E1
100
AcDbEntity
  8
DV3_Default
  6
Continuous
 62
     7
100
AcDbLine
 10
42.1585113744
 20
164.6069893209
 30
0.0
 11
60.644070809
 21
164.6069888218
 31
0.0
  0
LINE
  5
3AF
330
2E1
100
AcDbEntity
  8
DV3_Default
  6
Continuous
 62
     7
100
AcDbLine
 10
60.6441712407
 20
164.6069889485
 30
0.0
 11
60.8042983179
 21
164.6069889425
 31
0.0
  0
LINE
  5
3B0
330
2E1
100
AcDbEntity
  8
DV3_Default
  6
Continuous
 62
     7
100
AcDbLine
 10
60.8042983027
 20
164.6069889425
 30
0.0
 11
60.9702107977
 21
164.6069889362
 31
0.0
  0
LINE
  5
3B1
330
2E1
100
AcDbEntity
  8
DV3_Default
  6
Continuous
 62
     7
100
AcDbLine
 10
60.9702107824
 20
164.6069889362
 30
0.0
 11
61.1234433272
 21
164.6069889206
 31
0.0
  0
LINE
  5
3B2
330
2E1
100
AcDbEntity
  8
DV3_Default
  6
Continuous
 62
     7
100
AcDbLine
 10
61.1234433931
 20
164.6069889206
 30
0.0
 11
61.1813007762
 21
164.606988904
 31
0.0
  0
LINE
  5
3B3
330
2E1
100
AcDbEntity
  8
DV3_Default
  6
Continuous
 62
     7
100
AcDbLine
 10
61.1813008904
 20
164.606988904
 30
0.0
 11
61.2369942957
 21
164.6069888879
 31
0.0
  0
LINE
  5
3B4
330
2E1
100
AcDbEntity
  8
DV3_Default
  6
Continuous
 62
     7
100
AcDbLine
 10
61.2368927097
 20
164.60698889
 30
0.0
 11
64.3574468826
 21
164.6069870958
 31
0.0
  0
LINE
  5
3B5
330
2E1
100
AcDbEntity
  8
DV3_Default
  6
Continuous
 62
     7
100
AcDbLine
 10
45.158508337
 20
164.606985149
 30
0.0
 11
46.2352993962
 21
164.6069850501
 31
0.0
  0
LINE
  5
3B6
330
2E1
100
AcDbEntity
  8
DV3_Default
  6
Continuous
 62
     7
100
AcDbLine
 10
46.2352994189
 20
164.6069847664
 30
0.0
 11
58.8808657618
 21
164.6069852535
 31
0.0
  0
LINE
  5
3B7
330
2E1
100
AcDbEntity
  8
DV3_Default
  6
Continuous
 62
     7
100
AcDbLine
 10
58.8808657618
 20
164.6069852535
 30
0.0
 11
60.5044829832
 21
164.6069854089
 31
0.0
  0
LINE
  5
3B8
330
2E1
100
AcDbEntity
  8
DV3_Default
  6
Continuous
 62
     7
100
AcDbLine
 10
23.8125356888
 20
164.606985526
 30
0.0
 11
25.4361531013
 21
164.6069853603
 31
0.0
  0
LINE
  5
3B9
330
2E1
100
AcDbEntity
  8
DV3_Default
  6
Continuous
 62
     7
100
AcDbLine
 10
25.4361531013
 20
164.6069853602
 30
0.0
 11
38.0817173465
 21
164.6069852513
 31
0.0
  0
LINE
  5
3BA
330
2E1
100
AcDbEntity
  8
DV3_Default
  6
Continuous
 62
     7
100
AcDbLine
 10
38.0817173465
 20
164.6069850739
 30
0.0
 11
39.1585084095
 21
164.6069851722
 31
0.0
  0
LINE
  5
3BB
330
2E1
100
AcDbEntity
  8
DV3_Default
  6
Continuous
 62
     7
100
AcDbLine
 10
56.130342918
 20
159.6069884579
 30
0.0
 11
54.2907979871
 21
159.6069882747
 31
0.0
  0
LINE
  5
3BC
330
2E1
100
AcDbEntity
  8
DV3_Default
  6
Continuous
 62
     7
100
AcDbLine
 10
54.2189804339
 20
159.6069882675
 30
0.0
 11
53.5628576528
 21
159.6069882022
 31
0.0
  0
LINE
  5
3BD
330
2E1
100
AcDbEntity
  8
DV3_Default
  6
Continuous
 62
     7
100
AcDbLine
 10
51.9285083667
 20
159.6069883407
 30
0.0
 11
52.3450554449
 21
159.6069883047
 31
0.0
  0
LINE
  5
3BE
330
2E1
100
AcDbEntity
  8
DV3_Default
  6
Continuous
 62
     7
100
AcDbLine
 10
52.3988824805
 20
159.6069883001
 30
0.0
 11
53.5628576561
 21
159.6069881995
 31
0.0
  0
LINE
  5
3BF
330
2E1
100
AcDbEntity
  8
DV3_Default
  6
Continuous
 62
     7
100
AcDbLine
 10
34.3885082258
 20
159.6069884794
 30
0.0
 11
49.9285084255
 21
159.6069884736
 31
0.0
  0
LINE
  5
3C0
330
2E1
100
AcDbEntity
  8
DV3_Default
  6
Continuous
 62
     7
100
AcDbLine
 10
30.7541590201
 20
159.6069882264
 30
0.0
 11
31.9065229251
 21
159.6069883258
 31
0.0
  0
LINE
  5
3C1
330
2E1
100
AcDbEntity
  8
DV3_Default
  6
Continuous
 62
     7
100
AcDbLine
 10
31.982214964
 20
159.6069883323
 30
0.0
 11
32.3885083645
 21
159.6069883674
 31
0.0
  0
LINE
  5
3C2
330
2E1
100
AcDbEntity
  8
DV3_Default
  6
Continuous
 62
     7
100
AcDbLine
 10
61.000803113
 20
159.6069888818
 30
0.0
 11
60.8316583187
 21
159.6069889078
 31
0.0
  0
LINE
  5
3C3
330
2E1
100
AcDbEntity
  8
DV3_Default
  6
Continuous
 62
     7
100
AcDbLine
 10
60.8316583187
 20
159.6069889078
 30
0.0
 11
60.5615508223
 21
159.606988935
 31
0.0
  0
LINE
  5
3C4
330
2E1
100
AcDbEntity
  8
DV3_Default
  6
Continuous
 62
     7
100
AcDbLine
 10
60.5615508223
 20
159.606988935
 30
0.0
 11
42.1585081941
 21
159.6069892962
 31
0.0
  0
LINE
  5
3C5
330
2E1
100
AcDbEntity
  8
DV3_Default
  6
Continuous
 62
     7
100
AcDbLine
 10
42.1585081941
 20
159.6069892962
 30
0.0
 11
23.7554775042
 21
159.6069890441
 31
0.0
  0
LINE
  5
3C6
330
2E1
100
AcDbEntity
  8
DV3_Default
  6
Continuous
 62
     7
100
AcDbLine
 10
23.7554775042
 20
159.6069890441
 30
0.0
 11
23.4853566098
 21
159.606989027
 31
0.0
  0
LINE
  5
3C7
330
2E1
100
AcDbEntity
  8
DV3_Default
  6
Continuous
 62
     7
100
AcDbLine
 10
23.4853566098
 20
159.606989027
 30
0.0
 11
23.3161635147
 21
159.6069890105
 31
0.0
  0
LINE
  5
3C8
330
2E1
100
AcDbEntity
  8
DV3_Default
  6
Continuous
 62
     7
100
AcDbLine
 10
23.3162135579
 20
159.6069853627
 30
0.0
 11
23.4853583522
 21
159.6069853341
 31
0.0
  0
LINE
  5
3C9
330
2E1
100
AcDbEntity
  8
DV3_Default
  6
Continuous
 62
     7
100
AcDbLine
 10
23.4853583522
 20
159.6069853341
 30
0.0
 11
23.7554658486
 21
159.6069853262
 31
0.0
  0
LINE
  5
3CA
330
2E1
100
AcDbEntity
  8
DV3_Default
  6
Continuous
 62
     7
100
AcDbLine
 10
23.7554658486
 20
159.6069853262
 30
0.0
 11
25.4087495286
 21
159.606985292
 31
0.0
  0
LINE
  5
3CB
330
2E1
100
AcDbEntity
  8
DV3_Default
  6
Continuous
 62
     7
100
AcDbLine
 10
25.4358631137
 20
159.6069852914
 30
0.0
 11
30.0557023131
 21
159.6069851959
 31
0.0
  0
LINE
  5
3CC
330
2E1
100
AcDbEntity
  8
DV3_Default
  6
Continuous
 62
     7
100
AcDbLine
 10
30.0947396145
 20
159.6069851951
 30
0.0
 11
30.7519206982
 21
159.6069851815
 31
0.0
  0
LINE
  5
3CD
330
2E1
100
AcDbEntity
  8
DV3_Default
  6
Continuous
 62
     7
100
AcDbLine
 10
53.5660267017
 20
159.6069851035
 30
0.0
 11
54.2224537302
 21
159.6069851126
 31
0.0
  0
LINE
  5
3CE
330
2E1
100
AcDbEntity
  8
DV3_Default
  6
Continuous
 62
     7
100
AcDbLine
 10
54.2819192973
 20
159.6069851134
 30
0.0
 11
58.8081655757
 21
159.6069851761
 31
0.0
  0
LINE
  5
3CF
330
2E1
100
AcDbEntity
  8
DV3_Default
  6
Continuous
 62
     7
100
AcDbLine
 10
58.9759257021
 20
159.6069851784
 30
0.0
 11
60.5615391668
 21
159.6069852003
 31
0.0
  0
LINE
  5
3D0
330
2E1
100
AcDbEntity
  8
DV3_Default
  6
Continuous
 62
     7
100
AcDbLine
 10
60.5615391668
 20
159.6069852003
 30
0.0
 11
60.8316600611
 21
159.6069852149
 31
0.0
  0
LINE
  5
3D1
330
2E1
100
AcDbEntity
  8
DV3_Default
  6
Continuous
 62
     7
100
AcDbLine
 10
60.8316600611
 20
159.6069852149
 30
0.0
 11
61.0008531562
 21
159.6069852507
 31
0.0
  0
LINE
  5
3D2
330
2E1
100
AcDbEntity
  8
DV3_Default
  6
Continuous
 62
     7
100
AcDbLine
 10
28.1866752366
 20
159.6069857443
 30
0.0
 11
26.5153440655
 21
159.6069858351
 31
0.0
  0
LINE
  5
3D3
330
2E1
100
AcDbEntity
  8
DV3_Default
  6
Continuous
 62
     7
100
AcDbLine
 10
24.6602601224
 20
159.6069871768
 30
0.0
 11
26.5153440655
 21
159.6069858337
 31
0.0
  0
LINE
  5
3D4
330
2E1
100
AcDbEntity
  8
DV3_Default
  6
Continuous
 62
     7
100
AcDbLine
 10
24.6602601224
 20
159.6069871768
 30
0.0
 11
25.3667207564
 21
159.6069876454
 31
0.0
  0
LINE
  5
3D5
330
2E1
100
AcDbEntity
  8
DV3_Default
  6
Continuous
 62
     7
100
AcDbLine
 10
25.4919651109
 20
159.6069877284
 30
0.0
 11
26.5153425668
 21
159.6069884072
 31
0.0
  0
LINE
  5
3D6
330
2E1
100
AcDbEntity
  8
DV3_Default
  6
Continuous
 62
     7
100
AcDbLine
 10
26.5153425668
 20
159.606988504
 30
0.0
 11
28.186672353
 21
159.6069885531
 31
0.0
  0
LINE
  5
3D7
330
2E1
100
AcDbEntity
  8
DV3_Default
  6
Continuous
 62
     7
100
AcDbLine
 10
32.3885082333
 20
159.6069886598
 30
0.0
 11
32.6385081196
 21
159.6069886851
 31
0.0
  0
LINE
  5
3D8
330
2E1
100
AcDbEntity
  8
DV3_Default
  6
Continuous
 62
     7
100
AcDbLine
 10
32.6385081196
 20
159.6069886846
 30
0.0
 11
34.1385082258
 21
159.6069886787
 31
0.0
  0
LINE
  5
3D9
330
2E1
100
AcDbEntity
  8
DV3_Default
  6
Continuous
 62
     7
100
AcDbLine
 10
34.1385082258
 20
159.6069886787
 30
0.0
 11
34.3885082333
 21
159.6069886542
 31
0.0
  0
LINE
  5
3DA
330
2E1
100
AcDbEntity
  8
DV3_Default
  6
Continuous
 62
     7
100
AcDbLine
 10
49.9285084387
 20
159.6069886041
 30
0.0
 11
50.1785084461
 21
159.606988628
 31
0.0
  0
LINE
  5
3DB
330
2E1
100
AcDbEntity
  8
DV3_Default
  6
Continuous
 62
     7
100
AcDbLine
 10
51.6785084461
 20
159.6069886232
 30
0.0
 11
50.1785084461
 21
159.606988628
 31
0.0
  0
LINE
  5
3DC
330
2E1
100
AcDbEntity
  8
DV3_Default
  6
Continuous
 62
     7
100
AcDbLine
 10
51.6785084461
 20
159.6069886232
 30
0.0
 11
51.9285084387
 21
159.6069885977
 31
0.0
  0
LINE
  5
3DD
330
2E1
100
AcDbEntity
  8
DV3_Default
  6
Continuous
 62
     7
100
AcDbLine
 10
56.130342918
 20
159.6069884579
 30
0.0
 11
57.8016741051
 21
159.6069884089
 31
0.0
  0
LINE
  5
3DE
330
2E1
100
AcDbEntity
  8
DV3_Default
  6
Continuous
 62
     7
100
AcDbLine
 10
59.6567565511
 20
159.6069870651
 30
0.0
 11
58.7045766343
 21
159.6069877548
 31
0.0
  0
LINE
  5
3DF
330
2E1
100
AcDbEntity
  8
DV3_Default
  6
Continuous
 62
     7
100
AcDbLine
 10
58.5784156418
 20
159.6069878462
 30
0.0
 11
57.8016741051
 21
159.6069884089
 31
0.0
  0
LINE
  5
3E0
330
2E1
100
AcDbEntity
  8
DV3_Default
  6
Continuous
 62
     7
100
AcDbLine
 10
59.6567565511
 20
159.6069870651
 30
0.0
 11
58.9839822485
 21
159.6069865833
 31
0.0
  0
LINE
  5
3E1
330
2E1
100
AcDbEntity
  8
DV3_Default
  6
Continuous
 62
     7
100
AcDbLine
 10
58.825682003
 20
159.6069864699
 30
0.0
 11
58.7045766975
 21
159.6069863832
 31
0.0
  0
LINE
  5
3E2
330
2E1
100
AcDbEntity
  8
DV3_Default
  6
Continuous
 62
     7
100
AcDbLine
 10
58.5784152372
 20
159.6069862928
 30
0.0
 11
57.8016726064
 21
159.6069857366
 31
0.0
  0
LINE
  5
3E3
330
2E1
100
AcDbEntity
  8
DV3_Default
  6
Continuous
 62
     7
100
AcDbLine
 10
57.8016726064
 20
159.6069857366
 30
0.0
 11
56.1303414204
 21
159.6069856509
 31
0.0
  0
LINE
  5
3E4
330
2E1
100
AcDbEntity
  8
DV3_Default
  6
Continuous
 62
     7
100
AcDbLine
 10
56.1303414204
 20
159.606985682
 30
0.0
 11
54.2907977546
 21
159.6069858718
 31
0.0
  0
LINE
  5
3E5
330
2E1
100
AcDbEntity
  8
DV3_Default
  6
Continuous
 62
     7
100
AcDbLine
 10
54.2189925796
 20
159.6069858792
 30
0.0
 11
53.5628576558
 21
159.6069859468
 31
0.0
  0
ARC
  5
3E6
330
2E1
100
AcDbEntity
  8
DV3_Default
  6
Continuous
 62
     7
100
AcDbCircle
 10
64.1574400177
 20
160.1064619402
 30
0.0
 40
0.4994750336539159
100
AcDbArc
 50
269.9564631419
 51
282.080416196
  0
LINE
  5
3E7
330
2E1
100
AcDbEntity
  8
DV3_Default
  6
Continuous
 62
     7
100
AcDbLine
 10
64.6567578786
 20
160.1069870491
 30
0.0
 11
64.6567578914
 21
164.1069870491
 31
0.0
  0
LINE
  5
3E8
330
2E1
100
AcDbEntity
  8
DV3_Default
  6
Continuous
 62
     7
100
AcDbLine
 10
61.3593075848
 20
163.7497273063
 30
0.0
 11
61.3595950755
 21
163.7855398741
 31
0.0
  0
ARC
  5
3E9
330
2E1
100
AcDbEntity
  8
DV3_Default
  6
Continuous
 62
     7
100
AcDbCircle
 10
20.1595766564
 20
160.1064620807
 30
0.0
 40
0.4994750337084232
100
AcDbArc
 50
179.939763332
 51
270.0435364871
  0
ARC
  5
3EA
330
2E1
100
AcDbEntity
  8
DV3_Default
  6
Continuous
 62
     7
100
AcDbCircle
 10
19.9102591515
 20
164.356987192
 30
0.0
 40
0.2499999999998512
100
AcDbArc
 50
90.0000783082
 51
179.9999998171
  0
LINE
  5
3EB
330
2E1
100
AcDbEntity
  8
DV3_Default
  6
Continuous
 62
     7
100
AcDbLine
 10
64.6451628786
 20
164.3569870559
 30
0.0
 11
64.6567576634
 21
164.3569870491
 31
0.0
  0
ARC
  5
3EC
330
2E1
100
AcDbEntity
  8
DV3_Default
  6
Continuous
 62
     7
100
AcDbCircle
 10
64.4067575497
 20
164.3569870499
 30
0.0
 40
0.2500000000001497
100
AcDbArc
 50
0.0
 51
89.9999213259
  0
LINE
  5
3ED
330
2E1
100
AcDbEntity
  8
DV3_Default
  6
Continuous
 62
     7
100
AcDbLine
 10
64.6567578914
 20
164.1069870491
 30
0.0
 11
64.6567576634
 21
164.3569870491
 31
0.0
  0
LINE
  5
3EE
330
2E1
100
AcDbEntity
  8
DV3_Default
  6
Continuous
 62
     7
100
AcDbLine
 10
61.359377548
 20
164.356988893
 30
0.0
 11
61.3595960109
 21
163.7855398741
 31
0.0
  0
LINE
  5
3EF
330
2E1
100
AcDbEntity
  8
DV3_Default
  6
Continuous
 62
     7
100
AcDbLine
 10
23.2635379763
 20
163.7497274582
 30
0.0
 11
23.2643599635
 21
163.785540026
 31
0.0
  0
LINE
  5
3F0
330
2E1
100
AcDbEntity
  8
DV3_Default
  6
Continuous
 62
     7
100
AcDbLine
 10
23.2637367425
 20
164.3569890448
 30
0.0
 11
23.2643594807
 21
163.785540026
 31
0.0
  0
LINE
  5
3F1
330
2E1
100
AcDbEntity
  8
DV3_Default
  6
Continuous
 62
     7
100
AcDbLine
 10
19.6602587955
 20
160.1069871928
 30
0.0
 11
19.6602588083
 21
164.1069871928
 31
0.0
  0
LINE
  5
3F2
330
2E1
100
AcDbEntity
  8
DV3_Default
  6
Continuous
 62
     7
100
AcDbLine
 10
19.6602588083
 20
164.1069871928
 30
0.0
 11
19.6602590379
 21
164.3569871928
 31
0.0
  0
LINE
  5
3F3
330
2E1
100
AcDbEntity
  8
DV3_Default
  6
Continuous
 62
     7
100
AcDbLine
 10
64.2613770842
 20
159.6200776677
 30
0.0
 11
64.3838201382
 21
159.6886992372
 31
0.0
  0
ARC
  5
3F4
330
2E1
100
AcDbEntity
  8
DV3_Default
  6
Continuous
 62
     7
100
AcDbCircle
 10
62.2653747497
 20
2821.6427906535
 30
0.0
 40
2662.026398307924
100
AcDbArc
 50
269.974781714
 51
270.0418656613
  0
ARC
  5
3F5
330
2E1
100
AcDbEntity
  8
DV3_Default
  6
Continuous
 62
     7
100
AcDbCircle
 10
64.1445961605
 20
160.107703228
 30
0.0
 40
0.5008072475952946
100
AcDbArc
 50
292.4240534871
 51
359.9180769097
  0
ARC
  5
3F6
330
2E1
100
AcDbEntity
  8
DV3_Default
  6
Continuous
 62
     7
100
AcDbCircle
 10
20.1724170626
 20
160.1077001156
 30
0.0
 40
0.5008037975661098
100
AcDbArc
 50
180.0815511562
 51
247.5298326036
  0
LINE
  5
3F7
330
2E1
100
AcDbEntity
  8
DV3_Default
  6
Continuous
 62
     7
100
AcDbLine
 10
19.9329153186
 20
159.6888842594
 30
0.0
 11
20.0553870014
 21
159.6201342665
 31
0.0
  0
ARC
  5
3F8
330
2E1
100
AcDbEntity
  8
DV3_Default
  6
Continuous
 62
     7
100
AcDbCircle
 10
22.0514416307
 20
3100.0873347676
 30
0.0
 40
2940.470867671646
100
AcDbArc
 50
269.9621019746
 51
270.0228294824
  0
LINE
  5
3F9
330
2E1
100
AcDbEntity
  8
DV3_Default
  6
Continuous
 62
     7
100
AcDbLine
 10
19.9576787253
 20
164.6028598658
 30
0.0
 11
19.9125256489
 21
164.60283686
 31
0.0
  0
LINE
  5
3FA
330
2E1
100
AcDbEntity
  8
DV3_Default
  6
Continuous
 62
     7
100
AcDbLine
 10
19.8639939048
 20
164.601358354
 30
0.0
 11
19.8240156415
 21
164.5680713995
 31
0.0
  0
ARC
  5
3FB
330
2E1
100
AcDbEntity
  8
DV3_Default
  6
Continuous
 62
     7
100
AcDbCircle
 10
19.9229230073
 20
164.3559850454
 30
0.0
 40
0.2509305756259959
100
AcDbArc
 50
111.1041342596
 51
179.7711503849
  0
LINE
  5
3FC
330
2E1
100
AcDbEntity
  8
DV3_Default
  6
Continuous
 62
     7
100
AcDbLine
 10
19.9293079306
 20
164.5900853185
 30
0.0
 11
19.9265834137
 21
164.598841813
 31
0.0
  0
LINE
  5
3FD
330
2E1
100
AcDbEntity
  8
DV3_Default
  6
Continuous
 62
     7
100
AcDbLine
 10
64.3909925843
 20
164.5985959632
 30
0.0
 11
64.3890152091
 21
164.5901343072
 31
0.0
  0
ARC
  5
3FE
330
2E1
100
AcDbEntity
  8
DV3_Default
  6
Continuous
 62
     7
100
AcDbCircle
 10
64.3942452393
 20
164.3559899107
 30
0.0
 40
0.25092590525877
100
AcDbArc
 50
0.2277099784
 51
68.9266319603
  0
LINE
  5
3FF
330
2E1
100
AcDbEntity
  8
DV3_Default
  6
Continuous
 62
     7
100
AcDbLine
 10
64.4934830275
 20
164.5681407638
 30
0.0
 11
64.452978538
 21
164.6013658745
 31
0.0
  0
LINE
  5
400
330
2E1
100
AcDbEntity
  8
DV3_Default
  6
Continuous
 62
     7
100
AcDbLine
 10
64.4050674335
 20
164.6028393244
 30
0.0
 11
64.4020196502
 21
164.6028410064
 31
0.0
  0
ENDBLK
  5
402
330
2E1
100
AcDbEntity
  8
0
100
AcDbBlockEnd
  0
ENDSEC
  0
SECTION
  2
ENTITIES
  0
INSERT
  5
5F
330
1F
100
AcDbEntity
  8
Default
100
AcDbBlockReference
  2
SEANNOT_GROUP
 10
0.0
 20
0.0
 30
0.0
  0
INSERT
  5
66
330
1F
100
AcDbEntity
  8
Default
100
AcDbBlockReference
  2
SEANNOT_GROUP1
 10
0.0
 20
0.0
 30
0.0
  0
LINE
  5
6B
330
1F
100
AcDbEntity
  8
Default
  6
Continuous
 62
     7
100
AcDbLine
 10
42.1585113744
 20
249.0745998594
 30
0.0
 11
42.1585113744
 21
249.2548700847
 31
0.0
  0
INSERT
  5
6D
330
1F
100
AcDbEntity
  8
Default
100
AcDbBlockReference
  2
SEANNOT_GROUP2
 10
0.0
 20
0.0
 30
0.0
  0
INSERT
  5
73
330
1F
100
AcDbEntity
  8
Default
100
AcDbBlockReference
  2
SE
 10
0.0
 20
0.0
 30
0.0
  0
INSERT
  5
1F3
330
1F
100
AcDbEntity
  8
Default
100
AcDbBlockReference
  2
SE1
 10
0.0
 20
0.0
 30
0.0
  0
INSERT
  5
2E2
330
1F
100
AcDbEntity
  8
Default
100
AcDbBlockReference
  2
SE2
 10
0.0
 20
0.0
 30
0.0
  0
TEXT
  5
404
330
1F
100
AcDbEntity
  8
Default
  6
Continuous
 62
     7
100
AcDbText
 10
5.9362635081
 20
53.4225120485
 30
0.0
 40
10.0
  1
Grohe AG^J
  7
SEACAD_seiso_ttf
 11
5.9362635081
 21
63.4225120485
 31
0.0
100
AcDbText
 73
     3
  0
TEXT
  5
405
330
1F
100
AcDbEntity
  8
Default
  6
Continuous
 62
     7
100
AcDbText
 10
5.9362635081
 20
37.0588756849
 30
0.0
 40
10.0
  1
 
  7
SEACAD_seiso_ttf
 11
5.9362635081
 21
47.0588756849
 31
0.0
100
AcDbText
 73
     3
  0
TEXT
  5
406
330
1F
100
AcDbEntity
  8
Default
  6
Continuous
 62
     7
100
AcDbText
 10
5.9362635081
 20
20.6952393213
 30
0.0
 40
10.0
  1
ecn:
  7
SEACAD_seiso_ttf
 11
5.9362635081
 21
30.6952393213
 31
0.0
100
AcDbText
 73
     3
  0
TEXT
  5
407
330
1F
100
AcDbEntity
  8
Default
  6
Continuous
 62
     7
100
AcDbText
 10
5.9362635081
 20
4.3316029576
 30
0.0
 40
10.0
  1
unit: mm
  7
SEACAD_seiso_ttf
 11
5.9362635081
 21
14.3316029576
 31
0.0
100
AcDbText
 73
     3
  0
LINE
  5
408
330
1F
100
AcDbEntity
  8
Default
  6
Continuous
 62
     7
100
AcDbLine
 10
0.0
 20
0.0
 30
0.0
 11
100.0
 21
0.0
 31
0.0
  0
LINE
  5
409
330
1F
100
AcDbEntity
  8
Default
  6
Continuous
 62
     7
100
AcDbLine
 10
0.0
 20
0.0
 30
0.0
 11
0.0
 21
100.0
 31
0.0
  0
TEXT
  5
40A
330
1F
100
AcDbEntity
  8
Default
  6
Continuous
 62
     7
100
AcDbText
 10
24.3923665681
 20
-18.2375342018
 30
0.0
 40
10.0
  1
100 mm
  7
SEACAD_seiso_ttf
 11
24.3923665681
 21
-8.2375342018
 31
0.0
100
AcDbText
 73
     3
  0
TEXT
  5
40B
330
1F
100
AcDbEntity
  8
Default
  6
Continuous
 62
     7
100
AcDbText
 10
-7.6150308803
 20
24.6231930421
 30
0.0
 40
10.0
  1
100 mm
 50
90.0
  7
SEACAD_seiso_ttf
 11
-17.6150308803
 21
24.6231930421
 31
0.0
100
AcDbText
 73
     3
  0
TEXT
  5
40C
330
1F
100
AcDbEntity
  8
Default
  6
Continuous
 62
     7
100
AcDbText
 10
28.4878128572
 20
20.0907663715
 30
0.0
 40
10.0
  1
227068
  7
SEACAD_seiso_ttf
 11
28.4878128572
 21
30.0907663715
 31
0.0
100
AcDbText
 73
     3
  0
TEXT
  5
40D
330
1F
100
AcDbEntity
  8
Default
  6
Continuous
 62
     7
100
AcDbText
 10
5.9012241913
 20
36.7242780188
 30
0.0
 40
10.0
  1
40631000
  7
SEACAD_seiso_ttf
 11
5.9012241913
 21
46.7242780188
 31
0.0
100
AcDbText
 73
     3
  0
ENDSEC
  0
SECTION
  2
OBJECTS
  0
DICTIONARY
  5
C
330
0
100
AcDbDictionary
281
     1
  3
ACAD_GROUP
350
D
  3
ACAD_LAYOUT
350
1A
  3
ACAD_MLEADERSTYLE
350
411
  3
ACAD_MLINESTYLE
350
17
  3
ACAD_PLOTSETTINGS
350
19
  3
ACAD_PLOTSTYLENAME
350
E
  3
ACAD_SCALELIST
350
3B
  3
ACAD_TABLESTYLE
350
410
  3
ACAD_VISUALSTYLE
350
2A
  3
AcDbVariableDictionary
350
40E
  0
DICTIONARY
  5
D
102
{ACAD_REACTORS
330
C
102
}
330
C
100
AcDbDictionary
281
     1
  0
DICTIONARY
  5
1A
102
{ACAD_REACTORS
330
C
102
}
330
C
100
AcDbDictionary
281
     1
  3
Layout1
350
1E
  3
Model
350
22
  0
DICTIONARY
  5
411
102
{ACAD_REACTORS
330
C
102
}
330
C
100
AcDbDictionary
281
     1
  0
DICTIONARY
  5
17
102
{ACAD_REACTORS
330
C
102
}
330
C
100
AcDbDictionary
281
     1
  3
Standard
350
18
  0
DICTIONARY
  5
19
102
{ACAD_REACTORS
330
C
102
}
330
C
100
AcDbDictionary
281
     1
  0
ACDBDICTIONARYWDFLT
  5
E
102
{ACAD_REACTORS
330
C
102
}
330
C
100
AcDbDictionary
281
     1
  3
Normal
350
F
100
AcDbDictionaryWithDefault
340
F
  0
DICTIONARY
  5
3B
102
{ACAD_REACTORS
330
C
102
}
330
C
100
AcDbDictionary
281
     1
  3
A0
350
3C
  3
A1
350
3D
  3
A2
350
3E
  3
A3
350
3F
  3
A4
350
40
  3
A5
350
41
  3
A6
350
42
  3
A7
350
43
  3
A8
350
44
  3
A9
350
45
  3
B0
350
46
  3
B1
350
47
  3
B2
350
48
  3
B3
350
49
  3
B4
350
4A
  3
B5
350
4B
  3
B6
350
4C
  3
B7
350
4D
  3
B8
350
4E
  3
B9
350
4F
  3
C0
350
50
  3
C1
350
51
  3
C2
350
52
  3
C3
350
53
  3
C4
350
54
  3
C5
350
55
  3
C6
350
56
  3
C7
350
57
  3
C8
350
58
  3
C9
350
59
  3
D0
350
5A
  3
D1
350
5B
  3
D2
350
5C
  0
DICTIONARY
  5
410
102
{ACAD_REACTORS
330
C
102
}
330
C
100
AcDbDictionary
281
     1
  0
DICTIONARY
  5
2A
102
{ACAD_REACTORS
330
C
102
}
330
C
100
AcDbDictionary
281
     1
  3
2dWireframe
350
2F
  3
3D Hidden
350
31
  3
3dWireframe
350
30
  3
Basic
350
32
  3
Brighten
350
36
  3
ColorChange
350
3A
  3
Conceptual
350
34
  3
Dim
350
35
  3
Facepattern
350
39
  3
Flat
350
2B
  3
FlatWithEdges
350
2C
  3
Gouraud
350
2D
  3
GouraudWithEdges
350
2E
  3
Linepattern
350
38
  3
Realistic
350
33
  3
Thicken
350
37
  0
DICTIONARY
  5
40E
102
{ACAD_REACTORS
330
C
102
}
330
C
100
AcDbDictionary
281
     1
  3
CANNOSCALE
350
40F
  3
PSOLHEIGHT
350
413
  3
PSOLWIDTH
350
412
  0
LAYOUT
  5
1E
102
{ACAD_REACTORS
330
1A
102
}
330
1A
100
AcDbPlotSettings
  1

  2
none_device
  4

  6

 40
0.0
 41
0.0
 42
0.0
 43
0.0
 44
0.0
 45
0.0
 46
0.0
 47
0.0
 48
0.0
 49
0.0
140
0.0
141
0.0
142
1.0
143
1.0
 70
   688
 72
     0
 73
     0
 74
     5
  7

 75
    16
147
1.0
148
0.0
149
0.0
100
AcDbLayout
  1
Layout1
 70
     1
 71
     1
 10
0.0
 20
0.0
 11
3000.0
 21
4500.0
 12
0.0
 22
0.0
 32
0.0
 14
0.0
 24
0.0
 34
0.0
 15
3000.0
 25
4500.0
 35
0.0
146
0.0
 13
0.0
 23
0.0
 33
0.0
 16
1.0
 26
0.0
 36
0.0
 17
0.0
 27
1.0
 37
0.0
 76
     0
330
1B
  0
LAYOUT
  5
22
102
{ACAD_REACTORS
330
1A
102
}
330
1A
100
AcDbPlotSettings
  1

  2
none_device
  4

  6

 40
0.0
 41
0.0
 42
0.0
 43
0.0
 44
0.0
 45
0.0
 46
0.0
 47
0.0
 48
0.0
 49
0.0
140
0.0
141
0.0
142
1.0
143
1.0
 70
  1712
 72
     0
 73
     0
 74
     0
  7

 75
     0
147
1.0
148
0.0
149
0.0
100
AcDbLayout
  1
Model
 70
     1
 71
     0
 10
0.0
 20
0.0
 11
3000.0
 21
4500.0
 12
0.0
 22
0.0
 32
0.0
 14
0.0
 24
0.0
 34
0.0
 15
3000.0
 25
4500.0
 35
0.0
146
0.0
 13
0.0
 23
0.0
 33
0.0
 16
1.0
 26
0.0
 36
0.0
 17
0.0
 27
1.0
 37
0.0
 76
     0
330
1F
331
29
  0
MLINESTYLE
  5
18
102
{ACAD_REACTORS
330
17
102
}
330
17
100
AcDbMlineStyle
  2
Standard
 70
     0
  3

 62
   256
 51
90.0
 52
90.0
 71
     2
 49
0.5
 62
   256
  6
BYLAYER
 49
-0.5
 62
   256
  6
BYLAYER
  0
ACDBPLACEHOLDER
  5
F
102
{ACAD_REACTORS
330
E
102
}
330
E
  0
SCALE
  5
3C
102
{ACAD_REACTORS
330
3B
102
}
330
3B
100
AcDbScale
 70
     0
300
1:1
140
1.0
141
1.0
290
     1
  0
SCALE
  5
3D
102
{ACAD_REACTORS
330
3B
102
}
330
3B
100
AcDbScale
 70
     0
300
1:2
140
1.0
141
2.0
290
     0
  0
SCALE
  5
3E
102
{ACAD_REACTORS
330
3B
102
}
330
3B
100
AcDbScale
 70
     0
300
1:4
140
1.0
141
4.0
290
     0
  0
SCALE
  5
3F
102
{ACAD_REACTORS
330
3B
102
}
330
3B
100
AcDbScale
 70
     0
300
1:5
140
1.0
141
5.0
290
     0
  0
SCALE
  5
40
102
{ACAD_REACTORS
330
3B
102
}
330
3B
100
AcDbScale
 70
     0
300
1:8
140
1.0
141
8.0
290
     0
  0
SCALE
  5
41
102
{ACAD_REACTORS
330
3B
102
}
330
3B
100
AcDbScale
 70
     0
300
1:10
140
1.0
141
10.0
290
     0
  0
SCALE
  5
42
102
{ACAD_REACTORS
330
3B
102
}
330
3B
100
AcDbScale
 70
     0
300
1:16
140
1.0
141
16.0
290
     0
  0
SCALE
  5
43
102
{ACAD_REACTORS
330
3B
102
}
330
3B
100
AcDbScale
 70
     0
300
1:20
140
1.0
141
20.0
290
     0
  0
SCALE
  5
44
102
{ACAD_REACTORS
330
3B
102
}
330
3B
100
AcDbScale
 70
     0
300
1:30
140
1.0
141
30.0
290
     0
  0
SCALE
  5
45
102
{ACAD_REACTORS
330
3B
102
}
330
3B
100
AcDbScale
 70
     0
300
1:40
140
1.0
141
40.0
290
     0
  0
SCALE
  5
46
102
{ACAD_REACTORS
330
3B
102
}
330
3B
100
AcDbScale
 70
     0
300
1:50
140
1.0
141
50.0
290
     0
  0
SCALE
  5
47
102
{ACAD_REACTORS
330
3B
102
}
330
3B
100
AcDbScale
 70
     0
300
1:100
140
1.0
141
100.0
290
     0
  0
SCALE
  5
48
102
{ACAD_REACTORS
330
3B
102
}
330
3B
100
AcDbScale
 70
     0
300
2:1
140
2.0
141
1.0
290
     0
  0
SCALE
  5
49
102
{ACAD_REACTORS
330
3B
102
}
330
3B
100
AcDbScale
 70
     0
300
4:1
140
4.0
141
1.0
290
     0
  0
SCALE
  5
4A
102
{ACAD_REACTORS
330
3B
102
}
330
3B
100
AcDbScale
 70
     0
300
8:1
140
8.0
141
1.0
290
     0
  0
SCALE
  5
4B
102
{ACAD_REACTORS
330
3B
102
}
330
3B
100
AcDbScale
 70
     0
300
10:1
140
10.0
141
1.0
290
     0
  0
SCALE
  5
4C
102
{ACAD_REACTORS
330
3B
102
}
330
3B
100
AcDbScale
 70
     0
300
100:1
140
100.0
141
1.0
290
     0
  0
SCALE
  5
4D
102
{ACAD_REACTORS
330
3B
102
}
330
3B
100
AcDbScale
 70
     0
300
1/128" = 1'-0"
140
0.0078125
141
12.0
290
     0
  0
SCALE
  5
4E
102
{ACAD_REACTORS
330
3B
102
}
330
3B
100
AcDbScale
 70
     0
300
1/64" = 1'-0"
140
0.015625
141
12.0
290
     0
  0
SCALE
  5
4F
102
{ACAD_REACTORS
330
3B
102
}
330
3B
100
AcDbScale
 70
     0
300
1/32" = 1'-0"
140
0.03125
141
12.0
290
     0
  0
SCALE
  5
50
102
{ACAD_REACTORS
330
3B
102
}
330
3B
100
AcDbScale
 70
     0
300
1/16" = 1'-0"
140
0.0625
141
12.0
290
     0
  0
SCALE
  5
51
102
{ACAD_REACTORS
330
3B
102
}
330
3B
100
AcDbScale
 70
     0
300
3/32" = 1'-0"
140
0.09375
141
12.0
290
     0
  0
SCALE
  5
52
102
{ACAD_REACTORS
330
3B
102
}
330
3B
100
AcDbScale
 70
     0
300
1/8" = 1'-0"
140
0.125
141
12.0
290
     0
  0
SCALE
  5
53
102
{ACAD_REACTORS
330
3B
102
}
330
3B
100
AcDbScale
 70
     0
300
3/16" = 1'-0"
140
0.1875
141
12.0
290
     0
  0
SCALE
  5
54
102
{ACAD_REACTORS
330
3B
102
}
330
3B
100
AcDbScale
 70
     0
300
1/4" = 1'-0"
140
0.25
141
12.0
290
     0
  0
SCALE
  5
55
102
{ACAD_REACTORS
330
3B
102
}
330
3B
100
AcDbScale
 70
     0
300
3/8" = 1'-0"
140
0.375
141
12.0
290
     0
  0
SCALE
  5
56
102
{ACAD_REACTORS
330
3B
102
}
330
3B
100
AcDbScale
 70
     0
300
1/2" = 1'-0"
140
0.5
141
12.0
290
     0
  0
SCALE
  5
57
102
{ACAD_REACTORS
330
3B
102
}
330
3B
100
AcDbScale
 70
     0
300
3/4" = 1'-0"
140
0.75
141
12.0
290
     0
  0
SCALE
  5
58
102
{ACAD_REACTORS
330
3B
102
}
330
3B
100
AcDbScale
 70
     0
300
1" = 1'-0"
140
1.0
141
12.0
290
     0
  0
SCALE
  5
59
102
{ACAD_REACTORS
330
3B
102
}
330
3B
100
AcDbScale
 70
     0
300
1-1/2" = 1'-0"
140
1.5
141
12.0
290
     0
  0
SCALE
  5
5A
102
{ACAD_REACTORS
330
3B
102
}
330
3B
100
AcDbScale
 70
     0
300
3" = 1'-0"
140
3.0
141
12.0
290
     0
  0
SCALE
  5
5B
102
{ACAD_REACTORS
330
3B
102
}
330
3B
100
AcDbScale
 70
     0
300
6" = 1'-0"
140
6.0
141
12.0
290
     0
  0
SCALE
  5
5C
102
{ACAD_REACTORS
330
3B
102
}
330
3B
100
AcDbScale
 70
     0
300
1'-0" = 1'-0"
140
12.0
141
12.0
290
     0
  0
VISUALSTYLE
  5
2F
102
{ACAD_REACTORS
330
2A
102
}
330
2A
100
AcDbVisualStyle
  2
2dWireframe
 70
     4
 71
     0
 72
     2
 73
     0
 90
        0
 40
-0.6
 41
-30.0
 62
     5
 63
     7
 74
     1
 91
        4
 64
     7
 65
   257
 75
     1
175
     1
 42
1.0
 92
        0
 66
   257
 43
1.0
 76
     1
 77
     6
 78
     2
 67
     7
 79
     5
170
     0
171
     0
290
     0
174
     0
 93
        1
 44
0.0
173
     0
291
     0
 45
0.0
1001
ACAD
1000
AcDbSavedByObjectVersion
1070
     0
  0
VISUALSTYLE
  5
31
102
{ACAD_REACTORS
330
2A
102
}
330
2A
100
AcDbVisualStyle
  2
3D Hidden
 70
     6
 71
     1
 72
     2
 73
     2
 90
        0
 40
-0.6
 41
-30.0
 62
     5
 63
     7
 74
     2
 91
        2
 64
     7
 65
   257
 75
     2
175
     1
 42
40.0
 92
        0
 66
   257
 43
1.0
 76
     1
 77
     6
 78
     2
 67
     7
 79
     3
170
     0
171
     0
290
     0
174
     0
 93
        1
 44
0.0
173
     0
291
     0
 45
0.0
1001
ACAD
1000
AcDbSavedByObjectVersion
1070
     0
  0
VISUALSTYLE
  5
30
102
{ACAD_REACTORS
330
2A
102
}
330
2A
100
AcDbVisualStyle
  2
3dWireframe
 70
     5
 71
     0
 72
     2
 73
     0
 90
        0
 40
-0.6
 41
-30.0
 62
     5
 63
     7
 74
     1
 91
        4
 64
     7
 65
   257
 75
     1
175
     1
 42
1.0
 92
        0
 66
   257
 43
1.0
 76
     1
 77
     6
 78
     2
 67
     7
 79
     5
170
     0
171
     0
290
     0
174
     0
 93
        1
 44
0.0
173
     0
291
     0
 45
0.0
1001
ACAD
1000
AcDbSavedByObjectVersion
1070
     0
  0
VISUALSTYLE
  5
32
102
{ACAD_REACTORS
330
2A
102
}
330
2A
100
AcDbVisualStyle
  2
Basic
 70
     7
 71
     1
 72
     0
 73
     1
 90
        0
 40
-0.6
 41
-30.0
 62
     5
 63
     7
 74
     0
 91
        4
 64
     7
 65
   257
 75
     1
175
     1
 42
1.0
 92
        8
 66
     7
 43
1.0
 76
     1
 77
     6
 78
     2
 67
     7
 79
     5
170
     0
171
     0
290
     0
174
     0
 93
        1
 44
0.0
173
     0
291
     1
 45
0.0
1001
ACAD
1000
AcDbSavedByObjectVersion
1070
     0
  0
VISUALSTYLE
  5
36
102
{ACAD_REACTORS
330
2A
102
}
330
2A
100
AcDbVisualStyle
  2
Brighten
 70
    12
 71
     2
 72
     2
 73
     0
 90
        0
 40
-0.6
 41
-30.0
 62
     5
 63
     7
 74
     1
 91
        4
 64
     7
 65
   257
 75
     1
175
     1
 42
1.0
 92
        8
 66
     7
 43
1.0
 76
     1
 77
     6
 78
     2
 67
     7
 79
     5
170
     0
171
     0
290
     0
174
     0
 93
        1
 44
50.0
173
     0
291
     1
 45
0.0
1001
ACAD
1000
AcDbSavedByObjectVersion
1070
     0
  0
VISUALSTYLE
  5
3A
102
{ACAD_REACTORS
330
2A
102
}
330
2A
100
AcDbVisualStyle
  2
ColorChange
 70
    16
 71
     2
 72
     2
 73
     3
 90
        0
 40
-0.6
 41
-30.0
 62
     5
 63
     8
 74
     1
 91
        4
 64
     7
 65
   257
 75
     1
175
     1
 42
1.0
 92
        8
 66
     8
 43
1.0
 76
     1
 77
     6
 78
     2
 67
     7
 79
     5
170
     0
171
     0
290
     0
174
     0
 93
        1
 44
0.0
173
     0
291
     1
 45
0.0
1001
ACAD
1000
AcDbSavedByObjectVersion
1070
     0
  0
VISUALSTYLE
  5
34
102
{ACAD_REACTORS
330
2A
102
}
330
2A
100
AcDbVisualStyle
  2
Conceptual
 70
     9
 71
     3
 72
     2
 73
     0
 90
        0
 40
-0.6
 41
-30.0
 62
     5
 63
     7
 74
     2
 91
        2
 64
     7
 65
   257
 75
     1
175
     1
 42
40.0
 92
        8
 66
     7
 43
1.0
 76
     1
 77
     6
 78
     2
 67
     7
 79
     3
170
     0
171
     0
290
     0
174
     0
 93
        1
 44
0.0
173
     0
291
     0
 45
0.0
1001
ACAD
1000
AcDbSavedByObjectVersion
1070
     0
  0
VISUALSTYLE
  5
35
102
{ACAD_REACTORS
330
2A
102
}
330
2A
100
AcDbVisualStyle
  2
Dim
 70
    11
 71
     2
 72
     2
 73
     0
 90
        0
 40
-0.6
 41
-30.0
 62
     5
 63
     7
 74
     1
 91
        4
 64
     7
 65
   257
 75
     1
175
     1
 42
1.0
 92
        8
 66
     7
 43
1.0
 76
     1
 77
     6
 78
     2
 67
     7
 79
     5
170
     0
171
     0
290
     0
174
     0
 93
        1
 44
-50.0
173
     0
291
     1
 45
0.0
1001
ACAD
1000
AcDbSavedByObjectVersion
1070
     0
  0
VISUALSTYLE
  5
39
102
{ACAD_REACTORS
330
2A
102
}
330
2A
100
AcDbVisualStyle
  2
Facepattern
 70
    15
 71
     2
 72
     2
 73
     0
 90
        0
 40
-0.6
 41
-30.0
 62
     5
 63
     7
 74
     1
 91
        4
 64
     7
 65
   257
 75
     1
175
     1
 42
1.0
 92
        8
 66
     7
 43
1.0
 76
     1
 77
     6
 78
     2
 67
     7
 79
     5
170
     0
171
     0
290
     0
174
     0
 93
        1
 44
0.0
173
     0
291
     1
 45
0.0
1001
ACAD
1000
AcDbSavedByObjectVersion
1070
     0
  0
VISUALSTYLE
  5
2B
102
{ACAD_REACTORS
330
2A
102
}
330
2A
100
AcDbVisualStyle
  2
Flat
 70
     0
 71
     2
 72
     1
 73
     1
 90
        2
 40
-0.6
 41
30.0
 62
     5
 63
     7
 74
     0
 91
        4
 64
     7
 65
   257
 75
     1
175
     1
 42
1.0
 92
        8
 66
     7
 43
1.0
 76
     1
 77
     6
 78
     2
 67
     7
 79
     5
170
     0
171
     0
290
     0
174
     0
 93
       13
 44
0.0
173
     0
291
     1
 45
0.0
1001
ACAD
1000
AcDbSavedByObjectVersion
1070
     0
  0
VISUALSTYLE
  5
2C
102
{ACAD_REACTORS
330
2A
102
}
330
2A
100
AcDbVisualStyle
  2
FlatWithEdges
 70
     1
 71
     2
 72
     1
 73
     1
 90
        2
 40
-0.6
 41
30.0
 62
     5
 63
     7
 74
     1
 91
        4
 64
     7
 65
   257
 75
     1
175
     1
 42
1.0
 92
        0
 66
   257
 43
1.0
 76
     1
 77
     6
 78
     2
 67
     7
 79
     5
170
     0
171
     0
290
     0
174
     0
 93
       13
 44
0.0
173
     0
291
     1
 45
0.0
1001
ACAD
1000
AcDbSavedByObjectVersion
1070
     0
  0
VISUALSTYLE
  5
2D
102
{ACAD_REACTORS
330
2A
102
}
330
2A
100
AcDbVisualStyle
  2
Gouraud
 70
     2
 71
     2
 72
     2
 73
     1
 90
        2
 40
-0.6
 41
30.0
 62
     5
 63
     7
 74
     0
 91
        4
 64
     7
 65
   257
 75
     1
175
     1
 42
1.0
 92
        0
 66
     7
 43
1.0
 76
     1
 77
     6
 78
     2
 67
     7
 79
     5
170
     0
171
     0
290
     0
174
     0
 93
       13
 44
0.0
173
     0
291
     1
 45
0.0
1001
ACAD
1000
AcDbSavedByObjectVersion
1070
     0
  0
VISUALSTYLE
  5
2E
102
{ACAD_REACTORS
330
2A
102
}
330
2A
100
AcDbVisualStyle
  2
GouraudWithEdges
 70
     3
 71
     2
 72
     2
 73
     1
 90
        2
 40
-0.6
 41
30.0
 62
     5
 63
     7
 74
     1
 91
        4
 64
     7
 65
   257
 75
     1
175
     1
 42
1.0
 92
        0
 66
   257
 43
1.0
 76
     1
 77
     6
 78
     2
 67
     7
 79
     5
170
     0
171
     0
290
     0
174
     0
 93
       13
 44
0.0
173
     0
291
     1
 45
0.0
1001
ACAD
1000
AcDbSavedByObjectVersion
1070
     0
  0
VISUALSTYLE
  5
38
102
{ACAD_REACTORS
330
2A
102
}
330
2A
100
AcDbVisualStyle
  2
Linepattern
 70
    14
 71
     2
 72
     2
 73
     0
 90
        0
 40
-0.6
 41
-30.0
 62
     5
 63
     7
 74
     1
 91
        4
 64
     7
 65
   257
 75
     7
175
     7
 42
1.0
 92
        8
 66
     7
 43
1.0
 76
     1
 77
     6
 78
     2
 67
     7
 79
     5
170
     0
171
     0
290
     0
174
     0
 93
        1
 44
0.0
173
     0
291
     1
 45
0.0
1001
ACAD
1000
AcDbSavedByObjectVersion
1070
     0
  0
VISUALSTYLE
  5
33
102
{ACAD_REACTORS
330
2A
102
}
330
2A
100
AcDbVisualStyle
  2
Realistic
 70
     8
 71
     2
 72
     2
 73
     0
 90
        0
 40
-0.6
 41
-30.0
 62
     5
 63
     7
 74
     1
 91
        0
 64
     7
 65
   257
 75
     1
175
     1
 42
1.0
 92
        8
 66
     8
 43
1.0
 76
     1
 77
     6
 78
     2
 67
     7
 79
     5
170
     0
171
     0
290
     0
174
     0
 93
       13
 44
0.0
173
     0
291
     0
 45
0.0
1001
ACAD
1000
AcDbSavedByObjectVersion
1070
     0
  0
VISUALSTYLE
  5
37
102
{ACAD_REACTORS
330
2A
102
}
330
2A
100
AcDbVisualStyle
  2
Thicken
 70
    13
 71
     2
 72
     2
 73
     0
 90
        0
 40
-0.6
 41
-30.0
 62
     5
 63
     7
 74
     1
 91
        4
 64
     7
 65
   257
 75
     1
175
     1
 42
1.0
 92
       12
 66
     7
 43
1.0
 76
     1
 77
     6
 78
     2
 67
     7
 79
     5
170
     0
171
     0
290
     0
174
     0
 93
        1
 44
0.0
173
     0
291
     1
 45
0.0
1001
ACAD
1000
AcDbSavedByObjectVersion
1070
     0
  0
DICTIONARYVAR
  5
40F
102
{ACAD_REACTORS
330
40E
102
}
330
40E
100
DictionaryVariables
280
     0
  1
1:1
  0
DICTIONARYVAR
  5
413
102
{ACAD_REACTORS
330
40E
102
}
330
40E
100
DictionaryVariables
280
     0
  1
80.000000
  0
DICTIONARYVAR
  5
412
102
{ACAD_REACTORS
330
40E
102
}
330
40E
100
DictionaryVariables
280
     0
  1
5.000000
  0
ENDSEC
  0
EOF
