  0
SECTION
  2
HEADER
  9
$ACADVER
  1
AC1024
  9
$ACADMAINTVER
 70
   226
  9
$DWGCODEPAGE
  3
ANSI_1252
  9
$LASTSAVEDBY
  1
micha
  9
$INSBASE
 10
0.0
 20
0.0
 30
0.0
  9
$EXTMIN
 10
-23.9999998349297
 20
-1.999999970357534
 30
0.0
  9
$EXTMAX
 10
120.2110552588047
 20
103.40625
 30
0.0
  9
$LIMMIN
 10
0.0
 20
0.0
  9
$LIMMAX
 10
12.0
 20
9.0
  9
$ORTHOMODE
 70
     0
  9
$REGENMODE
 70
     1
  9
$FILLMODE
 70
     1
  9
$QTEXTMODE
 70
     0
  9
$MIRRTEXT
 70
     0
  9
$LTSCALE
 40
1.0
  9
$ATTMODE
 70
     1
  9
$TEXTSIZE
 40
0.2
  9
$TRACEWID
 40
0.05
  9
$TEXTSTYLE
  7
Standard
  9
$CLAYER
  8
0
  9
$CELTYPE
  6
ByLayer
  9
$CECOLOR
 62
   256
  9
$CELTSCALE
 40
1.0
  9
$DISPSILH
 70
     0
  9
$DIMSCALE
 40
1.0
  9
$DIMASZ
 40
0.18
  9
$DIMEXO
 40
0.0625
  9
$DIMDLI
 40
0.38
  9
$DIMRND
 40
0.0
  9
$DIMDLE
 40
0.0
  9
$DIMEXE
 40
0.18
  9
$DIMTP
 40
0.0
  9
$DIMTM
 40
0.0
  9
$DIMTXT
 40
0.18
  9
$DIMCEN
 40
0.09
  9
$DIMTSZ
 40
0.0
  9
$DIMTOL
 70
     0
  9
$DIMLIM
 70
     0
  9
$DIMTIH
 70
     1
  9
$DIMTOH
 70
     1
  9
$DIMSE1
 70
     0
  9
$DIMSE2
 70
     0
  9
$DIMTAD
 70
     0
  9
$DIMZIN
 70
     0
  9
$DIMBLK
  1

  9
$DIMASO
 70
     1
  9
$DIMSHO
 70
     1
  9
$DIMPOST
  1

  9
$DIMAPOST
  1

  9
$DIMALT
 70
     0
  9
$DIMALTD
 70
     2
  9
$DIMALTF
 40
25.4
  9
$DIMLFAC
 40
1.0
  9
$DIMTOFL
 70
     0
  9
$DIMTVP
 40
0.0
  9
$DIMTIX
 70
     0
  9
$DIMSOXD
 70
     0
  9
$DIMSAH
 70
     0
  9
$DIMBLK1
  1

  9
$DIMBLK2
  1

  9
$DIMSTYLE
  2
Standard
  9
$DIMCLRD
 70
     0
  9
$DIMCLRE
 70
     0
  9
$DIMCLRT
 70
     0
  9
$DIMTFAC
 40
1.0
  9
$DIMGAP
 40
0.09
  9
$DIMJUST
 70
     0
  9
$DIMSD1
 70
     0
  9
$DIMSD2
 70
     0
  9
$DIMTOLJ
 70
     1
  9
$DIMTZIN
 70
     0
  9
$DIMALTZ
 70
     0
  9
$DIMALTTZ
 70
     0
  9
$DIMUPT
 70
     0
  9
$DIMDEC
 70
     4
  9
$DIMTDEC
 70
     4
  9
$DIMALTU
 70
     4
  9
$DIMALTTD
 70
     2
  9
$DIMTXSTY
  7
Standard
  9
$DIMAUNIT
 70
     0
  9
$DIMADEC
 70
     0
  9
$DIMALTRND
 40
0.0
  9
$DIMAZIN
 70
     0
  9
$DIMDSEP
 70
    46
  9
$DIMATFIT
 70
     3
  9
$DIMFRAC
 70
     0
  9
$DIMLDRBLK
  1

  9
$DIMLUNIT
 70
     4
  9
$DIMLWD
 70
    -2
  9
$DIMLWE
 70
    -2
  9
$DIMTMOVE
 70
     0
  9
$DIMFXL
 40
1.0
  9
$DIMFXLON
 70
     0
  9
$DIMJOGANG
 40
0.7853981633974483
  9
$DIMTFILL
 70
     0
  9
$DIMTFILLCLR
 70
     0
  9
$DIMARCSYM
 70
     0
  9
$DIMLTYPE
  6

  9
$DIMLTEX1
  6

  9
$DIMLTEX2
  6

  9
$DIMTXTDIRECTION
 70
     0
  9
$LUNITS
 70
     4
  9
$LUPREC
 70
     4
  9
$SKETCHINC
 40
0.1
  9
$FILLETRAD
 40
0.0
  9
$AUNITS
 70
     0
  9
$AUPREC
 70
     0
  9
$MENU
  1
.
  9
$ELEVATION
 40
0.0
  9
$PELEVATION
 40
0.0
  9
$THICKNESS
 40
0.0
  9
$LIMCHECK
 70
     0
  9
$CHAMFERA
 40
0.0
  9
$CHAMFERB
 40
0.0
  9
$CHAMFERC
 40
0.0
  9
$CHAMFERD
 40
0.0
  9
$SKPOLY
 70
     0
  9
$TDCREATE
 40
2459236.400127315
  9
$TDUCREATE
 40
2459236.608460648
  9
$TDUPDATE
 40
2459236.406909723
  9
$TDUUPDATE
 40
2459236.615243055
  9
$TDINDWG
 40
0.0065277778
  9
$TDUSRTIMER
 40
0.0065277778
  9
$USRTIMER
 70
     1
  9
$ANGBASE
 50
0.0
  9
$ANGDIR
 70
     0
  9
$PDMODE
 70
     0
  9
$PDSIZE
 40
0.0
  9
$PLINEWID
 40
0.0
  9
$SPLFRAME
 70
     0
  9
$SPLINETYPE
 70
     6
  9
$SPLINESEGS
 70
     8
  9
$HANDSEED
  5
21A
  9
$SURFTAB1
 70
     6
  9
$SURFTAB2
 70
     6
  9
$SURFTYPE
 70
     6
  9
$SURFU
 70
     6
  9
$SURFV
 70
     6
  9
$UCSBASE
  2

  9
$UCSNAME
  2

  9
$UCSORG
 10
0.0
 20
0.0
 30
0.0
  9
$UCSXDIR
 10
1.0
 20
0.0
 30
0.0
  9
$UCSYDIR
 10
0.0
 20
1.0
 30
0.0
  9
$UCSORTHOREF
  2

  9
$UCSORTHOVIEW
 70
     0
  9
$UCSORGTOP
 10
0.0
 20
0.0
 30
0.0
  9
$UCSORGBOTTOM
 10
0.0
 20
0.0
 30
0.0
  9
$UCSORGLEFT
 10
0.0
 20
0.0
 30
0.0
  9
$UCSORGRIGHT
 10
0.0
 20
0.0
 30
0.0
  9
$UCSORGFRONT
 10
0.0
 20
0.0
 30
0.0
  9
$UCSORGBACK
 10
0.0
 20
0.0
 30
0.0
  9
$PUCSBASE
  2

  9
$PUCSNAME
  2

  9
$PUCSORG
 10
0.0
 20
0.0
 30
0.0
  9
$PUCSXDIR
 10
1.0
 20
0.0
 30
0.0
  9
$PUCSYDIR
 10
0.0
 20
1.0
 30
0.0
  9
$PUCSORTHOREF
  2

  9
$PUCSORTHOVIEW
 70
     0
  9
$PUCSORGTOP
 10
0.0
 20
0.0
 30
0.0
  9
$PUCSORGBOTTOM
 10
0.0
 20
0.0
 30
0.0
  9
$PUCSORGLEFT
 10
0.0
 20
0.0
 30
0.0
  9
$PUCSORGRIGHT
 10
0.0
 20
0.0
 30
0.0
  9
$PUCSORGFRONT
 10
0.0
 20
0.0
 30
0.0
  9
$PUCSORGBACK
 10
0.0
 20
0.0
 30
0.0
  9
$USERI1
 70
     0
  9
$USERI2
 70
     0
  9
$USERI3
 70
     0
  9
$USERI4
 70
     0
  9
$USERI5
 70
     0
  9
$USERR1
 40
0.0
  9
$USERR2
 40
0.0
  9
$USERR3
 40
0.0
  9
$USERR4
 40
0.0
  9
$USERR5
 40
0.0
  9
$WORLDVIEW
 70
     1
  9
$SHADEDGE
 70
     3
  9
$SHADEDIF
 70
    70
  9
$TILEMODE
 70
     1
  9
$MAXACTVP
 70
    64
  9
$PINSBASE
 10
0.0
 20
0.0
 30
0.0
  9
$PLIMCHECK
 70
     0
  9
$PEXTMIN
 10
1.000000000000000E+20
 20
1.000000000000000E+20
 30
1.000000000000000E+20
  9
$PEXTMAX
 10
-1.000000000000000E+20
 20
-1.000000000000000E+20
 30
-1.000000000000000E+20
  9
$PLIMMIN
 10
0.0
 20
0.0
  9
$PLIMMAX
 10
12.0
 20
9.0
  9
$UNITMODE
 70
     0
  9
$VISRETAIN
 70
     1
  9
$PLINEGEN
 70
     0
  9
$PSLTSCALE
 70
     1
  9
$TREEDEPTH
 70
  3020
  9
$CMLSTYLE
  2
Standard
  9
$CMLJUST
 70
     0
  9
$CMLSCALE
 40
1.0
  9
$PROXYGRAPHICS
 70
     1
  9
$MEASUREMENT
 70
     0
  9
$CELWEIGHT
370
    -1
  9
$ENDCAPS
280
     0
  9
$JOINSTYLE
280
     0
  9
$LWDISPLAY
290
     0
  9
$INSUNITS
 70
     1
  9
$HYPERLINKBASE
  1

  9
$STYLESHEET
  1

  9
$XEDIT
290
     1
  9
$CEPSNTYPE
380
     0
  9
$PSTYLEMODE
290
     1
  9
$FINGERPRINTGUID
  2
{EDFD2B6C-261E-BA4E-8722-DDEE61666E77}
  9
$VERSIONGUID
  2
{6510BB3E-B8C4-B446-80F6-1662C3760ED1}
  9
$EXTNAMES
290
     1
  9
$PSVPSCALE
 40
0.0
  9
$OLESTARTUP
290
     0
  9
$SORTENTS
280
   127
  9
$INDEXCTL
280
     0
  9
$HIDETEXT
280
     1
  9
$XCLIPFRAME
280
     2
  9
$HALOGAP
280
     0
  9
$OBSCOLOR
 70
   257
  9
$OBSLTYPE
280
     0
  9
$INTERSECTIONDISPLAY
280
     0
  9
$INTERSECTIONCOLOR
 70
   257
  9
$DIMASSOC
280
     2
  9
$PROJECTNAME
  1

  9
$CAMERADISPLAY
290
     0
  9
$LENSLENGTH
 40
50.0
  9
$CAMERAHEIGHT
 40
0.0
  9
$STEPSPERSEC
 40
2.0
  9
$STEPSIZE
 40
6.0
  9
$3DDWFPREC
 40
2.0
  9
$PSOLWIDTH
 40
0.25
  9
$PSOLHEIGHT
 40
4.0
  9
$LOFTANG1
 40
1.570796326794896
  9
$LOFTANG2
 40
1.570796326794896
  9
$LOFTMAG1
 40
0.0
  9
$LOFTMAG2
 40
0.0
  9
$LOFTPARAM
 70
     7
  9
$LOFTNORMALS
280
     1
  9
$LATITUDE
 40
0.0
  9
$LONGITUDE
 40
0.0
  9
$NORTHDIRECTION
 40
0.0
  9
$TIMEZONE
 70
     0
  9
$LIGHTGLYPHDISPLAY
280
     1
  9
$TILEMODELIGHTSYNCH
280
     1
  9
$CMATERIAL
347
11
  9
$SOLIDHIST
280
     0
  9
$SHOWHIST
280
     1
  9
$DWFFRAME
280
     2
  9
$DGNFRAME
280
     0
  9
$REALWORLDSCALE
290
     1
  9
$INTERFERECOLOR
 62
     1
  9
$INTERFEREOBJVS
345
33
  9
$INTERFEREVPVS
346
30
  9
$CSHADOW
280
     0
  9
$SHADOWPLANELOCATION
 40
0.0
  0
ENDSEC
  0
SECTION
  2
CLASSES
  0
CLASS
  1
ACDBDICTIONARYWDFLT
  2
AcDbDictionaryWithDefault
  3
ObjectDBX Classes
 90
        0
 91
        1
280
     0
281
     0
  0
CLASS
  1
MATERIAL
  2
AcDbMaterial
  3
ObjectDBX Classes
 90
     1153
 91
        3
280
     0
281
     0
  0
CLASS
  1
VISUALSTYLE
  2
AcDbVisualStyle
  3
ObjectDBX Classes
 90
     4095
 91
       24
280
     0
281
     0
  0
CLASS
  1
SCALE
  2
AcDbScale
  3
ObjectDBX Classes
 90
     1153
 91
       17
280
     0
281
     0
  0
CLASS
  1
TABLESTYLE
  2
AcDbTableStyle
  3
ObjectDBX Classes
 90
     4095
 91
        1
280
     0
281
     0
  0
CLASS
  1
MLEADERSTYLE
  2
AcDbMLeaderStyle
  3
ACDB_MLEADERSTYLE_CLASS
 90
     4095
 91
        1
280
     0
281
     0
  0
CLASS
  1
ACDBSECTIONVIEWSTYLE
  2
AcDbSectionViewStyle
  3
ObjectDBX Classes
 90
     1025
 91
        1
280
     0
281
     0
  0
CLASS
  1
ACDBDETAILVIEWSTYLE
  2
AcDbDetailViewStyle
  3
ObjectDBX Classes
 90
     1025
 91
        1
280
     0
281
     0
  0
CLASS
  1
RASTERVARIABLES
  2
AcDbRasterVariables
  3
ISM
 90
        0
 91
        1
280
     0
281
     0
  0
CLASS
  1
DICTIONARYVAR
  2
AcDbDictionaryVar
  3
ObjectDBX Classes
 90
        0
 91
        5
280
     0
281
     0
  0
CLASS
  1
SORTENTSTABLE
  2
AcDbSortentsTable
  3
ObjectDBX Classes
 90
        0
 91
        3
280
     0
281
     0
  0
CLASS
  1
CELLSTYLEMAP
  2
AcDbCellStyleMap
  3
ObjectDBX Classes
 90
     1152
 91
        1
280
     0
281
     0
  0
ENDSEC
  0
SECTION
  2
TABLES
  0
TABLE
  2
VPORT
  5
8
330
0
100
AcDbSymbolTable
 70
     1
  0
VPORT
  5
57
330
8
100
AcDbSymbolTableRecord
100
AcDbViewportTableRecord
  2
*Active
 70
     0
 10
0.0
 20
0.0
 11
1.0
 21
1.0
 12
-3.543528976755396
 22
3.093794232033836
 13
0.0
 23
0.0
 14
1.0
 24
1.0
 15
0.0
 25
0.0
 16
0.0
 26
0.0
 36
1.0
 17
0.0
 27
0.0
 37
0.0
 40
40.61242444441681
 41
2.292712066905615
 42
50.0
 43
0.0
 44
0.0
 50
0.0
 51
0.0
 71
     0
 72
  1000
 73
     1
 74
     0
 75
     0
 76
     0
 77
     0
 78
     0
281
     0
 65
     1
110
0.0
120
0.0
130
0.0
111
1.0
121
0.0
131
0.0
112
0.0
122
1.0
132
0.0
 79
     0
146
0.0
348
2F
 60
     3
 61
     5
292
     1
282
     1
141
0.0
142
0.0
 63
   250
421
  3355443
1001
ACAD_NAV_VCDISPLAY
1070
     3
  0
ENDTAB
  0
TABLE
  2
LTYPE
  5
5
330
0
100
AcDbSymbolTable
 70
     2
  0
LTYPE
  5
5B
330
5
100
AcDbSymbolTableRecord
100
AcDbLinetypeTableRecord
  2
ByBlock
 70
     0
  3

 72
    65
 73
     0
 40
0.0
  0
LTYPE
  5
5C
330
5
100
AcDbSymbolTableRecord
100
AcDbLinetypeTableRecord
  2
ByLayer
 70
     0
  3

 72
    65
 73
     0
 40
0.0
  0
LTYPE
  5
5D
330
5
100
AcDbSymbolTableRecord
100
AcDbLinetypeTableRecord
  2
Continuous
 70
     0
  3
Solid line
 72
    65
 73
     0
 40
0.0
  0
ENDTAB
  0
TABLE
  2
LAYER
  5
2
330
0
100
AcDbSymbolTable
 70
     3
  0
LAYER
  5
54
330
2
100
AcDbSymbolTableRecord
100
AcDbLayerTableRecord
  2
0
 70
     0
 62
     7
  6
Continuous
370
    -3
390
F
347
21
  0
LAYER
  5
81
330
2
100
AcDbSymbolTableRecord
100
AcDbLayerTableRecord
  2
A-DETL-MBND
 70
     0
 62
     5
  6
Continuous
370
     9
390
F
347
21
  0
LAYER
  5
86
330
2
100
AcDbSymbolTableRecord
100
AcDbLayerTableRecord
  2
P-SANR-FIXT
 70
     0
 62
     6
  6
Continuous
370
     9
390
F
347
21
  0
ENDTAB
  0
TABLE
  2
STYLE
  5
3
330
0
100
AcDbSymbolTable
 70
     2
  0
STYLE
  5
55
330
3
100
AcDbSymbolTableRecord
100
AcDbTextStyleTableRecord
  2
Standard
 70
     0
 40
0.0
 41
1.0
 50
0.0
 71
     0
 42
0.2
  3
txt
  4

  0
STYLE
  5
5A
330
3
100
AcDbSymbolTableRecord
100
AcDbTextStyleTableRecord
  2
Annotative
 70
     0
 40
0.0
 41
1.0
 50
0.0
 71
     0
 42
0.2
  3
txt
  4

1001
AcadAnnotative
1000
AnnotativeData
1002
{
1070
     1
1070
     1
1002
}
  0
ENDTAB
  0
TABLE
  2
VIEW
  5
6
330
0
100
AcDbSymbolTable
 70
     0
  0
ENDTAB
  0
TABLE
  2
UCS
  5
7
330
0
100
AcDbSymbolTable
 70
     0
  0
ENDTAB
  0
TABLE
  2
APPID
  5
9
330
0
100
AcDbSymbolTable
 70
     5
  0
APPID
  5
56
330
9
100
AcDbSymbolTableRecord
100
AcDbRegAppTableRecord
  2
ACAD
 70
     0
  0
APPID
  5
5E
330
9
100
AcDbSymbolTableRecord
100
AcDbRegAppTableRecord
  2
AcadAnnotative
 70
     0
  0
APPID
  5
78
330
9
100
AcDbSymbolTableRecord
100
AcDbRegAppTableRecord
  2
REVIT
 70
     0
  0
APPID
  5
CE
330
9
100
AcDbSymbolTableRecord
100
AcDbRegAppTableRecord
  2
ACAD_NAV_VCDISPLAY
 70
     0
  0
APPID
  5
102
330
9
100
AcDbSymbolTableRecord
100
AcDbRegAppTableRecord
  2
ACAD_EXEMPT_FROM_CAD_STANDARDS
 70
     0
  0
ENDTAB
  0
TABLE
  2
DIMSTYLE
  5
A
330
0
100
AcDbSymbolTable
 70
     3
100
AcDbDimStyleTable
 71
     1
340
58
  0
DIMSTYLE
105
58
330
A
100
AcDbSymbolTableRecord
100
AcDbDimStyleTableRecord
  2
Standard
 70
     0
340
55
  0
DIMSTYLE
105
59
330
A
100
AcDbSymbolTableRecord
100
AcDbDimStyleTableRecord
  2
Annotative
 70
     0
340
55
1001
AcadAnnotative
1000
AnnotativeData
1002
{
1070
     1
1070
     1
1002
}
  0
ENDTAB
  0
TABLE
  2
BLOCK_RECORD
  5
1
330
0
100
AcDbSymbolTable
 70
    10
  0
BLOCK_RECORD
  5
70
102
{ACAD_XDICTIONARY
360
A0
102
}
330
1
100
AcDbSymbolTableRecord
100
AcDbBlockTableRecord
  2
*Model_Space
340
73
 70
     0
280
     1
281
     0
  0
BLOCK_RECORD
  5
6C
330
1
100
AcDbSymbolTableRecord
100
AcDbBlockTableRecord
  2
*Paper_Space
340
6F
 70
     0
280
     1
281
     0
  0
BLOCK_RECORD
  5
74
330
1
100
AcDbSymbolTableRecord
100
AcDbBlockTableRecord
  2
*Paper_Space0
340
77
 70
     0
280
     1
281
     0
  0
BLOCK_RECORD
  5
82
330
1
100
AcDbSymbolTableRecord
100
AcDbBlockTableRecord
  2
FamilyGeomCombination_15519-Ref_ Level
340
0
 70
     0
280
     1
281
     0
  0
BLOCK_RECORD
  5
AC
330
1
100
AcDbSymbolTableRecord
100
AcDbBlockTableRecord
  2
FamilyGeomCombination_15519-Left
340
0
102
{BLKREFS
102
}
 70
     0
280
     1
281
     0
  0
BLOCK_RECORD
  5
D7
330
1
100
AcDbSymbolTableRecord
100
AcDbBlockTableRecord
  2
FamilyGeomCombination_15519-Back
340
0
102
{BLKREFS
102
}
 70
     0
280
     1
281
     0
  0
BLOCK_RECORD
  5
165
330
1
100
AcDbSymbolTableRecord
100
AcDbBlockTableRecord
  2
Tub_Filler-DXV-Oak_Hill-D35155760_Series - Left View
340
0
310
2800000020000000200000000100200000000000001000000100000001000000000000000000000000000000302821FF302821FF302821FF302821FF302821FF302821FF302821FF302821FF302821FF302821FF302821FF302821FF302821FF302821FF302821FF302821FF302821FF302821FF302821FF302821FF302821
310
FF302821FF302821FF302821FF302821FF302821FF302821FF302821FF302821FF302821FF302821FF302821FF302821FF302821FF302821FF302821FF302821FF302821FF302821FF302821FF302821FF302821FF302821FF302821FF302821FF302821FF302821FF302821FF302821FF302821FF302821FF302821FF3028
310
21FF302821FF302821FF302821FF302821FF302821FF302821FF302821FF302821FF302821FF302821FF302821FF302821FF302821FF302821FF302821FF302821FF302821FF302821FF302821FF302821FF302821FF302821FF302821FF302821FF302821FF302821FF302821FF302821FF302821FF302821FF302821FF30
310
2821FF302821FF302821FF302821FF302821FF302821FF302821FF302821FF302821FF302821FF302821FF302821FF302821FF302821FF302821FF302821FF302821FF302821FF302821FF302821FF302821FF302821FF302821FF302821FF302821FF302821FF302821FF302821FF302821FF302821FF302821FF302821FF
310
302821FF302821FF302821FF302821FF302821FF302821FF302821FF302821FF302821FF302821FF302821FF302821FF302821FF302821FF302821FF302821FF302821FF302821FF302821FF302821FF302821FF302821FF302821FF302821FF302821FF302821FF302821FF302821FF302821FF302821FF302821FF302821
310
FF302821FF302821FF302821FF302821FF302821FF302821FF302821FF302821FF302821FF302821FF302821FF302821FF302821FF302821FF302821FF302821FF302821FF302821FF302821FF302821FF302821FF302821FF302821FF302821FF302821FF302821FF302821FF302821FF302821FF302821FF302821FF3028
310
21FF302821FF302821FF302821FF302821FF302821FF302821FF302821FF302821FF302821FF302821FF302821FF302821FF302821FF302821FF302821FF302821FF302821FF302821FF302821FF302821FF302821FF302821FF302821FF302821FF302821FF302821FF302821FF302821FF302821FF302821FF302821FF30
310
2821FF302821FF302821FF302821FF302821FF302821FF302821FF302821FF302821FF302821FF302821FF302821FF302821FF302821FF302821FF302821FF302821FF302821FF302821FF302821FF302821FF302821FF302821FF302821FF302821FF302821FF302821FF302821FF302821FF302821FF302821FF302821FF
310
302821FF302821FF302821FF302821FF302821FF302821FF302821FF302821FF302821FF302821FF302821FF302821FF302821FF302821FF302821FF302821FF302821FF302821FF302821FF302821FF302821FF302821FF302821FF302821FF302821FF302821FF302821FF302821FF302821FF302821FF302821FF302821
310
FF302821FF302821FF302821FF302821FF302821FF302821FF302821FF302821FF302821FF302821FF302821FF302821FF302821FF302821FF302821FF302821FF302821FF302821FF302821FF302821FF302821FF302821FF302821FF302821FF302821FF302821FF302821FF302821FF302821FF302821FF302821FF3028
310
21FF302821FF302821FF302821FFFFFFFFFFFFFFFFFFFFFFFFFFFFFFFFFFFFFFFFFFFFFFFFFFFFFFFFFFFFFFFFFFFFFFFFFF302821FF302821FFFFFFFFFFFFFFFFFFFFFFFFFF302821FF302821FF302821FF302821FF302821FF302821FF302821FF302821FF302821FF302821FF302821FF302821FF302821FF302821FF30
310
2821FF302821FF302821FF302821FFFFFFFFFF302821FF302821FF302821FF302821FF302821FF302821FF302821FFFFFFFFFF302821FF302821FFFFFFFFFFFFFFFFFFFFFFFFFF302821FF302821FF302821FF302821FF302821FF302821FF302821FF302821FF302821FF302821FF302821FF302821FF302821FF302821FF
310
302821FF302821FF302821FFFFFFFFFF302821FF302821FF302821FF302821FF302821FF302821FF302821FFFFFFFFFF302821FF302821FF302821FFFFFFFFFFFFFFFFFFFFFFFFFFFFFFFFFFFFFFFFFF302821FF302821FF302821FF302821FF302821FF302821FF302821FF302821FF302821FF302821FF302821FF302821
310
FF302821FF302821FFFFFFFFFFFFFFFFFF302821FF302821FF302821FF302821FF302821FF302821FF302821FFFFFFFFFF302821FF302821FF302821FFFFFFFFFFFFFFFFFFFFFFFFFF302821FFFFFFFFFFFFFFFFFFFFFFFFFFFFFFFFFFFFFFFFFFFFFFFFFFFFFFFFFFFFFFFFFFFFFFFFFFFFFFFFFFFFFFFFFFFFFFFFFFFFFF
310
FFFFFFFFFFFFFFFFFFFFFFFFFFFF302821FF302821FF302821FF302821FF302821FF302821FF302821FF302821FFFFFFFFFF302821FF302821FF302821FFFFFFFFFFFFFFFFFFFFFFFFFF302821FF302821FF302821FF302821FF302821FF302821FF302821FF302821FF302821FF302821FF302821FF302821FF302821FF30
310
2821FF302821FF302821FF302821FF302821FF302821FF302821FF302821FF302821FF302821FF302821FFFFFFFFFF302821FF302821FF302821FF302821FFFFFFFFFFFFFFFFFFFFFFFFFF302821FF302821FF302821FF302821FF302821FF302821FF302821FF302821FF302821FF302821FF302821FF302821FF302821FF
310
302821FF302821FF302821FF302821FF302821FF302821FF302821FF302821FF302821FF302821FF302821FFFFFFFFFF302821FF302821FF302821FF302821FFFFFFFFFFFFFFFFFFFFFFFFFF302821FF302821FF302821FF302821FF302821FF302821FF302821FF302821FF302821FF302821FF302821FF302821FF302821
310
FF302821FF302821FF302821FF302821FF302821FF302821FF302821FF302821FF302821FF302821FFFFFFFFFF302821FF302821FF302821FF302821FF302821FFFFFFFFFFFFFFFFFFFFFFFFFF302821FF302821FF302821FF302821FF302821FF302821FF302821FF302821FF302821FF302821FF302821FF302821FF3028
310
21FF302821FF302821FF302821FF302821FF302821FF302821FF302821FF302821FFFFFFFFFFFFFFFFFF302821FF302821FF302821FF302821FF302821FF302821FFFFFFFFFFFFFFFFFFFFFFFFFF302821FF302821FF302821FF302821FF302821FF302821FF302821FF302821FF302821FF302821FF302821FF302821FF30
310
2821FF302821FF302821FF302821FF302821FF302821FFFFFFFFFFFFFFFFFFFFFFFFFF302821FF302821FF302821FF302821FF302821FF302821FF302821FF302821FFFFFFFFFFFFFFFFFFFFFFFFFFFFFFFFFFFFFFFFFFFFFFFFFFFFFFFFFFFFFFFFFFFFFFFFFFFFFFFFFFFFFFFFFFFFFFFFFFFFFFFFFFFFFFFFFFFFFFFFFF
310
FFFFFFFFFFFFFFFFFFFFFFFFFFFFFFFFFFFFFFFFFFFFFFFF302821FF302821FF302821FF302821FF302821FF302821FF302821FF302821FF302821FF302821FF302821FFFFFFFFFFFFFFFFFFFFFFFFFFFFFFFFFF302821FF302821FF302821FF302821FF302821FF302821FF302821FF302821FF302821FF302821FF302821
310
FF302821FF302821FF302821FF302821FF302821FF302821FF302821FF302821FF302821FF302821FF302821FF302821FF302821FF302821FF302821FF302821FF302821FFFFFFFFFFFFFFFFFFFFFFFFFF302821FF302821FF302821FF302821FF302821FF302821FF302821FF302821FF302821FF302821FF302821FF3028
310
21FF302821FF302821FF302821FF302821FF302821FF302821FF302821FF302821FF302821FF302821FF302821FF302821FF302821FF302821FF302821FF302821FF302821FFFFFFFFFFFFFFFFFF302821FF302821FF302821FF302821FF302821FF302821FF302821FF302821FF302821FF302821FF302821FF302821FF30
310
2821FF302821FF302821FF302821FF302821FF302821FF302821FF302821FF302821FF302821FF302821FF302821FF302821FF302821FF302821FF302821FF302821FF302821FF302821FF302821FF302821FF302821FF302821FF302821FF302821FF302821FF302821FF302821FF302821FF302821FF302821FF302821FF
310
302821FF302821FF302821FF302821FF302821FF302821FF302821FF302821FF302821FF302821FF302821FF302821FF302821FF302821FF302821FF302821FF302821FF302821FF302821FF302821FF302821FF302821FF302821FF302821FF302821FF302821FF302821FF302821FF302821FF302821FF302821FF302821
310
FF302821FF302821FF302821FF302821FF302821FF302821FF302821FF302821FF302821FF302821FF302821FF302821FF302821FF302821FF302821FF302821FF302821FF302821FF302821FF302821FF302821FF302821FF302821FF302821FF302821FF302821FF302821FF302821FF302821FF302821FF302821FF3028
310
21FF302821FF302821FF302821FF302821FF302821FF302821FF302821FF302821FF302821FF302821FF302821FF302821FF302821FF302821FF302821FF302821FF302821FF302821FF302821FF302821FF302821FF302821FF302821FF302821FF302821FF302821FF302821FF302821FF302821FF302821FF302821FF30
310
2821FF302821FF302821FF302821FF302821FF302821FF302821FF302821FF302821FF302821FF302821FF302821FF302821FF302821FF302821FF302821FF302821FF302821FF302821FF302821FF302821FF302821FF302821FF302821FF302821FF302821FF302821FF302821FF302821FF302821FF302821FF302821FF
310
302821FF302821FF302821FF302821FF302821FF302821FF302821FF302821FF302821FF302821FF302821FF302821FF302821FF302821FF302821FF302821FF302821FF302821FF302821FF302821FF302821FF302821FF302821FF302821FF302821FF302821FF302821FF302821FF302821FF302821FF302821FF302821
310
FF302821FF302821FF302821FF302821FF302821FF302821FF302821FF302821FF302821FF302821FF302821FF302821FF302821FF302821FF302821FF302821FF302821FF302821FF302821FF302821FF302821FF302821FF302821FF302821FF302821FF302821FF302821FF302821FF302821FF302821FF302821FF3028
310
21FF302821FF302821FF302821FF302821FF302821FF302821FF302821FF302821FF302821FF302821FF302821FF302821FF302821FF302821FF302821FF302821FF302821FF302821FF302821FF302821FF302821FF302821FF302821FF302821FF302821FF302821FF302821FF302821FF302821FF302821FF302821FF30
310
2821FF302821FF302821FF302821FF302821FF302821FF302821FF302821FF302821FF302821FF302821FF302821FF302821FF302821FF302821FF302821FF302821FF302821FF302821FF302821FF302821FF302821FF302821FF302821FF302821FF302821FF302821FF302821FF302821FF302821FF302821FF302821FF
310
302821FF302821FF302821FF302821FF302821FF302821FF302821FF302821FF302821FF302821FF302821FF302821FF302821FF302821FF302821FF302821FF302821FF302821FF
102
{BLKREFS
331
180
102
}
 70
     1
280
     1
281
     0
  0
BLOCK_RECORD
  5
181
330
1
100
AcDbSymbolTableRecord
100
AcDbBlockTableRecord
  2
Tub_Filler-DXV-Oak_Hill-D35155760_Series - Front View
340
0
310
2800000020000000200000000100200000000000001000000100000001000000000000000000000001000000302821FF302821FF302821FF302821FF302821FF302821FF302821FF302821FF302821FF302821FF302821FF302821FF302821FF302821FF302821FF302821FF302821FF302821FF302821FF302821FF302821
310
FF302821FF302821FF302821FF302821FF302821FF302821FF302821FF302821FF302821FF302821FF302821FF302821FF302821FF302821FF302821FF302821FF302821FFFFFFFFFFFFFFFFFFFFFFFFFFFFFFFFFFFFFFFFFFFFFFFFFFFFFFFFFFFFFFFFFFFFFFFFFFFFFFFFFFFFFFFFFFFFFFFFFFFFFFFFFFFFFFFFFFFFFF
310
FFFFFFFFFFFFFFFFFFFFFFFFFFFFFFFFFFFFFFFFFFFF302821FF302821FF302821FF302821FF302821FF302821FF302821FF302821FF302821FF302821FF302821FF302821FFFFFFFFFF302821FF302821FF302821FF302821FF302821FF302821FF302821FF302821FF302821FF302821FF302821FF302821FF302821FF30
310
2821FF302821FF302821FF302821FF302821FFFFFFFFFF302821FF302821FF302821FF302821FF302821FF302821FF302821FF302821FF302821FF302821FF302821FF302821FF302821FFFFFFFFFF302821FF302821FF302821FF302821FF302821FF302821FF302821FF302821FF302821FF302821FF302821FF302821FF
310
302821FF302821FF302821FF302821FF302821FFFFFFFFFF302821FF302821FF302821FF302821FF302821FF302821FF302821FF302821FF302821FF302821FF302821FF302821FF302821FFFFFFFFFF302821FF302821FF302821FF302821FF302821FF302821FF302821FF302821FF302821FF302821FF302821FF302821
310
FF302821FF302821FF302821FF302821FFFFFFFFFF302821FF302821FF302821FF302821FF302821FF302821FF302821FF302821FF302821FF302821FF302821FF302821FF302821FF302821FFFFFFFFFF302821FF302821FF302821FF302821FF302821FF302821FF302821FF302821FF302821FF302821FF302821FF3028
310
21FF302821FF302821FF302821FF302821FFFFFFFFFF302821FF302821FF302821FF302821FF302821FF302821FF302821FF302821FF302821FF302821FF302821FF302821FF302821FFFFFFFFFFFFFFFFFF302821FF302821FF302821FF302821FF302821FF302821FF302821FF302821FF302821FF302821FF302821FF30
310
2821FF302821FF302821FF302821FF302821FFFFFFFFFFFFFFFFFF302821FF302821FF302821FF302821FF302821FF302821FF302821FF302821FF302821FF302821FF302821FFFFFFFFFFFFFFFFFFFFFFFFFF302821FF302821FF302821FF302821FF302821FF302821FF302821FF302821FF302821FF302821FF302821FF
310
302821FF302821FF302821FF302821FF302821FFFFFFFFFFFFFFFFFFFFFFFFFF302821FF302821FF302821FF302821FF302821FF302821FF302821FF302821FF302821FF302821FFFFFFFFFF302821FFFFFFFFFF302821FF302821FF302821FF302821FF302821FF302821FF302821FF302821FF302821FF302821FF302821
310
FF302821FF302821FF302821FF302821FF302821FFFFFFFFFF302821FFFFFFFFFFFFFFFFFF302821FF302821FF302821FF302821FF302821FF302821FF302821FF302821FFFFFFFFFFFFFFFFFFFFFFFFFFFFFFFFFF302821FF302821FF302821FF302821FF302821FF302821FF302821FF302821FF302821FF302821FF3028
310
21FF302821FF302821FF302821FF302821FF302821FFFFFFFFFFFFFFFFFFFFFFFFFFFFFFFFFF302821FF302821FF302821FF302821FF302821FF302821FF302821FFFFFFFFFFFFFFFFFF302821FF302821FFFFFFFFFF302821FF302821FF302821FF302821FF302821FF302821FF302821FF302821FF302821FF302821FF30
310
2821FF302821FF302821FF302821FF302821FF302821FFFFFFFFFF302821FF302821FFFFFFFFFFFFFFFFFF302821FF302821FF302821FF302821FF302821FF302821FFFFFFFFFFFFFFFFFF302821FF302821FFFFFFFFFF302821FF302821FF302821FF302821FF302821FF302821FF302821FF302821FF302821FF302821FF
310
302821FF302821FF302821FF302821FF302821FF302821FFFFFFFFFF302821FF302821FFFFFFFFFFFFFFFFFF302821FF302821FF302821FF302821FF302821FFFFFFFFFFFFFFFFFFFFFFFFFF302821FF302821FFFFFFFFFF302821FF302821FF302821FF302821FF302821FF302821FF302821FF302821FF302821FF302821
310
FF302821FF302821FF302821FF302821FF302821FF302821FFFFFFFFFF302821FF302821FFFFFFFFFFFFFFFFFF302821FF302821FF302821FF302821FF302821FFFFFFFFFF302821FFFFFFFFFF302821FF302821FF302821FFFFFFFFFF302821FF302821FF302821FF302821FF302821FF302821FF302821FF302821FF3028
310
21FF302821FF302821FF302821FF302821FF302821FFFFFFFFFF302821FF302821FF302821FFFFFFFFFF302821FFFFFFFFFF302821FF302821FF302821FF302821FFFFFFFFFF302821FFFFFFFFFF302821FF302821FF302821FFFFFFFFFF302821FF302821FF302821FF302821FF302821FF302821FF302821FF302821FF30
310
2821FF302821FF302821FF302821FF302821FF302821FFFFFFFFFF302821FF302821FF302821FFFFFFFFFF302821FFFFFFFFFF302821FF302821FF302821FF302821FFFFFFFFFF302821FFFFFFFFFF302821FF302821FF302821FFFFFFFFFF302821FF302821FF302821FF302821FF302821FF302821FF302821FF302821FF
310
302821FF302821FF302821FF302821FF302821FF302821FFFFFFFFFF302821FF302821FF302821FFFFFFFFFF302821FFFFFFFFFF302821FF302821FF302821FF302821FFFFFFFFFF302821FFFFFFFFFF302821FF302821FF302821FFFFFFFFFF302821FF302821FF302821FF302821FF302821FF302821FF302821FF302821
310
FF302821FF302821FF302821FF302821FF302821FF302821FFFFFFFFFF302821FF302821FF302821FFFFFFFFFF302821FFFFFFFFFF302821FF302821FF302821FF302821FFFFFFFFFF302821FFFFFFFFFF302821FF302821FF302821FF302821FFFFFFFFFF302821FF302821FF302821FF302821FF302821FF302821FF3028
310
21FF302821FF302821FF302821FF302821FF302821FF302821FFFFFFFFFF302821FF302821FF302821FFFFFFFFFF302821FFFFFFFFFF302821FF302821FF302821FF302821FFFFFFFFFF302821FFFFFFFFFF302821FF302821FF302821FF302821FFFFFFFFFF302821FF302821FF302821FF302821FF302821FF302821FF30
310
2821FF302821FF302821FF302821FF302821FF302821FFFFFFFFFF302821FF302821FF302821FF302821FFFFFFFFFF302821FFFFFFFFFF302821FF302821FF302821FF302821FFFFFFFFFF302821FFFFFFFFFF302821FF302821FF302821FF302821FFFFFFFFFF302821FF302821FF302821FF302821FF302821FF302821FF
310
302821FF302821FF302821FF302821FF302821FF302821FFFFFFFFFF302821FF302821FF302821FF302821FFFFFFFFFF302821FFFFFFFFFF302821FF302821FF302821FF302821FF302821FFFFFFFFFFFFFFFFFF302821FF302821FF302821FF302821FF302821FFFFFFFFFF302821FF302821FF302821FF302821FF302821
310
FF302821FF302821FF302821FF302821FF302821FFFFFFFFFF302821FF302821FF302821FF302821FF302821FFFFFFFFFFFFFFFFFFFFFFFFFF302821FF302821FF302821FF302821FF302821FFFFFFFFFFFFFFFFFF302821FF302821FF302821FF302821FF302821FFFFFFFFFFFFFFFFFF302821FF302821FF302821FF3028
310
21FF302821FF302821FF302821FF302821FFFFFFFFFFFFFFFFFF302821FF302821FF302821FF302821FF302821FFFFFFFFFFFFFFFFFF302821FF302821FF302821FF302821FF302821FF302821FFFFFFFFFFFFFFFFFF302821FF302821FF302821FF302821FF302821FF302821FF302821FFFFFFFFFFFFFFFFFF302821FF30
310
2821FF302821FF302821FFFFFFFFFFFFFFFFFF302821FF302821FF302821FF302821FF302821FF302821FF302821FFFFFFFFFFFFFFFFFF302821FF302821FF302821FF302821FF302821FF302821FF302821FFFFFFFFFFFFFFFFFF302821FF302821FF302821FF302821FF302821FF302821FF302821FF302821FFFFFFFFFF
310
FFFFFFFFFFFFFFFFFFFFFFFF302821FF302821FF302821FF302821FF302821FF302821FF302821FF302821FF302821FFFFFFFFFF302821FF302821FF302821FF302821FF302821FF302821FF302821FF302821FFFFFFFFFFFFFFFFFFFFFFFFFFFFFFFFFF302821FF302821FF302821FF302821FF302821FF302821FF302821
310
FF302821FF302821FF302821FF302821FF302821FF302821FF302821FF302821FF302821FF302821FFFFFFFFFFFFFFFFFFFFFFFFFF302821FF302821FF302821FF302821FF302821FF302821FF302821FF302821FF302821FFFFFFFFFFFFFFFFFF302821FFFFFFFFFFFFFFFFFF302821FF302821FF302821FF302821FF3028
310
21FF302821FF302821FF302821FF302821FF302821FF302821FF302821FF302821FFFFFFFFFFFFFFFFFFFFFFFFFFFFFFFFFF302821FF302821FF302821FF302821FF302821FF302821FF302821FF302821FF302821FF302821FF302821FFFFFFFFFFFFFFFFFF302821FF302821FFFFFFFFFFFFFFFFFF302821FF302821FF30
310
2821FF302821FF302821FF302821FF302821FF302821FF302821FFFFFFFFFFFFFFFFFF302821FFFFFFFFFFFFFFFFFF302821FF302821FF302821FF302821FF302821FF302821FF302821FF302821FF302821FF302821FF302821FF302821FF302821FFFFFFFFFFFFFFFFFF302821FF302821FF302821FFFFFFFFFFFFFFFFFF
310
302821FF302821FF302821FF302821FF302821FFFFFFFFFFFFFFFFFF302821FF302821FFFFFFFFFFFFFFFFFF302821FF302821FF302821FF302821FF302821FF302821FF302821FF302821FF302821FF302821FF302821FF302821FF302821FF302821FF302821FFFFFFFFFFFFFFFFFFFFFFFFFF302821FF302821FF302821
310
FFFFFFFFFFFFFFFFFF302821FFFFFFFFFFFFFFFFFF302821FF302821FFFFFFFFFFFFFFFFFF302821FF302821FF302821FF302821FF302821FF302821FF302821FF302821FF302821FF302821FF302821FF302821FF302821FF302821FF302821FF302821FF302821FF302821FF302821FFFFFFFFFFFFFFFFFFFFFFFFFFFFFF
310
FFFFFFFFFFFF302821FFFFFFFFFFFFFFFFFFFFFFFFFFFFFFFFFFFFFFFFFFFFFFFFFF302821FF302821FF302821FF302821FF302821FF302821FF302821FF302821FF302821FF302821FF302821FF302821FF302821FF302821FF302821FF302821FF302821FF302821FF302821FF302821FF302821FF302821FF302821FF30
310
2821FFFFFFFFFFFFFFFFFFFFFFFFFFFFFFFFFF302821FF302821FF302821FF302821FF302821FF302821FF302821FF302821FF302821FF302821FF302821FF302821FF302821FF302821FF302821FF302821FF302821FF302821FF302821FF302821FF302821FF302821FF302821FF302821FF302821FF302821FF302821FF
310
302821FF302821FF302821FF302821FF302821FF302821FF302821FF302821FF302821FF302821FF302821FF302821FF302821FF302821FF302821FF302821FF302821FF302821FF
102
{BLKREFS
331
18F
102
}
 70
     1
280
     1
281
     0
  0
BLOCK_RECORD
  5
190
330
1
100
AcDbSymbolTableRecord
100
AcDbBlockTableRecord
  2
Tub_Filler-DXV-Oak_Hill-D35155760_Series - Top View
340
0
310
28000000200000002000000001002000000000000010000001000000010000000000000000000000007C99E4302821FF302821FF302821FF302821FF302821FF302821FF302821FF302821FF302821FF302821FF302821FF302821FF302821FF302821FF302821FF302821FF302821FF302821FF302821FF302821FF302821
310
FF302821FF302821FF302821FF302821FF302821FF302821FF302821FF302821FF302821FF302821FF302821FF302821FF302821FF302821FF302821FF302821FF302821FF302821FF302821FF302821FF302821FF302821FF302821FF302821FF302821FF302821FFFFFFFFFFFFFFFFFF302821FF302821FF302821FF3028
310
21FF302821FF302821FF302821FF302821FF302821FF302821FF302821FF302821FF302821FF302821FF302821FF302821FF302821FF302821FF302821FF302821FF302821FF302821FF302821FF302821FF302821FF302821FF302821FF302821FFFFFFFFFFFFFFFFFF302821FF302821FFFFFFFFFFFFFFFFFF302821FF30
310
2821FF302821FF302821FF302821FF302821FF302821FF302821FF302821FF302821FF302821FF302821FF302821FF302821FF302821FF302821FF302821FF302821FF302821FF302821FF302821FF302821FF302821FF302821FF302821FFFFFFFFFFFFFFFFFF302821FF302821FF302821FF302821FFFFFFFFFFFFFFFFFF
310
302821FF302821FF302821FF302821FF302821FF302821FF302821FF302821FF302821FF302821FF302821FF302821FF302821FF302821FF302821FF302821FF302821FF302821FF302821FF302821FF302821FF302821FF302821FF302821FFFFFFFFFF302821FF302821FF302821FF302821FF302821FF302821FFFFFFFF
310
FF302821FF302821FF302821FF302821FF302821FF302821FF302821FF302821FF302821FF302821FF302821FF302821FF302821FF302821FF302821FF302821FF302821FF302821FF302821FF302821FF302821FF302821FF302821FFFFFFFFFF302821FF302821FF302821FF302821FF302821FF302821FF302821FF3028
310
21FFFFFFFFFF302821FF302821FF302821FF302821FF302821FF302821FF302821FF302821FF302821FF302821FF302821FF302821FF302821FF302821FF302821FF302821FF302821FF302821FF302821FF302821FF302821FF302821FF302821FFFFFFFFFF302821FF302821FF302821FF302821FF302821FF302821FFFF
310
FFFFFF302821FF302821FF302821FF302821FF302821FF302821FF302821FF302821FF302821FF302821FF302821FF302821FF302821FF302821FF302821FF302821FF302821FF302821FF302821FF302821FF302821FF302821FF302821FF302821FFFFFFFFFF302821FF302821FF302821FF302821FF302821FF302821FF
310
FFFFFFFF302821FF302821FF302821FF302821FF302821FF302821FF302821FF302821FF302821FF302821FF302821FF302821FF302821FF302821FF302821FF302821FF302821FF302821FF302821FF302821FF302821FF302821FF302821FF302821FFFFFFFFFF302821FF302821FF302821FF302821FF302821FF302821
310
FFFFFFFFFF302821FF302821FF302821FF302821FF302821FF302821FF302821FF302821FF302821FF302821FF302821FF302821FF302821FF302821FF302821FF302821FF302821FF302821FF302821FF302821FF302821FF302821FF302821FF302821FFFFFFFFFF302821FF302821FF302821FF302821FF302821FF3028
310
21FFFFFFFFFF302821FF302821FF302821FF302821FF302821FF302821FF302821FF302821FF302821FF302821FF302821FF302821FF302821FF302821FF302821FF302821FF302821FF302821FF302821FF302821FF302821FF302821FF302821FF302821FFFFFFFFFF302821FF302821FF302821FF302821FF302821FF30
310
2821FFFFFFFFFF302821FF302821FF302821FF302821FF302821FF302821FF302821FF302821FF302821FF302821FF302821FF302821FF302821FF302821FF302821FF302821FF302821FF302821FF302821FF302821FF302821FF302821FF302821FF302821FFFFFFFFFF302821FF302821FF302821FF302821FF302821FF
310
302821FFFFFFFFFF302821FF302821FF302821FF302821FF302821FF302821FF302821FF302821FF302821FF302821FF302821FF302821FF302821FF302821FF302821FF302821FF302821FF302821FF302821FF302821FF302821FF302821FF302821FF302821FFFFFFFFFF302821FF302821FF302821FF302821FF302821
310
FF302821FFFFFFFFFF302821FF302821FF302821FF302821FF302821FF302821FF302821FF302821FF302821FF302821FF302821FF302821FF302821FF302821FF302821FF302821FF302821FF302821FF302821FF302821FF302821FF302821FF302821FF302821FFFFFFFFFF302821FF302821FF302821FF302821FF3028
310
21FF302821FFFFFFFFFF302821FF302821FF302821FF302821FF302821FF302821FF302821FF302821FF302821FF302821FF302821FF302821FF302821FF302821FF302821FF302821FF302821FF302821FF302821FF302821FF302821FF302821FF302821FF302821FFFFFFFFFF302821FF302821FF302821FF302821FF30
310
2821FF302821FFFFFFFFFF302821FF302821FF302821FF302821FF302821FF302821FF302821FF302821FF302821FF302821FF302821FF302821FF302821FF302821FF302821FF302821FF302821FF302821FF302821FF302821FF302821FF302821FF302821FF302821FFFFFFFFFF302821FF302821FF302821FF302821FF
310
302821FF302821FFFFFFFFFF302821FF302821FF302821FF302821FF302821FF302821FF302821FF302821FF302821FF302821FF302821FF302821FF302821FF302821FF302821FF302821FF302821FF302821FF302821FF302821FF302821FF302821FF302821FF302821FFFFFFFFFF302821FF302821FF302821FF302821
310
FF302821FF302821FFFFFFFFFF302821FF302821FF302821FF302821FF302821FF302821FF302821FF302821FF302821FF302821FF302821FF302821FF302821FF302821FF302821FF302821FF302821FF302821FF302821FF302821FF302821FF302821FF302821FF302821FFFFFFFFFF302821FF302821FF302821FF3028
310
21FF302821FF302821FFFFFFFFFF302821FF302821FF302821FF302821FF302821FF302821FF302821FF302821FF302821FF302821FF302821FF302821FF302821FF302821FF302821FF302821FF302821FF302821FF302821FF302821FF302821FF302821FF302821FF302821FFFFFFFFFF302821FF302821FF302821FF30
310
2821FF302821FF302821FFFFFFFFFF302821FF302821FF302821FF302821FF302821FF302821FF302821FF302821FF302821FF302821FF302821FF302821FF302821FF302821FF302821FF302821FF302821FF302821FF302821FF302821FF302821FF302821FF302821FF302821FFFFFFFFFF302821FF302821FF302821FF
310
302821FF302821FF302821FFFFFFFFFF302821FF302821FF302821FF302821FF302821FF302821FF302821FF302821FF302821FF302821FF302821FF302821FF302821FF302821FF302821FF302821FF302821FF302821FF302821FF302821FF302821FF302821FF302821FF302821FFFFFFFFFF302821FF302821FF302821
310
FF302821FF302821FF302821FFFFFFFFFF302821FF302821FF302821FF302821FF302821FF302821FF302821FF302821FF302821FF302821FF302821FF302821FF302821FF302821FF302821FF302821FF302821FF302821FF302821FF302821FF302821FF302821FF302821FF302821FFFFFFFFFF302821FF302821FF3028
310
21FF302821FF302821FF302821FFFFFFFFFF302821FF302821FF302821FF302821FF302821FF302821FF302821FF302821FF302821FF302821FF302821FF302821FF302821FF302821FF302821FF302821FF302821FF302821FF302821FF302821FF302821FF302821FF302821FF302821FFFFFFFFFF302821FF302821FF30
310
2821FF302821FF302821FF302821FFFFFFFFFF302821FF302821FF302821FF302821FF302821FF302821FF302821FF302821FF302821FF302821FF302821FF302821FF302821FF302821FF302821FF302821FF302821FF302821FF302821FF302821FF302821FF302821FF302821FF302821FFFFFFFFFF302821FF302821FF
310
302821FF302821FF302821FF302821FFFFFFFFFF302821FF302821FF302821FF302821FF302821FF302821FF302821FF302821FF302821FF302821FF302821FF302821FF302821FF302821FF302821FF302821FF302821FF302821FF302821FF302821FF302821FF302821FF302821FF302821FFFFFFFFFF302821FF302821
310
FF302821FF302821FF302821FF302821FFFFFFFFFF302821FF302821FF302821FF302821FF302821FF302821FF302821FF302821FF302821FF302821FF302821FF302821FF302821FF302821FF302821FF302821FF302821FF302821FF302821FF302821FF302821FF302821FF302821FF302821FFFFFFFFFF302821FF3028
310
21FF302821FF302821FF302821FF302821FFFFFFFFFF302821FF302821FF302821FF302821FF302821FF302821FF302821FF302821FF302821FF302821FF302821FF302821FF302821FF302821FF302821FF302821FF302821FF302821FF302821FF302821FF302821FF302821FF302821FF302821FFFFFFFFFF302821FF30
310
2821FF302821FF302821FF302821FF302821FFFFFFFFFF302821FF302821FF302821FF302821FF302821FF302821FF302821FF302821FF302821FF302821FF302821FF302821FF302821FF302821FF302821FF302821FF302821FF302821FF302821FF302821FF302821FF302821FF302821FF302821FFFFFFFFFF302821FF
310
302821FF302821FF302821FF302821FF302821FFFFFFFFFF302821FF302821FF302821FF302821FF302821FF302821FF302821FF302821FF302821FF302821FF302821FF302821FF302821FF302821FF302821FF302821FF302821FF302821FF302821FF302821FF302821FF302821FF302821FFFFFFFFFFFFFFFFFFFFFFFF
310
FFFFFFFFFFFFFFFFFFFFFFFFFFFFFFFFFFFFFFFFFFFFFFFFFFFFFFFFFF302821FF302821FF302821FF302821FF302821FF302821FF302821FF302821FF302821FF302821FF302821FF302821FF302821FF302821FF302821FF302821FF302821FF302821FF302821FF302821FF302821FFFFFFFFFFFFFFFFFFFFFFFFFFFFFF
310
FFFFFFFFFFFFFFFFFFFFFFFFFFFFFFFFFFFFFFFFFFFFFFFFFFFFFFFFFFFFFFFFFFFF302821FF302821FF302821FF302821FF302821FF302821FF302821FF302821FF302821FF302821FF302821FF302821FF302821FF302821FF302821FF302821FF302821FF302821FF302821FF302821FFFFFFFFFFFFFFFFFFFFFFFFFFFF
310
FFFFFFFFFFFFFFFFFFFFFFFFFFFFFFFFFFFFFFFFFFFFFFFFFFFFFFFFFFFFFFFFFFFFFF302821FF302821FF302821FF302821FF302821FF302821FF302821FF302821FF302821FF302821FF302821FF302821FF302821FF302821FF302821FF302821FF302821FF302821FF302821FF302821FF302821FF302821FF302821FF
310
302821FF302821FF302821FF302821FF302821FF302821FF302821FF302821FF302821FF302821FF302821FF302821FF302821FF302821FF302821FF302821FF302821FF302821FF
102
{BLKREFS
331
1AA
102
}
 70
     1
280
     1
281
     0
  0
ENDTAB
  0
ENDSEC
  0
SECTION
  2
BLOCKS
  0
BLOCK
  5
71
330
70
100
AcDbEntity
  8
0
100
AcDbBlockBegin
  2
*Model_Space
 70
     0
 10
0.0
 20
0.0
 30
0.0
  3
*Model_Space
  1

  0
ENDBLK
  5
72
330
70
100
AcDbEntity
  8
0
100
AcDbBlockEnd
  0
BLOCK
  5
6D
330
6C
100
AcDbEntity
 67
     1
  8
0
100
AcDbBlockBegin
  2
*Paper_Space
 70
     0
 10
0.0
 20
0.0
 30
0.0
  3
*Paper_Space
  1

  0
ENDBLK
  5
6E
330
6C
100
AcDbEntity
 67
     1
  8
0
100
AcDbBlockEnd
  0
BLOCK
  5
75
330
74
100
AcDbEntity
 67
     1
  8
0
100
AcDbBlockBegin
  2
*Paper_Space0
 70
     0
 10
0.0
 20
0.0
 30
0.0
  3
*Paper_Space0
  1

  0
ENDBLK
  5
76
330
74
100
AcDbEntity
 67
     1
  8
0
100
AcDbBlockEnd
  0
BLOCK
  5
83
330
82
100
AcDbEntity
  8
0
100
AcDbBlockBegin
  2
FamilyGeomCombination_15519-Ref_ Level
 70
     0
 10
0.0
 20
0.0
 30
0.0
  3
FamilyGeomCombination_15519-Ref_ Level
  1

  0
LWPOLYLINE
  5
8B
330
82
100
AcDbEntity
  8
P-SANR-FIXT
100
AcDbPolyline
 90
       62
 70
   128
 43
0.0
 10
0.0000000000002425
 20
1.468750000002309
 10
-0.0587343345864815
 20
1.467575156660615
 10
-0.1173747067671908
 20
1.464052506134265
 10
-0.1758273044556744
 20
1.458187683912647
 10
-0.2339986159648517
 20
1.449990072460231
 10
-0.291795579605528
 20
1.439472786206579
 10
-0.3491257325652394
 20
1.42665265056614
 10
-0.4058973588290299
 20
1.411550175021133
 10
-0.4620196359055133
 20
1.39418952031076
 10
-0.5174027801234784
 20
1.374598459779093
 10
-0.5719581902666175
 20
1.352808334943844
 10
-0.6255985893165703
 20
1.328854005356376
 10
-0.6782381640775314
 20
1.302773792834088
 10
-0.72979270245906
 20
1.274609420153509
 10
-0.78017972819746
 20
1.24440594430284
 10
-0.8293186328002091
 20
1.212211684400429
 10
-0.87713080450235
 20
1.178078144394326
 10
-0.923539754028545
 20
1.142059930667137
 10
-0.9684712369596029
 20
1.104214664677335
 10
-1.011853372507701
 20
1.064602890777279
 10
-1.053616758510328
 20
1.02328797935516
 10
-1.093694582458925
 20
0.9803360254558482
 10
-1.132022728384656
 20
0.9358157430430152
 10
-1.168539879430273
 20
0.8897983550713417
 10
-1.203187615944014
 20
0.8423574795450859
 10
-1.235910508938579
 20
0.7935690117449212
 10
-1.26665620876569
 20
0.7435110028116298
 10
-1.295375528864355
 20
0.6922635348810786
 10
-1.322022524448878
 20
0.6399085929697392
 10
-1.346554566010712
 20
0.5865299338161591
 10
-1.368932407516583
 20
0.5322129518882192
 10
-1.389120249193766
 20
0.4770445427699812
 10
-1.407085794802087
 20
0.4211129641473405
 10
-1.422800303301017
 20
0.3645076946147298
 10
-1.43623863482921
 20
0.3073192905282269
 10
-1.447379290922911
 20
0.2496392411348367
 10
-1.456204448908916
 20
0.1915598222091432
 10
-1.462699990417046
 20
0.1331739484318532
 10
-1.466855523966533
 20
0.0745750247459895
 10
-1.468664401590159
 20
0.0158567969290076
 10
-1.468123729469607
 20
-0.0428867983804437
 10
-1.465234372564927
 20
-0.1015617839611806
 10
-1.460000953230805
 20
-0.1600742923529452
 10
-1.452431843821772
 20
-0.2183307160243046
 10
-1.442539153298226
 20
-0.2762378571247552
 10
-1.430338707854676
 20
-0.3337030765814148
 10
-1.415850025601209
 20
-0.3906344423017316
 10
-1.399096285338675
 20
-0.4469408762452786
 10
-1.380104289477556
 20
-0.5025323001291326
 10
-1.358904421159819
 20
-0.5573197795339552
 10
-1.335530595652375
 20
-0.6112156661800725
 10
-1.310020206089884
 20
-0.6641337381460203
 10
-1.282414063653722
 20
-0.715989337805226
 10
-1.252756332282791
 20
-0.7666995072601991
 10
-1.221094458020638
 20
-0.8161831210574062
 10
-1.18747909311191
 20
-0.8643610159706865
 10
-1.151964014969564
 20
-0.9111561176456104
 10
-1.114606040142484
 20
-0.9564935639019152
 10
-1.075464933421115
 20
-1.000300824497031
 10
-1.034603312226556
 20
-1.04250781715909
 10
-0.9920865464360362
 20
-1.083047019703492
 10
-0.9496334034745602
 20
-1.12040110051641
1001
REVIT
1002
{
1070
     2
1000
-2001160
1002
}
  0
LWPOLYLINE
  5
8C
330
82
100
AcDbEntity
  8
P-SANR-FIXT
100
AcDbPolyline
 90
       63
 70
   128
 43
0.0
 10
0.9504529609316753
 20
-1.119391249212732
 10
0.9684712369601012
 20
-1.104214664678017
 10
1.011853372508199
 20
-1.064602890777962
 10
1.053616758510826
 20
-1.02328797935582
 10
1.093694582459423
 20
-0.980336025456509
 10
1.132022728385155
 20
-0.9358157430436973
 10
1.168539879430771
 20
-0.8897983550720239
 10
1.203187615944512
 20
-0.842357479545768
 10
1.235910508939077
 20
-0.7935690117456033
 10
1.266656208766187
 20
-0.7435110028123119
 10
1.295375528864852
 20
-0.6922635348817607
 10
1.322022524449374
 20
-0.6399085929704
 10
1.346554566011209
 20
-0.5865299338168412
 10
1.36893240751708
 20
-0.5322129518889013
 10
1.389120249194263
 20
-0.477044542770642
 10
1.407085794802583
 20
-0.4211129641480226
 10
1.422800303301516
 20
-0.3645076946154119
 10
1.436238634829707
 20
-0.307319290528909
 10
1.447379290923406
 20
-0.2496392411355188
 10
1.456204448909412
 20
-0.1915598222098253
 10
1.462699990417541
 20
-0.1331739484325354
 10
1.466855523967028
 20
-0.0745750247466503
 10
1.468664401590655
 20
-0.0158567969296897
 10
1.468123729470102
 20
0.0428867983797616
 10
1.465234372565421
 20
0.1015617839604985
 10
1.4600009532313
 20
0.1600742923522631
 10
1.452431843822266
 20
0.2183307160236225
 10
1.44253915329872
 20
0.2762378571240731
 10
1.430338707855169
 20
0.333703076580754
 10
1.415850025601702
 20
0.3906344423010708
 10
1.399096285339171
 20
0.4469408762446178
 10
1.38010428947805
 20
0.5025323001284718
 10
1.358904421160312
 20
0.5573197795332731
 10
1.335530595652868
 20
0.6112156661793903
 10
1.310020206090377
 20
0.6641337381453382
 10
1.282414063654216
 20
0.7159893378045438
 10
1.252756332283284
 20
0.7666995072595383
 10
1.221094458021131
 20
0.8161831210567241
 10
1.187479093112401
 20
0.8643610159700044
 10
1.151964014970056
 20
0.9111561176449283
 10
1.114606040142976
 20
0.9564935639012331
 10
1.075464933421607
 20
1.000300824496349
 10
1.034603312227047
 20
1.042507817158408
 10
0.9920865464365279
 20
1.083047019702831
 10
0.9479826538055531
 20
1.121853578053418
 10
0.9023621911540024
 20
1.158865409995129
 10
0.8552981414902735
 20
1.194023304492276
 10
0.8068657972540322
 20
1.227271016413638
 10
0.7571426398643752
 20
1.258555356512566
 10
0.7062082157660869
 20
1.287826276518593
 10
0.6541440091722883
 20
1.315036949203779
 10
0.6010333117070945
 20
1.340143843296502
 10
0.5469610891567708
 20
1.363106793122071
 10
0.4920138455426075
 20
1.383889062859253
 10
0.4362794847329314
 20
1.402457405309774
 10
0.3798471698156755
 20
1.418782115086749
 10
0.3228071804564565
 20
1.432837076136962
 10
0.2652507684703664
 20
1.444599803520958
 10
0.2072700118385371
 20
1.454051479384176
 10
0.1489576674030117
 20
1.461176983061491
 10
0.0904070224755817
 20
1.465964915267036
 10
0.0317117455979954
 20
1.468407616330665
 10
0.0000000000002425
 20
1.468750000002309
1001
REVIT
1002
{
1070
     2
1000
-2001160
1002
}
  0
LWPOLYLINE
  5
8D
330
82
100
AcDbEntity
  8
P-SANR-FIXT
100
AcDbPolyline
 90
       16
 70
   128
 43
0.0
 10
0.0000000000002944
 20
0.7513670624307877
 10
-0.1084481216623483
 20
0.7435359806014076
 10
-0.2155973959749326
 20
0.7200749640662351
 10
-0.3181368001073763
 20
0.6815196296662406
 10
-0.41377774864638
 20
0.6288391776956956
 10
-0.5016202057100485
 20
0.5627279301061705
 10
-0.5789553023993367
 20
0.4852860287019993
 10
-0.6450103549365504
 20
0.3979908014196666
 10
-0.6994060335232026
 20
0.3026513818090208
 10
-0.7430458782338087
 20
0.1995770781242498
 10
-0.8086898459402236
 20
-0.0423878789969407
 10
-0.8490680630617475
 20
-0.2710274687028331
 10
-0.8896637000960144
 20
-0.5675177284031249
 10
-0.9183982392041642
 20
-0.8118044330617307
 10
-0.9607356663440247
 20
-1.208015647826442
 10
-0.9999999999996925
 20
-1.593750000000212
1001
REVIT
1002
{
1070
     2
1000
-2001160
1002
}
  0
LWPOLYLINE
  5
8E
330
82
100
AcDbEntity
  8
P-SANR-FIXT
100
AcDbPolyline
 90
       16
 70
   128
 43
0.0
 10
0.0000000000002944
 20
0.7513670624307877
 10
0.1084481216629385
 20
0.7435359806014076
 10
0.2155973959755228
 20
0.7200749640662351
 10
0.3181368001079665
 20
0.6815196296662193
 10
0.4137777486469715
 20
0.6288391776956956
 10
0.5016202057106387
 20
0.5627279301061705
 10
0.5789553023999269
 20
0.4852860287019993
 10
0.6450103549371419
 20
0.3979908014196666
 10
0.6994060335237941
 20
0.3026513818090208
 10
0.7430458782344042
 20
0.1995770781242498
 10
0.8086898459408272
 20
-0.0423878789969621
 10
0.8490680630623565
 20
-0.2710274687028757
 10
0.8896637000966272
 20
-0.5675177284031889
 10
0.9183982392047782
 20
-0.8118044330617733
 10
0.9607356663446429
 20
-1.208015647826463
 10
1.000000000000309
 20
-1.593750000000234
1001
REVIT
1002
{
1070
     2
1000
-2001160
1002
}
  0
LINE
  5
8F
330
82
100
AcDbEntity
  8
P-SANR-FIXT
100
AcDbLine
 10
1.211055258804799
 20
0.6992030796730261
 30
0.0
 11
0.0000000000007434
 21
1.398406159347075
 31
0.0
1001
REVIT
1002
{
1070
     2
1000
-2001160
1002
}
  0
LINE
  5
90
330
82
100
AcDbEntity
  8
P-SANR-FIXT
100
AcDbLine
 10
0.0000000000007434
 20
1.398406159347075
 30
0.0
 11
-1.21105525880332
 21
0.6992030796730475
 31
0.0
1001
REVIT
1002
{
1070
     2
1000
-2001160
1002
}
  0
LINE
  5
91
330
82
100
AcDbEntity
  8
P-SANR-FIXT
100
AcDbLine
 10
-1.21105525880332
 20
0.6992030796730475
 30
0.0
 11
-1.211055258803327
 21
-0.6992030796750299
 31
0.0
1001
REVIT
1002
{
1070
     2
1000
-2001160
1002
}
  0
LINE
  5
92
330
82
100
AcDbEntity
  8
P-SANR-FIXT
100
AcDbLine
 10
-1.211055258803327
 20
-0.6992030796750299
 30
0.0
 11
-0.9212257187973261
 21
-0.8665362426166181
 31
0.0
1001
REVIT
1002
{
1070
     2
1000
-2001160
1002
}
  0
LINE
  5
93
330
82
100
AcDbEntity
  8
P-SANR-FIXT
100
AcDbLine
 10
0.9226967320520426
 20
-0.8656869527188602
 30
0.0
 11
1.211055258804788
 21
-0.6992030796750512
 31
0.0
1001
REVIT
1002
{
1070
     2
1000
-2001160
1002
}
  0
LINE
  5
94
330
82
100
AcDbEntity
  8
P-SANR-FIXT
100
AcDbLine
 10
1.211055258804788
 20
-0.6992030796750512
 30
0.0
 11
1.211055258804799
 21
0.6992030796730261
 31
0.0
1001
REVIT
1002
{
1070
     2
1000
-2001160
1002
}
  0
LWPOLYLINE
  5
95
330
82
100
AcDbEntity
  8
P-SANR-FIXT
100
AcDbPolyline
 90
        7
 70
   128
 43
0.0
 10
0.0000000000003218
 20
-1.593750000000236
 10
-0.2588182274261059
 20
-1.593750000000233
 10
-0.4999665778679347
 20
-1.59375000000023
 10
-0.7071067811862294
 20
-1.593750000000226
 10
-0.8659851198929018
 20
-1.593750000000222
 10
-0.9658749524067571
 20
-1.593750000000217
 10
-0.9999999999996916
 20
-1.593750000000214
1001
REVIT
1002
{
1070
     2
1000
-2001160
1002
}
  0
LWPOLYLINE
  5
96
330
82
100
AcDbEntity
  8
P-SANR-FIXT
100
AcDbPolyline
 90
        7
 70
   128
 43
0.0
 10
1.000000000000308
 20
-1.593750000000234
 10
0.9658749524073806
 20
-1.593750000000237
 10
0.8659851198935321
 20
-1.593750000000239
 10
0.7071067811868646
 20
-1.59375000000024
 10
0.4999665778685743
 20
-1.59375000000024
 10
0.2588182274267488
 20
-1.593750000000239
 10
0.0000000000003218
 20
-1.593750000000236
1001
REVIT
1002
{
1070
     2
1000
-2001160
1002
}
  0
SPLINE
  5
97
330
82
100
AcDbEntity
  8
P-SANR-FIXT
100
AcDbSpline
210
0.0
220
0.0
230
1.0
 70
     8
 71
     3
 72
    16
 73
    12
 74
     0
 42
0.000000001
 43
0.0000000001
 40
0.0
 40
0.0
 40
0.0
 40
0.0
 40
0.1666666666666666
 40
0.3333333333333333
 40
0.4166666666666666
 40
0.5
 40
0.5833333333333333
 40
0.6666666666666666
 40
0.75
 40
0.8333333333333332
 40
1.0
 40
1.0
 40
1.0
 40
1.0
 10
0.0000000000007444
 20
1.398406159347076
 30
0.0
 10
0.0000096754116951
 20
1.398400573245959
 30
0.0
 10
-0.0000037904262971
 20
1.397081979405082
 30
0.0
 10
-0.0000016705885808
 20
1.392218270131747
 30
0.0
 10
0.0000037651469375
 20
1.38660411516618
 30
0.0
 10
-0.0000017213703664
 20
1.381613739797142
 30
0.0
 10
0.0000031203389923
 20
1.375916694492251
 30
0.0
 10
-0.0000007635841292
 20
1.369621650326299
 30
0.0
 10
-0.0000000659980119
 20
1.362828579528117
 30
0.0
 10
0.0000097707706736
 20
1.353260643725678
 30
0.0
 10
-0.0000486558526387
 20
1.345737555465479
 30
0.0
 10
0.0000000000007437
 20
1.340671132428112
 30
0.0
1001
REVIT
1002
{
1070
     2
1000
-2001160
1002
}
  0
SPLINE
  5
98
330
82
100
AcDbEntity
  8
P-SANR-FIXT
100
AcDbSpline
210
0.0
220
0.0
230
1.0
 70
     8
 71
     3
 72
    16
 73
    12
 74
     0
 42
0.000000001
 43
0.0000000001
 40
0.0
 40
0.0
 40
0.0
 40
0.0
 40
0.1666666666666666
 40
0.3333333333333333
 40
0.4166666666666666
 40
0.5
 40
0.5833333333333333
 40
0.6666666666666666
 40
0.75
 40
0.8333333333333332
 40
1.0
 40
1.0
 40
1.0
 40
1.0
 10
-1.211055258803319
 20
0.6992030796730444
 30
0.0
 10
-1.211045583392368
 20
0.6992086657741615
 30
0.0
 10
-1.20991038054789
 20
0.6985377070959384
 30
0.0
 10
-1.205697224841703
 20
0.6961076882925847
 30
0.0
 10
-1.20083250615298
 20
0.6933053182948483
 30
0.0
 10
-1.196513457567625
 20
0.6908053791469659
 30
0.0
 10
-1.191577250752399
 20
0.6879610495378224
 30
0.0
 10
-1.1861275245483
 20
0.6848101638787576
 30
0.0
 10
-1.18024420387431
 20
0.681414232606965
 30
0.0
 10
-1.171953210023277
 20
0.6766387835973191
 30
0.0
 10
-1.165467237786687
 20
0.6728266405271722
 30
0.0
 10
-1.161055258803318
 20
0.6703355662135619
 30
0.0
1001
REVIT
1002
{
1070
     2
1000
-2001160
1002
}
  0
SPLINE
  5
99
330
82
100
AcDbEntity
  8
P-SANR-FIXT
100
AcDbSpline
210
0.0
220
0.0
230
1.0
 70
     8
 71
     3
 72
    16
 73
    12
 74
     0
 42
0.000000001
 43
0.0000000001
 40
0.0
 40
0.0
 40
0.0
 40
0.0
 40
0.1666666666666666
 40
0.3333333333333333
 40
0.4166666666666666
 40
0.5
 40
0.5833333333333333
 40
0.6666666666666666
 40
0.75
 40
0.8333333333333332
 40
1.0
 40
1.0
 40
1.0
 40
1.0
 10
-1.211055258803326
 20
-0.6992030796750233
 30
0.0
 10
-1.211055258803326
 20
-0.6991919074727895
 30
0.0
 10
-1.209906590120856
 20
-0.6985442723101347
 30
0.0
 10
-1.205695554252384
 20
-0.6961105818401539
 30
0.0
 10
-1.20083627129918
 20
-0.6932987968723227
 30
0.0
 10
-1.196511736196521
 20
-0.6908083606511668
 30
0.0
 10
-1.191580371090652
 20
-0.6879556449554194
 30
0.0
 10
-1.186126760963434
 20
-0.6848114864485333
 30
0.0
 10
-1.180244137875561
 20
-0.6814143469221431
 30
0.0
 10
-1.171962980793213
 20
-0.6766218601293508
 30
0.0
 10
-1.16541858193331
 20
-0.6729109149392967
 30
0.0
 10
-1.161055258803325
 20
-0.6703355662155419
 30
0.0
1001
REVIT
1002
{
1070
     2
1000
-2001160
1002
}
  0
SPLINE
  5
9A
330
82
100
AcDbEntity
  8
P-SANR-FIXT
100
AcDbSpline
210
0.0
220
0.0
230
1.0
 70
     8
 71
     3
 72
    16
 73
    12
 74
     0
 42
0.000000001
 43
0.0000000001
 40
0.0
 40
0.0
 40
0.0
 40
0.0
 40
0.1666666666666666
 40
0.3333333333333333
 40
0.4166666666666666
 40
0.5
 40
0.5833333333333333
 40
0.6666666666666666
 40
0.75
 40
0.8333333333333332
 40
1.0
 40
1.0
 40
1.0
 40
1.0
 10
1.211055258804788
 20
-0.699203079675038
 30
0.0
 10
1.211045583393838
 20
-0.6992086657761548
 30
0.0
 10
1.20991038054936
 20
-0.6985377070979319
 30
0.0
 10
1.205697224843172
 20
-0.6961076882945783
 30
0.0
 10
1.20083250615445
 20
-0.693305318296842
 30
0.0
 10
1.196513457569094
 20
-0.6908053791489597
 30
0.0
 10
1.191577250753868
 20
-0.6879610495398162
 30
0.0
 10
1.186127524549771
 20
-0.6848101638807515
 30
0.0
 10
1.18024420387578
 20
-0.6814142326089591
 30
0.0
 10
1.171953210024747
 20
-0.676638783599313
 30
0.0
 10
1.165467237788155
 20
-0.6728266405291664
 30
0.0
 10
1.161055258804788
 20
-0.6703355662155559
 30
0.0
1001
REVIT
1002
{
1070
     2
1000
-2001160
1002
}
  0
SPLINE
  5
9B
330
82
100
AcDbEntity
  8
P-SANR-FIXT
100
AcDbSpline
210
0.0
220
0.0
230
1.0
 70
     8
 71
     3
 72
    16
 73
    12
 74
     0
 42
0.000000001
 43
0.0000000001
 40
-1.0
 40
-1.0
 40
-1.0
 40
-1.0
 40
-0.8333333333333333
 40
-0.75
 40
-0.6666666666666666
 40
-0.5833333333333333
 40
-0.5
 40
-0.4166666666666666
 40
-0.3333333333333333
 40
-0.1666666666666666
 40
0.0
 40
0.0
 40
0.0
 40
0.0
 10
1.161055258804797
 20
0.6703355662135479
 30
0.0
 10
1.165418581934783
 20
0.6729109149373024
 30
0.0
 10
1.171962980794685
 20
0.6766218601273565
 30
0.0
 10
1.180244137877034
 20
0.6814143469201495
 30
0.0
 10
1.186126760964907
 20
0.6848114864465388
 30
0.0
 10
1.191580371092126
 20
0.6879556449534253
 30
0.0
 10
1.196511736197994
 20
0.690808360649173
 30
0.0
 10
1.200836271300652
 20
0.6932987968703282
 30
0.0
 10
1.205695554253856
 20
0.6961105818381589
 30
0.0
 10
1.209906590122328
 20
0.6985442723081407
 30
0.0
 10
1.211055258804798
 20
0.6991919074707953
 30
0.0
 10
1.211055258804798
 20
0.6992030796730289
 30
0.0
1001
REVIT
1002
{
1070
     2
1000
-2001160
1002
}
  0
ENDBLK
  5
84
330
82
100
AcDbEntity
  8
0
100
AcDbBlockEnd
  0
BLOCK
  5
AD
330
AC
100
AcDbEntity
  8
0
100
AcDbBlockBegin
  2
FamilyGeomCombination_15519-Left
 70
     0
 10
0.0
 20
0.0
 30
0.0
  3
FamilyGeomCombination_15519-Left
  1

  0
LINE
  5
AE
330
AC
100
AcDbEntity
  8
P-SANR-FIXT
100
AcDbLine
 10
-0.7458021851497775
 20
4.406250000000028
 30
0.0
 11
-0.7458021851498202
 21
1.337255807475983
 31
0.0
1001
REVIT
1002
{
1070
     2
1000
-2001160
1002
}
  0
LINE
  5
AF
330
AC
100
AcDbEntity
  8
P-SANR-FIXT
100
AcDbLine
 10
0.7458021851505023
 20
1.337255807475963
 30
0.0
 11
0.7458021851505449
 21
4.406249999999993
 31
0.0
1001
REVIT
1002
{
1070
     2
1000
-2001160
1002
}
  0
LWPOLYLINE
  5
B0
330
AC
100
AcDbEntity
  8
P-SANR-FIXT
100
AcDbPolyline
 90
       12
 70
   128
 43
0.0
 10
0.745802185150481
 20
1.337255807475963
 10
0.7472184254403444
 20
1.266453234835629
 10
0.7514648806276582
 20
1.195763931207777
 10
0.7585347572899365
 20
1.125300984398629
 10
0.7684167451326757
 20
1.055177120091788
 10
0.7810950350834033
 20
0.9855045215111854
 10
0.796549344582722
 20
0.916394649951853
 10
0.8147549500322098
 20
0.8479580664656335
 10
0.8356827263467605
 20
0.7803042549870813
 10
0.8592991935486933
 20
0.7135414471825161
 10
0.885566570328322
 20
0.6477764493024524
 10
0.8930988504064883
 20
0.6302254590867599
1001
REVIT
1002
{
1070
     2
1000
-2001160
1002
}
  0
LWPOLYLINE
  5
B1
330
AC
100
AcDbEntity
  8
P-SANR-FIXT
100
AcDbPolyline
 90
       12
 70
   128
 43
0.0
 10
-0.8930988504058275
 20
0.6302254590867852
 10
-0.8661235961924729
 20
0.6957032850217825
 10
-0.8417883339684236
 20
0.7622074581354665
 10
-0.8201319949619685
 20
0.8296315859376564
 10
-0.8011892246957613
 20
0.8978678042069166
 10
-0.7849903275613314
 20
0.9668069495502992
 10
-0.7715612183384621
 20
1.036338734041488
 10
-0.760923380737239
 20
1.106351921657954
 10
-0.7530938330285295
 20
1.17673450623486
 10
-0.748085100818443
 20
1.247373890651034
 10
-0.7459051970100247
 20
1.318157066960341
 10
-0.7458021851497775
 20
1.337255807475983
1001
REVIT
1002
{
1070
     2
1000
-2001160
1002
}
  0
LWPOLYLINE
  5
B2
330
AC
100
AcDbEntity
  8
P-SANR-FIXT
100
AcDbPolyline
 90
       30
 70
   128
 43
0.0
 10
0.8930988504064883
 20
0.6302254590867613
 10
0.8978267551286974
 20
0.6199378810299092
 10
0.9029622714283147
 20
0.6098475977001607
 10
0.908497183574738
 20
0.5999707513983612
 10
0.9144226368892701
 20
0.5903231429716453
 10
0.9207291519106631
 20
0.5809202065354521
 10
0.9274066395601819
 20
0.5717769847822227
 10
0.9344444172820372
 20
0.5629081049163153
 10
0.9418312261331818
 20
0.5543277552535883
 10
0.9495552487952279
 20
0.546049662523123
 10
0.9576041284796444
 20
0.5380870699073914
 10
0.9659649886959014
 20
0.5304527158559819
 10
0.974624453851227
 20
0.5231588137068023
 10
0.9835686706486368
 20
0.5162170321473409
 10
0.992783330249196
 20
0.5096384765472588
 10
1.002253691163317
 20
0.5034336711921643
 10
1.011964602833714
 20
0.4976125424470074
 10
1.021900529873306
 20
0.4921844028760027
 10
1.032045576918349
 20
0.4871579363445248
 10
1.042383514057732
 20
0.482541184126767
 10
1.052897802797339
 20
0.4783415320414232
 10
1.06357162251816
 20
0.4745656986359518
 10
1.074387897385541
 20
0.4712197244383347
 10
1.085329323667082
 20
0.4683089622935163
 10
1.096378397414774
 20
0.4658380688000023
 10
1.107517442467624
 20
0.4638109968602819
 10
1.118728638729727
 20
0.4622309893570428
 10
1.129994050678703
 20
0.4611005739652385
 10
1.141295656058566
 20
0.4604215591083544
 10
1.152615374711615
 20
0.4601950310653122
1001
REVIT
1002
{
1070
     2
1000
-2001160
1002
}
  0
LWPOLYLINE
  5
B3
330
AC
100
AcDbEntity
  8
P-SANR-FIXT
100
AcDbPolyline
 90
       30
 70
   128
 43
0.0
 10
-1.152617961346862
 20
0.4601950310535256
 10
-1.141298240624322
 20
0.4604214556587296
 10
-1.129996629040206
 20
0.4611003672432709
 10
-1.118731206762127
 20
0.4622306796934454
 10
-1.107519996062613
 20
0.4638105847504503
 10
-1.096380932487171
 20
0.4658375549032225
 10
-1.085331836161294
 20
0.468308347431916
 10
-1.074390383282128
 20
0.4712190095955604
 10
-1.063574077840207
 20
0.4745648849555994
 10
-1.052900223616852
 20
0.4783406208252061
 10
-1.042385896501904
 20
0.4825401768324404
 10
-1.032047917175787
 20
0.4871568345835424
 10
-1.021902824200104
 20
0.4921832084109478
 10
-1.011966847559442
 20
0.4976112571887689
 10
-1.002255882696885
 20
0.5034322971968814
 10
-0.9927854650846084
 20
0.5096370160130305
 10
-0.9835707453705991
 20
0.5162154874107116
 10
-0.9746264651406447
 20
0.5231571872390206
 10
-0.9659669333351457
 20
0.5304510102590502
 10
-0.9576060033576892
 20
0.5380852879098991
 10
-0.9495570509126805
 20
0.5460478069758871
 10
-0.9418329526070364
 20
0.5543258291250876
 10
-0.9344460653502791
 20
0.5629061112879463
 10
-0.9274082065862854
 20
0.5717749268433647
 10
-0.9207306353877056
 20
0.5809180875783663
 10
-0.9144240344440033
 20
0.5903209663862147
 10
-0.9084984929713824
 20
0.5999685206666551
 10
-0.9029634905720767
 20
0.6098453163908752
 10
-0.8978278820692436
 20
0.6199355527926542
 10
-0.8930998833409516
 20
0.6302230876462187
1001
REVIT
1002
{
1070
     2
1000
-2001160
1002
}
  0
LWPOLYLINE
  5
B4
330
AC
100
AcDbEntity
  8
P-SANR-FIXT
100
AcDbPolyline
 90
       80
 70
   128
 43
0.0
 10
1.406250000002984
 20
0.2290877180930652
 10
1.405125149994965
 20
0.2290877180930679
 10
1.401752399491037
 20
0.2290877180930679
 10
1.396137144172456
 20
0.2290877180930679
 10
1.38828836724992
 20
0.2290877180930692
 10
1.378218625092173
 20
0.2290877180930692
 10
1.365944027138567
 20
0.2290877180930706
 10
1.351484210127395
 20
0.2290877180930706
 10
1.33486230668128
 20
0.2290877180930719
 10
1.316104908299891
 20
0.2290877180930719
 10
1.295242022819316
 20
0.2290877180930745
 10
1.272307026405812
 20
0.2290877180930745
 10
1.247336610161035
 20
0.2290877180930759
 10
1.220370721424309
 20
0.2290877180930759
 10
1.191452499865178
 20
0.2290877180930772
 10
1.160628208469254
 20
0.2290877180930772
 10
1.127947159527238
 20
0.2290877180930785
 10
1.093461635745889
 20
0.2290877180930785
 10
1.057226806606713
 20
0.2290877180930812
 10
1.019300640106642
 20
0.2290877180930825
 10
0.9797438100216309
 20
0.2290877180930825
 10
0.9386195988414341
 20
0.2290877180930839
 10
0.8959937965312716
 20
0.2290877180930839
 10
0.8519345952817898
 20
0.2290877180930852
 10
0.806512480416252
 20
0.2290877180930852
 10
0.7598001176288349
 20
0.2290877180930879
 10
0.7118722367352603
 20
0.2290877180930892
 10
0.6628055121208973
 20
0.2290877180930892
 10
0.6126784400781133
 20
0.2290877180930905
 10
0.5615712132289658
 20
0.2290877180930905
 10
0.509565592234118
 20
0.2290877180930919
 10
0.4567447749932114
 20
0.2290877180930919
 10
0.4031932635460222
 20
0.2290877180930945
 10
0.3489967288871369
 20
0.2290877180930945
 10
0.2942418739106997
 20
0.2290877180930959
 10
0.2390162947042568
 20
0.2290877180930972
 10
0.1834083404136848
 20
0.2290877180930972
 10
0.1275069719034931
 20
0.2290877180930985
 10
0.0714016194383049
 20
0.2290877180930985
 10
0.0151820396135563
 20
0.2290877180931012
 10
-0.0410618282359465
 20
0.2290877180931012
 10
-0.0972400059196303
 20
0.2290877180931012
 10
-0.15326262033728
 20
0.2290877180931025
 10
-0.2090400472566784
 20
0.2290877180931025
 10
-0.2644830546932936
 20
0.2290877180931039
 10
-0.3195029456624141
 20
0.2290877180931039
 10
-0.3740117000754992
 20
0.2290877180931039
 10
-0.4279221155533647
 20
0.2290877180931052
 10
-0.4811479469315287
 20
0.2290877180931052
 10
-0.5336040442340248
 20
0.2290877180931052
 10
-0.5852064888951886
 20
0.2290877180931079
 10
-0.6358727280115203
 20
0.2290877180931079
 10
-0.6855217064086502
 20
0.2290877180931079
 10
-0.7340739963123539
 20
0.2290877180931079
 10
-0.7814519244160607
 20
0.2290877180931092
 10
-0.827579696141562
 20
0.2290877180931092
 10
-0.8723835168941461
 20
0.2290877180931092
 10
-0.9157917101182631
 20
0.2290877180931092
 10
-0.9577348319646715
 20
0.2290877180931092
 10
-0.9981457823857835
 20
0.2290877180931092
 10
-1.036959912481499
 20
0.2290877180931092
 10
-1.074115127923569
 20
0.2290877180931092
 10
-1.109551988293283
 20
0.2290877180931105
 10
-1.143213802173555
 20
0.2290877180931105
 10
-1.175046717842924
 20
0.2290877180931092
 10
-1.204999809427014
 20
0.2290877180931092
 10
-1.233025158368959
 20
0.2290877180931092
 10
-1.259077930088828
 20
0.2290877180931092
 10
-1.283116445709523
 20
0.2290877180931092
 10
-1.305102248733987
 20
0.2290877180931092
 10
-1.325000166567462
 20
0.2290877180931092
 10
-1.342778366786042
 20
0.2290877180931092
 10
-1.358408408061883
 20
0.2290877180931079
 10
-1.371865285663154
 20
0.2290877180931079
 10
-1.38312747145634
 20
0.2290877180931079
 10
-1.392176948346658
 20
0.2290877180931079
 10
-1.398999239101534
 20
0.2290877180931052
 10
-1.403583429511101
 20
0.2290877180931052
 10
-1.405922185848623
 20
0.2290877180931052
 10
-1.406250000002323
 20
0.2290877180931052
1001
REVIT
1002
{
1070
     2
1000
-2001160
1002
}
  0
LWPOLYLINE
  5
B5
330
AC
100
AcDbEntity
  8
P-SANR-FIXT
100
AcDbPolyline
 90
       41
 70
   128
 43
0.0
 10
1.406250000002984
 20
0.2290877180930652
 10
1.408749333389635
 20
0.2290377247593764
 10
1.411244668376042
 20
0.2288878247369803
 10
1.413732012958526
 20
0.2286382578339329
 10
1.416207387916358
 20
0.2282894233040444
 10
1.418666833177652
 20
0.2278418792081429
 10
1.421106414154671
 20
0.2272963415213169
 10
1.423522228038244
 20
0.2266536829874903
 10
1.425910410041481
 20
0.2259149317232189
 10
1.428267139582665
 20
0.2250812695729385
 10
1.430588646397268
 20
0.224154030218246
 10
1.432871216569608
 20
0.2231346970443137
 10
1.435111198474316
 20
0.222024900766772
 10
1.43730500861821
 20
0.2208264168229194
 10
1.439449137373031
 20
0.2195411625314052
 10
1.441540154590157
 20
0.2181711940249213
 10
1.443574715088132
 20
0.2167187029608355
 10
1.445549564004124
 20
0.2151860130149993
 10
1.447461542001192
 20
0.2135755761643718
 10
1.449307590322376
 20
0.2118899687643724
 10
1.451084755684192
 20
0.2101318874272641
 10
1.452790195001149
 20
0.208304144708149
 10
1.454421179934158
 20
0.2064096646054771
 10
1.455975101255248
 20
0.2044514778832828
 10
1.457449473021789
 20
0.2024327172225941
 10
1.458841936553468
 20
0.2003566122098252
 10
1.460150264205679
 20
0.1982264841701151
 10
1.461372362933282
 20
0.1960457408539255
 10
1.462506277639007
 20
0.1938178709853595
 10
1.463550194301219
 20
0.1915464386809575
 10
1.464502442875932
 20
0.1892350777478588
 10
1.465361499968572
 20
0.1868874858704901
 10
1.466125991271048
 20
0.1845074186950639
 10
1.466794693760377
 20
0.1820986838213398
 10
1.467366537655173
 20
0.1796651347112807
 10
1.467840608127246
 20
0.1772106645243307
 10
1.468216146764959
 20
0.1747391998892014
 10
1.468492552786571
 20
0.1722546946220857
 10
1.468669384001436
 20
0.1697611234014142
 10
1.468746357517339
 20
0.1672624754092075
 10
1.468750000002969
 20
0.1665877180930621
1001
REVIT
1002
{
1070
     2
1000
-2001160
1002
}
  0
LWPOLYLINE
  5
B6
330
AC
100
AcDbEntity
  8
P-SANR-FIXT
100
AcDbPolyline
 90
       41
 70
   128
 43
0.0
 10
-1.468750000002309
 20
0.1665877180931048
 10
-1.468700006668633
 20
0.1690870514797686
 10
-1.468550106646233
 20
0.1715823864661763
 10
-1.468300539743196
 20
0.17406973104866
 10
-1.467951705213294
 20
0.1765451060064937
 10
-1.46750416111741
 20
0.1790045512677962
 10
-1.466958623430578
 20
0.1814441322447999
 10
-1.466315964896743
 20
0.1838599461283623
 10
-1.465577213632464
 20
0.1862481281316115
 10
-1.464743551482186
 20
0.1886048576727979
 10
-1.463816312127491
 20
0.1909263644873942
 10
-1.462796978953569
 20
0.1932089346597281
 10
-1.461687182676037
 20
0.1954489165644468
 10
-1.460488698732184
 20
0.1976427267083376
 10
-1.459203444440646
 20
0.199786855463159
 10
-1.457833475934179
 20
0.2018778726802938
 10
-1.456380984870093
 20
0.2039124331782544
 10
-1.454848294924253
 20
0.2058872820942587
 10
-1.453237858073627
 20
0.2077992600913214
 10
-1.451552250673621
 20
0.2096453084125133
 10
-1.449794169336513
 20
0.2114224737743248
 10
-1.447966426617398
 20
0.2131279130912835
 10
-1.446071946514727
 20
0.2147588980242893
 10
-1.444113759792536
 20
0.2163128193453767
 10
-1.442094999131839
 20
0.2177871911119164
 10
-1.44001889411907
 20
0.2191796546435975
 10
-1.437888766079353
 20
0.2204879822958139
 10
-1.435708022763186
 20
0.2217100810234149
 10
-1.433480152894609
 20
0.2228439957291366
 10
-1.431208720590198
 20
0.2238879123913406
 10
-1.428897359657106
 20
0.2248401609660559
 10
-1.426549767779753
 20
0.2256992180587014
 10
-1.424169700604323
 20
0.2264637093611816
 10
-1.421760965730577
 20
0.2271324118504964
 10
-1.419327416620532
 20
0.2277042557453117
 10
-1.416872946433585
 20
0.2281783262173835
 10
-1.414401481798442
 20
0.2285538648550851
 10
-1.411916976531344
 20
0.228830270876708
 10
-1.409423405310668
 20
0.2290071020915802
 10
-1.406924757318456
 20
0.2290840756074774
 10
-1.406250000002323
 20
0.2290877180931052
1001
REVIT
1002
{
1070
     2
1000
-2001160
1002
}
  0
LWPOLYLINE
  5
B7
330
AC
100
AcDbEntity
  8
P-SANR-FIXT
100
AcDbPolyline
 90
        9
 70
   128
 43
0.0
 10
-1.406250000002323
 20
0.2290877180931052
 10
-1.405125149994326
 20
0.2290877180931039
 10
-1.401752399490376
 20
0.2290877180931039
 10
-1.396137144171795
 20
0.2290877180931039
 10
-1.388288367249259
 20
0.2290877180931025
 10
-1.378218625091512
 20
0.2290877180931025
 10
-1.365944027137906
 20
0.2290877180931012
 10
-1.351484210126734
 20
0.2290877180931012
 10
-1.342009344272682
 20
0.2290877180930985
1001
REVIT
1002
{
1070
     2
1000
-2001160
1002
}
  0
LWPOLYLINE
  5
B8
330
AC
100
AcDbEntity
  8
P-SANR-FIXT
100
AcDbPolyline
 90
        9
 70
   128
 43
0.0
 10
1.342778366786703
 20
0.2290877180930626
 10
1.358408408062522
 20
0.2290877180930639
 10
1.371865285663794
 20
0.2290877180930639
 10
1.383127471457001
 20
0.2290877180930639
 10
1.392176948347319
 20
0.2290877180930639
 10
1.398999239102216
 20
0.2290877180930652
 10
1.403583429511783
 20
0.2290877180930652
 10
1.405922185849284
 20
0.2290877180930652
 10
1.406250000002984
 20
0.2290877180930652
1001
REVIT
1002
{
1070
     2
1000
-2001160
1002
}
  0
LINE
  5
B9
330
AC
100
AcDbEntity
  8
P-SANR-FIXT
100
AcDbLine
 10
-1.468750000002287
 20
0.1665877180931048
 30
0.0
 11
-1.468750000002287
 21
-0.0000000000000293
 31
0.0
1001
REVIT
1002
{
1070
     2
1000
-2001160
1002
}
  0
LINE
  5
BA
330
AC
100
AcDbEntity
  8
P-SANR-FIXT
100
AcDbLine
 10
1.468750000002948
 20
-0.0000000000000693
 30
0.0
 11
1.468750000002948
 21
0.1665877180930621
 31
0.0
1001
REVIT
1002
{
1070
     2
1000
-2001160
1002
}
  0
LWPOLYLINE
  5
BB
330
AC
100
AcDbEntity
  8
P-SANR-FIXT
100
AcDbPolyline
 90
        4
 70
   128
 43
0.0
 10
0.7458021851503531
 20
4.406249999999993
 10
0.9327875052792149
 20
4.787854750973185
 10
1.254507798312303
 20
4.993830437950771
 10
1.593750000000212
 20
4.99999999999997
1001
REVIT
1002
{
1070
     2
1000
-2001160
1002
}
  0
LWPOLYLINE
  5
BC
330
AC
100
AcDbEntity
  8
P-SANR-FIXT
100
AcDbPolyline
 90
        5
 70
   128
 43
0.0
 10
1.593750000000234
 20
6.999999999999974
 10
0.6254841703749036
 20
6.743850497863923
 10
-0.1504357143808121
 20
6.150435714381051
 10
-0.6264264186892845
 20
5.325877183482141
 10
-0.7458021851499694
 20
4.406250000000033
1001
REVIT
1002
{
1070
     2
1000
-2001160
1002
}
  0
LWPOLYLINE
  5
BD
330
AC
100
AcDbEntity
  8
P-SANR-FIXT
100
AcDbPolyline
 90
        5
 70
   128
 43
0.0
 10
-0.7458021851499694
 20
4.406250000000033
 10
-0.6264264186892845
 20
5.325877183482141
 10
-0.1504357143808121
 20
6.150435714381051
 10
0.6254841703749036
 20
6.743850497863923
 10
1.593750000000234
 20
6.999999999999974
1001
REVIT
1002
{
1070
     2
1000
-2001160
1002
}
  0
LWPOLYLINE
  5
BE
330
AC
100
AcDbEntity
  8
P-SANR-FIXT
100
AcDbPolyline
 90
        4
 70
   128
 43
0.0
 10
1.593750000000212
 20
4.99999999999997
 10
1.254507798312303
 20
4.993830437950771
 10
0.9327875052792149
 20
4.787854750973185
 10
0.7458021851503531
 20
4.406249999999993
1001
REVIT
1002
{
1070
     2
1000
-2001160
1002
}
  0
LINE
  5
BF
330
AC
100
AcDbEntity
  8
P-SANR-FIXT
100
AcDbLine
 10
-0.6703355662135663
 20
0.4601950373089778
 30
0.0
 11
-1.340671132428134
 21
0.4601950373089778
 31
0.0
1001
REVIT
1002
{
1070
     2
1000
-2001160
1002
}
  0
LINE
  5
C0
330
AC
100
AcDbEntity
  8
P-SANR-FIXT
100
AcDbLine
 10
0.6703355662155274
 20
0.4601950373089778
 30
0.0
 11
-0.6703355662135663
 21
0.4601950373089778
 31
0.0
1001
REVIT
1002
{
1070
     2
1000
-2001160
1002
}
  0
LINE
  5
C1
330
AC
100
AcDbEntity
  8
P-SANR-FIXT
100
AcDbLine
 10
1.340671132430095
 20
0.4601950373089778
 30
0.0
 11
0.6703355662155274
 21
0.4601950373089778
 31
0.0
1001
REVIT
1002
{
1070
     2
1000
-2001160
1002
}
  0
LINE
  5
C2
330
AC
100
AcDbEntity
  8
P-SANR-FIXT
100
AcDbLine
 10
1.468750000002956
 20
-0.0000000000000699
 30
0.0
 11
-1.468750000002293
 21
-0.0000000000000292
 31
0.0
1001
REVIT
1002
{
1070
     2
1000
-2001160
1002
}
  0
SPLINE
  5
C3
330
AC
100
AcDbEntity
  8
P-SANR-FIXT
100
AcDbSpline
210
0.0
220
0.0
230
1.0
 70
     8
 71
     3
 72
    16
 73
    12
 74
     0
 42
0.000000001
 43
0.0000000001
 40
0.0
 40
0.0
 40
0.0
 40
0.0
 40
0.1111111111111111
 40
0.2222222222222222
 40
0.3333333333333333
 40
0.4444444444444445
 40
0.5555555555555556
 40
0.6666666666666666
 40
0.7777777777777778
 40
0.8888888888888889
 40
1.0
 40
1.0
 40
1.0
 40
1.0
 10
0.7458021851505505
 20
4.406249999999988
 30
0.0
 10
0.7458021851505505
 20
4.406250991226755
 30
0.0
 10
0.7151691046795726
 20
4.406273760809936
 30
0.0
 10
0.5828855672740362
 20
4.406394434278726
 30
0.0
 10
0.3802797989337408
 20
4.406529153726308
 30
0.0
 10
0.1318390869526
 20
4.406685209776938
 30
0.0
 10
-0.1324653427012666
 20
4.406772846029395
 30
0.0
 10
-0.3807684988616317
 20
4.406723116257034
 30
0.0
 10
-0.583150427145044
 20
4.406585535152286
 30
0.0
 10
-0.7152287780983499
 20
4.406318581970027
 30
0.0
 10
-0.7458021851497647
 20
4.406263948311792
 30
0.0
 10
-0.7458021851497651
 20
4.406250000000023
 30
0.0
1001
REVIT
1002
{
1070
     2
1000
-2001160
1002
}
  0
LWPOLYLINE
  5
C4
330
AC
100
AcDbEntity
  8
P-SANR-FIXT
100
AcDbPolyline
 90
       13
 70
   128
 43
0.0
 10
1.593750000000236
 20
6.999999999999966
 10
1.593750000000233
 20
6.96587509220673
 10
1.59375000000023
 20
6.865984700494114
 10
1.593750000000226
 20
6.707106781186523
 10
1.593750000000222
 20
6.499968954463002
 10
1.593750000000217
 20
6.258812216039633
 10
1.593750000000214
 20
5.99999999999998
 10
1.593750000000211
 20
5.741187783960325
 10
1.593750000000209
 20
5.500031045536953
 10
1.593750000000208
 20
5.292893218813429
 10
1.593750000000208
 20
5.134015299505834
 10
1.593750000000209
 20
5.034124907793207
 10
1.593750000000212
 20
4.999999999999965
1001
REVIT
1002
{
1070
     2
1000
-2001160
1002
}
  0
LINE
  5
C5
330
AC
100
AcDbEntity
  8
P-SANR-FIXT
100
AcDbLine
 10
-0.6992030796730432
 20
0.4101950373089773
 30
0.0
 11
-0.6992030796730432
 21
0.2290877180930958
 31
0.0
1001
REVIT
1002
{
1070
     2
1000
-2001160
1002
}
  0
LINE
  5
C6
330
AC
100
AcDbEntity
  8
P-SANR-FIXT
100
AcDbLine
 10
0.699203079675023
 20
0.2290877180930958
 30
0.0
 11
0.699203079675023
 21
0.4101950373089773
 31
0.0
1001
REVIT
1002
{
1070
     2
1000
-2001160
1002
}
  0
LINE
  5
C7
330
AC
100
AcDbEntity
  8
P-SANR-FIXT
100
AcDbLine
 10
1.398406159349063
 20
0.2290877180930958
 30
0.0
 11
1.398406159349063
 21
0.4101950373089773
 31
0.0
1001
REVIT
1002
{
1070
     2
1000
-2001160
1002
}
  0
LINE
  5
C8
330
AC
100
AcDbEntity
  8
P-SANR-FIXT
100
AcDbLine
 10
-1.398406159347075
 20
0.2290877180930958
 30
0.0
 11
-1.398406159347075
 21
0.4101950373089773
 31
0.0
1001
REVIT
1002
{
1070
     2
1000
-2001160
1002
}
  0
SPLINE
  5
C9
330
AC
100
AcDbEntity
  8
P-SANR-FIXT
100
AcDbSpline
210
0.0
220
0.0
230
1.0
 70
     8
 71
     3
 72
    16
 73
    12
 74
     0
 42
0.000000001
 43
0.0000000001
 40
0.0
 40
0.0
 40
0.0
 40
0.0
 40
0.1666666666666666
 40
0.3333333333333333
 40
0.4166666666666666
 40
0.5
 40
0.5833333333333333
 40
0.6666666666666666
 40
0.75
 40
0.8333333333333332
 40
1.0
 40
1.0
 40
1.0
 40
1.0
 10
-1.398406159347076
 20
0.4101950373089775
 30
0.0
 10
-1.398400573245959
 20
0.4145583604389634
 30
0.0
 10
-1.397081979405082
 20
0.4232847561408656
 30
0.0
 10
-1.392218270131747
 20
0.4334489178844344
 30
0.0
 10
-1.38660411516618
 20
0.4407201085067787
 30
0.0
 10
-1.381613739797142
 20
0.445651502989349
 30
0.0
 10
-1.375916694492251
 20
0.4499761377456574
 30
0.0
 10
-1.369621650326299
 20
0.4536201719692598
 30
0.0
 10
-1.362828579528117
 20
0.4565210193665019
 30
0.0
 10
-1.353260643725678
 20
0.4593327724404794
 30
0.0
 10
-1.345737555465479
 20
0.4601950373089775
 30
0.0
 10
-1.340671132428112
 20
0.4601950373089771
 30
0.0
1001
REVIT
1002
{
1070
     2
1000
-2001160
1002
}
  0
SPLINE
  5
CA
330
AC
100
AcDbEntity
  8
P-SANR-FIXT
100
AcDbSpline
210
0.0
220
0.0
230
1.0
 70
     8
 71
     3
 72
    16
 73
    12
 74
     0
 42
0.000000001
 43
0.0000000001
 40
0.0
 40
0.0
 40
0.0
 40
0.0
 40
0.1666666666666666
 40
0.3333333333333333
 40
0.4166666666666666
 40
0.5
 40
0.5833333333333333
 40
0.6666666666666666
 40
0.75
 40
0.8333333333333332
 40
1.0
 40
1.0
 40
1.0
 40
1.0
 10
-0.6992030796730444
 20
0.4101950373089775
 30
0.0
 10
-0.6992086657741615
 20
0.4145583604389635
 30
0.0
 10
-0.6985377070959384
 20
0.4232847561408656
 30
0.0
 10
-0.6961076882925847
 20
0.4334489178844347
 30
0.0
 10
-0.6933053182948483
 20
0.4407201085067786
 30
0.0
 10
-0.6908053791469659
 20
0.4456515029893492
 30
0.0
 10
-0.6879610495378224
 20
0.4499761377456576
 30
0.0
 10
-0.6848101638787576
 20
0.4536201719692599
 30
0.0
 10
-0.681414232606965
 20
0.456521019366502
 30
0.0
 10
-0.6766387835973191
 20
0.4593327724404794
 30
0.0
 10
-0.6728266405271722
 20
0.4601950373089775
 30
0.0
 10
-0.6703355662135619
 20
0.4601950373089773
 30
0.0
1001
REVIT
1002
{
1070
     2
1000
-2001160
1002
}
  0
SPLINE
  5
CB
330
AC
100
AcDbEntity
  8
P-SANR-FIXT
100
AcDbSpline
210
0.0
220
0.0
230
1.0
 70
     8
 71
     3
 72
    16
 73
    12
 74
     0
 42
0.000000001
 43
0.0000000001
 40
0.0
 40
0.0
 40
0.0
 40
0.0
 40
0.1666666666666666
 40
0.3333333333333333
 40
0.4166666666666666
 40
0.5
 40
0.5833333333333333
 40
0.6666666666666666
 40
0.75
 40
0.8333333333333332
 40
1.0
 40
1.0
 40
1.0
 40
1.0
 10
0.6992030796750233
 20
0.4101950373089775
 30
0.0
 10
0.6991919074727895
 20
0.4145583604389635
 30
0.0
 10
0.6985442723101347
 20
0.4232847561408655
 30
0.0
 10
0.6961105818401539
 20
0.4334489178844345
 30
0.0
 10
0.6932987968723227
 20
0.4407201085067787
 30
0.0
 10
0.6908083606511668
 20
0.4456515029893492
 30
0.0
 10
0.6879556449554194
 20
0.4499761377456572
 30
0.0
 10
0.6848114864485333
 20
0.4536201719692599
 30
0.0
 10
0.6814143469221431
 20
0.4565210193665018
 30
0.0
 10
0.6766218601293508
 20
0.4593327724404793
 30
0.0
 10
0.6729109149392967
 20
0.4601950373089775
 30
0.0
 10
0.6703355662155419
 20
0.4601950373089771
 30
0.0
1001
REVIT
1002
{
1070
     2
1000
-2001160
1002
}
  0
SPLINE
  5
CC
330
AC
100
AcDbEntity
  8
P-SANR-FIXT
100
AcDbSpline
210
0.0
220
0.0
230
1.0
 70
     8
 71
     3
 72
    16
 73
    12
 74
     0
 42
0.000000001
 43
0.0000000001
 40
0.0
 40
0.0
 40
0.0
 40
0.0
 40
0.1666666666666666
 40
0.3333333333333333
 40
0.4166666666666666
 40
0.5
 40
0.5833333333333333
 40
0.6666666666666666
 40
0.75
 40
0.8333333333333332
 40
1.0
 40
1.0
 40
1.0
 40
1.0
 10
1.398406159349064
 20
0.4101950373089775
 30
0.0
 10
1.398400573247948
 20
0.4145583604389634
 30
0.0
 10
1.39708197940707
 20
0.4232847561408655
 30
0.0
 10
1.392218270133736
 20
0.4334489178844346
 30
0.0
 10
1.386604115168168
 20
0.4407201085067786
 30
0.0
 10
1.381613739799129
 20
0.445651502989349
 30
0.0
 10
1.375916694494238
 20
0.4499761377456576
 30
0.0
 10
1.369621650328288
 20
0.4536201719692599
 30
0.0
 10
1.362828579530105
 20
0.4565210193665022
 30
0.0
 10
1.353260643727667
 20
0.4593327724404793
 30
0.0
 10
1.345737555467465
 20
0.4601950373089775
 30
0.0
 10
1.340671132430101
 20
0.4601950373089771
 30
0.0
1001
REVIT
1002
{
1070
     2
1000
-2001160
1002
}
  0
ENDBLK
  5
CD
330
AC
100
AcDbEntity
  8
0
100
AcDbBlockEnd
  0
BLOCK
  5
D8
330
D7
100
AcDbEntity
  8
0
100
AcDbBlockBegin
  2
FamilyGeomCombination_15519-Back
 70
     0
 10
0.0
 20
0.0
 30
0.0
  3
FamilyGeomCombination_15519-Back
  1

  0
LINE
  5
D9
330
D7
100
AcDbEntity
  8
P-SANR-FIXT
100
AcDbLine
 10
0.7458021851498841
 20
1.33725580747598
 30
0.0
 11
0.7458021851498628
 21
4.406723191252858
 31
0.0
1001
REVIT
1002
{
1070
     2
1000
-2001160
1002
}
  0
LINE
  5
DA
330
D7
100
AcDbEntity
  8
P-SANR-FIXT
100
AcDbLine
 10
-0.7458021851504383
 20
4.406723191252859
 30
0.0
 11
-0.745802185150417
 21
1.337255807475964
 31
0.0
1001
REVIT
1002
{
1070
     2
1000
-2001160
1002
}
  0
LWPOLYLINE
  5
DB
330
D7
100
AcDbEntity
  8
P-SANR-FIXT
100
AcDbPolyline
 90
       12
 70
   128
 43
0.0
 10
0.7458021851498841
 20
1.33725580747598
 10
0.7472184254397689
 20
1.266453234835647
 10
0.7514648806270614
 20
1.195763931207794
 10
0.7585347572893184
 20
1.125300984398648
 10
0.7684167451320575
 20
1.055177120091807
 10
0.7810950350828065
 20
0.985504521511204
 10
0.7965493445821252
 20
0.9163946499518717
 10
0.8147549500315916
 20
0.8479580664656534
 10
0.835682726346185
 20
0.7803042549871013
 10
0.8592991935480752
 20
0.713541447182536
 10
0.8855665703277464
 20
0.6477764493024724
 10
0.8930988504058914
 20
0.6302254590867812
1001
REVIT
1002
{
1070
     2
1000
-2001160
1002
}
  0
LWPOLYLINE
  5
DC
330
D7
100
AcDbEntity
  8
P-SANR-FIXT
100
AcDbPolyline
 90
       12
 70
   128
 43
0.0
 10
-0.893098850406403
 20
0.6302254590867639
 10
-0.8661235961930698
 20
0.6957032850217612
 10
-0.8417883339689991
 20
0.7622074581354465
 10
-0.8201319949625654
 20
0.8296315859376365
 10
-0.8011892246963581
 20
0.8978678042068967
 10
-0.784990327561907
 20
0.9668069495502805
 10
-0.7715612183390589
 20
1.036338734041469
 10
-0.7609233807378359
 20
1.106351921657935
 10
-0.753093833029105
 20
1.176734506234841
 10
-0.7480851008190185
 20
1.247373890651015
 10
-0.7459051970106429
 20
1.318157066960323
 10
-0.7458021851503957
 20
1.337255807475964
1001
REVIT
1002
{
1070
     2
1000
-2001160
1002
}
  0
LWPOLYLINE
  5
DD
330
D7
100
AcDbEntity
  8
P-SANR-FIXT
100
AcDbPolyline
 90
       30
 70
   128
 43
0.0
 10
0.8930988504058914
 20
0.6302254590867826
 10
0.8978267551281218
 20
0.6199378810299318
 10
0.9029622714276966
 20
0.609847597700182
 10
0.9084971835741411
 20
0.5999707513983825
 10
0.9144226368887158
 20
0.5903231429716666
 10
0.9207291519100875
 20
0.5809202065354734
 10
0.9274066395596063
 20
0.5717769847822453
 10
0.9344444172814617
 20
0.562908104916338
 10
0.9418312261326063
 20
0.5543277552536109
 10
0.9495552487946524
 20
0.546049662523147
 10
0.9576041284790475
 20
0.5380870699074153
 10
0.9659649886953259
 20
0.5304527158560059
 10
0.9746244538506514
 20
0.5231588137068263
 10
0.98356867064804
 20
0.5162170321473649
 10
0.9927833302486417
 20
0.5096384765472827
 10
1.002253691162742
 20
0.5034336711921896
 10
1.011964602833138
 20
0.4976125424470314
 10
1.021900529872709
 20
0.4921844028760267
 10
1.032045576917773
 20
0.4871579363445488
 10
1.042383514057135
 20
0.482541184126791
 10
1.052897802796785
 20
0.4783415320414485
 10
1.063571622517563
 20
0.4745656986359771
 10
1.074387897384965
 20
0.47121972443836
 10
1.085329323666506
 20
0.4683089622935416
 10
1.096378397414198
 20
0.4658380688000276
 10
1.107517442467049
 20
0.4638109968603085
 10
1.118728638729151
 20
0.4622309893570681
 10
1.129994050678128
 20
0.4611005739652651
 10
1.141295656057991
 20
0.4604215591083811
 10
1.152615374711018
 20
0.4601950310653402
1001
REVIT
1002
{
1070
     2
1000
-2001160
1002
}
  0
LWPOLYLINE
  5
DE
330
D7
100
AcDbEntity
  8
P-SANR-FIXT
100
AcDbPolyline
 90
       30
 70
   128
 43
0.0
 10
-1.152617961347438
 20
0.460195031053499
 10
-1.141298240624919
 20
0.4604214556587016
 10
-1.12999662904076
 20
0.4611003672432443
 10
-1.118731206762724
 20
0.4622306796934174
 10
-1.10751999606321
 20
0.4638105847504223
 10
-1.096380932487768
 20
0.4658375549031958
 10
-1.085331836161891
 20
0.4683083474318907
 10
-1.074390383282725
 20
0.471219009595535
 10
-1.063574077840783
 20
0.4745648849555741
 10
-1.052900223617448
 20
0.4783406208251821
 10
-1.04238589650248
 20
0.4825401768324151
 10
-1.032047917176363
 20
0.4871568345835171
 10
-1.021902824200701
 20
0.4921832084109238
 10
-1.011966847560038
 20
0.4976112571887449
 10
-1.002255882697461
 20
0.5034322971968574
 10
-0.9927854650852053
 20
0.5096370160130079
 10
-0.9835707453711746
 20
0.5162154874106876
 10
-0.9746264651412202
 20
0.5231571872389966
 10
-0.9659669333357213
 20
0.5304510102590263
 10
-0.957606003358286
 20
0.5380852879098765
 10
-0.9495570509132774
 20
0.5460478069758645
 10
-0.9418329526076119
 20
0.554325829125065
 10
-0.9344460653508759
 20
0.5629061112879236
 10
-0.9274082065868823
 20
0.571774926843342
 10
-0.9207306353883025
 20
0.580918087578345
 10
-0.9144240344446002
 20
0.5903209663861921
 10
-0.9084984929719366
 20
0.5999685206666338
 10
-0.9029634905726735
 20
0.6098453163908539
 10
-0.8978278820698404
 20
0.6199355527926329
 10
-0.8930998833415484
 20
0.630223087646196
1001
REVIT
1002
{
1070
     2
1000
-2001160
1002
}
  0
LWPOLYLINE
  5
DF
330
D7
100
AcDbEntity
  8
P-SANR-FIXT
100
AcDbPolyline
 90
       41
 70
   128
 43
0.0
 10
1.406250000002387
 20
0.2290877180930999
 10
1.40874933338906
 20
0.229037724759411
 10
1.411244668375466
 20
0.2288878247370149
 10
1.41373201295795
 20
0.2286382578339662
 10
1.416207387915804
 20
0.2282894233040777
 10
1.418666833177077
 20
0.2278418792081775
 10
1.421106414154095
 20
0.2272963415213529
 10
1.423522228037647
 20
0.2266536829875236
 10
1.425910410040905
 20
0.2259149317232536
 10
1.428267139582089
 20
0.2250812695729718
 10
1.430588646396692
 20
0.224154030218282
 10
1.432871216569011
 20
0.2231346970443484
 10
1.435111198473741
 20
0.2220249007668066
 10
1.437305008617613
 20
0.2208264168229541
 10
1.439449137372456
 20
0.2195411625314398
 10
1.441540154589581
 20
0.2181711940249559
 10
1.443574715087535
 20
0.2167187029608701
 10
1.44554956400357
 20
0.215186013015034
 10
1.447461542000617
 20
0.2135755761644064
 10
1.449307590321822
 20
0.2118899687644071
 10
1.451084755683595
 20
0.2101318874273001
 10
1.452790195000573
 20
0.2083041447081823
 10
1.454421179933582
 20
0.2064096646055131
 10
1.455975101254672
 20
0.2044514778833175
 10
1.457449473021213
 20
0.2024327172226287
 10
1.458841936552893
 20
0.2003566122098598
 10
1.460150264205104
 20
0.1982264841701497
 10
1.461372362932706
 20
0.1960457408539588
 10
1.462506277638411
 20
0.1938178709853968
 10
1.463550194300644
 20
0.1915464386809935
 10
1.464502442875335
 20
0.1892350777478935
 10
1.465361499967997
 20
0.1868874858705247
 10
1.466125991270473
 20
0.1845074186950985
 10
1.466794693759801
 20
0.1820986838213745
 10
1.467366537654598
 20
0.1796651347113154
 10
1.467840608126692
 20
0.1772106645243667
 10
1.468216146764362
 20
0.1747391998892347
 10
1.468492552785995
 20
0.1722546946221204
 10
1.468669384000882
 20
0.1697611234014515
 10
1.468746357516785
 20
0.1672624754092422
 10
1.468750000002394
 20
0.1665877180930994
1001
REVIT
1002
{
1070
     2
1000
-2001160
1002
}
  0
LWPOLYLINE
  5
E0
330
D7
100
AcDbEntity
  8
P-SANR-FIXT
100
AcDbPolyline
 90
       15
 70
   128
 43
0.0
 10
1.212755944562978
 20
0.2290877180930879
 10
1.240253165934063
 20
0.2290877180930892
 10
1.265766246812858
 20
0.2290877180930892
 10
1.28925437171248
 20
0.2290877180930919
 10
1.310679964643632
 20
0.2290877180930919
 10
1.330008749228163
 20
0.2290877180930932
 10
1.347209803534006
 20
0.2290877180930932
 10
1.362255609543644
 20
0.2290877180930945
 10
1.375122097177005
 20
0.2290877180930959
 10
1.385788682798619
 20
0.2290877180930959
 10
1.39423830214693
 20
0.2290877180930985
 10
1.400457437633441
 20
0.2290877180930985
 10
1.404436139968055
 20
0.2290877180930999
 10
1.406168044075798
 20
0.2290877180930999
 10
1.406250000002387
 20
0.2290877180930999
1001
REVIT
1002
{
1070
     2
1000
-2001160
1002
}
  0
LWPOLYLINE
  5
E1
330
D7
100
AcDbEntity
  8
P-SANR-FIXT
100
AcDbPolyline
 90
       41
 70
   128
 43
0.0
 10
1.406250000002387
 20
0.2290877180930999
 10
1.40512514999439
 20
0.2290877180931012
 10
1.40175239949044
 20
0.2290877180931012
 10
1.396137144171859
 20
0.2290877180931012
 10
1.388288367249344
 20
0.2290877180931025
 10
1.378218625091598
 20
0.2290877180931025
 10
1.365944027137991
 20
0.2290877180931052
 10
1.351484210126819
 20
0.2290877180931052
 10
1.334862306680683
 20
0.2290877180931052
 10
1.316104908299315
 20
0.2290877180931065
 10
1.295242022818761
 20
0.2290877180931065
 10
1.272307026405236
 20
0.2290877180931065
 10
1.247336610160459
 20
0.2290877180931079
 10
1.220370721423755
 20
0.2290877180931079
 10
1.191452499864624
 20
0.2290877180931079
 10
1.160628208468679
 20
0.2290877180931079
 10
1.127947159526641
 20
0.2290877180931079
 10
1.093461635745313
 20
0.2290877180931092
 10
1.057226806606116
 20
0.2290877180931092
 10
1.019300640106066
 20
0.2290877180931092
 10
0.9797438100210554
 20
0.2290877180931092
 10
0.9386195988408585
 20
0.2290877180931092
 10
0.8959937965306961
 20
0.2290877180931092
 10
0.8519345952812356
 20
0.2290877180931092
 10
0.8065124804156551
 20
0.2290877180931092
 10
0.759800117628238
 20
0.2290877180931092
 10
0.7118722367346848
 20
0.2290877180931092
 10
0.6628055121203217
 20
0.2290877180931092
 10
0.6126784400775378
 20
0.2290877180931092
 10
0.561571213228369
 20
0.2290877180931092
 10
0.5095655922335424
 20
0.2290877180931092
 10
0.4567447749926358
 20
0.2290877180931079
 10
0.4031932635454253
 20
0.2290877180931079
 10
0.3489967288865614
 20
0.2290877180931079
 10
0.2942418739101029
 20
0.2290877180931079
 10
0.23901629470366
 20
0.2290877180931065
 10
0.1834083404131306
 20
0.2290877180931065
 10
0.1275069719029176
 20
0.2290877180931065
 10
0.0714016194377294
 20
0.2290877180931065
 10
0.0151820396129807
 20
0.2290877180931052
 10
-0.0000000000002345
 20
0.2290877180931052
1001
REVIT
1002
{
1070
     2
1000
-2001160
1002
}
  0
LWPOLYLINE
  5
E2
330
D7
100
AcDbEntity
  8
P-SANR-FIXT
100
AcDbPolyline
 90
       41
 70
   128
 43
0.0
 10
-1.468750000002884
 20
0.1665877180930688
 10
-1.468700006669209
 20
0.169087051479734
 10
-1.46855010664683
 20
0.1715823864661416
 10
-1.468300539743772
 20
0.1740697310486267
 10
-1.46795170521387
 20
0.1765451060064591
 10
-1.467504161117986
 20
0.1790045512677589
 10
-1.466958623431132
 20
0.1814441322447653
 10
-1.466315964897319
 20
0.1838599461283263
 10
-1.465577213633039
 20
0.1862481281315755
 10
-1.464743551482761
 20
0.1886048576727619
 10
-1.463816312128066
 20
0.1909263644873595
 10
-1.462796978954145
 20
0.1932089346596948
 10
-1.461687182676612
 20
0.1954489165644122
 10
-1.46048869873276
 20
0.1976427267083016
 10
-1.459203444441221
 20
0.1997868554631243
 10
-1.457833475934755
 20
0.2018778726802592
 10
-1.456380984870669
 20
0.2039124331782184
 10
-1.454848294924829
 20
0.2058872820942241
 10
-1.453237858074203
 20
0.2077992600912854
 10
-1.451552250674197
 20
0.2096453084124787
 10
-1.44979416933711
 20
0.2114224737742889
 10
-1.447966426617973
 20
0.2131279130912475
 10
-1.446071946515303
 20
0.214758898024256
 10
-1.444113759793111
 20
0.216312819345342
 10
-1.442094999132414
 20
0.2177871911118818
 10
-1.440018894119645
 20
0.2191796546435629
 10
-1.437888766079929
 20
0.2204879822957779
 10
-1.435708022763762
 20
0.2217100810233789
 10
-1.433480152895185
 20
0.2228439957291006
 10
-1.431208720590795
 20
0.223887912391306
 10
-1.428897359657682
 20
0.2248401609660213
 10
-1.426549767780329
 20
0.2256992180586667
 10
-1.424169700604899
 20
0.226463709361147
 10
-1.421760965731152
 20
0.2271324118504631
 10
-1.419327416621129
 20
0.2277042557452784
 10
-1.41687294643416
 20
0.2281783262173489
 10
-1.414401481799018
 20
0.2285538648550504
 10
-1.411916976531919
 20
0.2288302708766734
 10
-1.409423405311244
 20
0.2290071020915456
 10
-1.406924757319053
 20
0.2290840756074441
 10
-1.406250000002898
 20
0.2290877180930719
1001
REVIT
1002
{
1070
     2
1000
-2001160
1002
}
  0
LWPOLYLINE
  5
E3
330
D7
100
AcDbEntity
  8
P-SANR-FIXT
100
AcDbPolyline
 90
       41
 70
   128
 43
0.0
 10
-0.0000000000002345
 20
0.2290877180931052
 10
-0.0562350012003066
 20
0.2290877180931052
 10
-0.1123800383946189
 20
0.2290877180931025
 10
-0.1683452915006
 20
0.2290877180931025
 10
-0.2240412280519663
 20
0.2290877180931025
 10
-0.2793787464313268
 20
0.2290877180931012
 10
-0.3342693184140372
 20
0.2290877180931012
 10
-0.38862513079426
 20
0.2290877180930999
 10
-0.4423592258674915
 20
0.2290877180930999
 10
-0.4953856405442849
 20
0.2290877180930985
 10
-0.5476195438728197
 20
0.2290877180930985
 10
-0.5989773727504399
 20
0.2290877180930959
 10
-0.6493769656066703
 20
0.2290877180930959
 10
-0.6987376938443148
 20
0.2290877180930945
 10
-0.7469805908279028
 20
0.2290877180930945
 10
-0.7940284782135051
 20
0.2290877180930932
 10
-0.8398060894176706
 20
0.2290877180930932
 10
-0.8842401900278813
 20
0.2290877180930919
 10
-0.9272596949618685
 20
0.2290877180930919
 10
-0.9687957821887847
 20
0.2290877180930892
 10
-1.008782002829611
 20
0.2290877180930879
 10
-1.047154387461247
 20
0.2290877180930879
 10
-1.083851548453949
 20
0.2290877180930865
 10
-1.118814778178496
 20
0.2290877180930865
 10
-1.151988142925681
 20
0.2290877180930852
 10
-1.183318572388571
 20
0.2290877180930852
 10
-1.212755944563468
 20
0.2290877180930825
 10
-1.240253165934532
 20
0.2290877180930812
 10
-1.265766246813327
 20
0.2290877180930812
 10
-1.28925437171297
 20
0.2290877180930799
 10
-1.310679964644122
 20
0.2290877180930799
 10
-1.330008749228674
 20
0.2290877180930785
 10
-1.347209803534496
 20
0.2290877180930785
 10
-1.362255609544113
 20
0.2290877180930759
 10
-1.375122097177516
 20
0.2290877180930745
 10
-1.38578868279913
 20
0.2290877180930745
 10
-1.394238302147442
 20
0.2290877180930732
 10
-1.400457437633931
 20
0.2290877180930732
 10
-1.404436139968545
 20
0.2290877180930719
 10
-1.406168044076288
 20
0.2290877180930719
 10
-1.406250000002898
 20
0.2290877180930719
1001
REVIT
1002
{
1070
     2
1000
-2001160
1002
}
  0
LWPOLYLINE
  5
E4
330
D7
100
AcDbEntity
  8
P-SANR-FIXT
100
AcDbPolyline
 90
       15
 70
   128
 43
0.0
 10
-1.406250000002898
 20
0.2290877180930719
 10
-1.405125149994901
 20
0.2290877180930692
 10
-1.401752399490952
 20
0.2290877180930692
 10
-1.396137144172371
 20
0.2290877180930692
 10
-1.388288367249856
 20
0.2290877180930679
 10
-1.378218625092067
 20
0.2290877180930679
 10
-1.365944027138482
 20
0.2290877180930666
 10
-1.351484210127331
 20
0.2290877180930666
 10
-1.334862306681195
 20
0.2290877180930666
 10
-1.316104908299827
 20
0.2290877180930652
 10
-1.29524202281923
 20
0.2290877180930652
 10
-1.272307026405705
 20
0.2290877180930652
 10
-1.247336610160971
 20
0.2290877180930626
 10
-1.220370721424224
 20
0.2290877180930626
 10
-1.211055258804783
 20
0.2290877180930626
1001
REVIT
1002
{
1070
     2
1000
-2001160
1002
}
  0
LINE
  5
E5
330
D7
100
AcDbEntity
  8
P-SANR-FIXT
100
AcDbLine
 10
1.468750000002394
 20
-0.0000000000000346
 30
0.0
 11
1.468750000002394
 21
0.1665877180930994
 31
0.0
1001
REVIT
1002
{
1070
     2
1000
-2001160
1002
}
  0
LINE
  5
E6
330
D7
100
AcDbEntity
  8
P-SANR-FIXT
100
AcDbLine
 10
-1.468750000002863
 20
0.1665877180930688
 30
0.0
 11
-1.468750000002863
 21
-0.0000000000000653
 31
0.0
1001
REVIT
1002
{
1070
     2
1000
-2001160
1002
}
  0
LWPOLYLINE
  5
E7
330
D7
100
AcDbEntity
  8
P-SANR-FIXT
100
AcDbPolyline
 90
        9
 70
   128
 43
0.0
 10
0.8989156273283567
 20
5.636971868478887
 10
0.8988006742151311
 20
5.636535581997155
 10
0.8953374276127801
 20
5.62185238448696
 10
0.88195251388381
 20
5.553152399846324
 10
0.8671455368285874
 20
5.462526611180747
 10
0.8382513402395657
 20
5.2527263626561
 10
0.8155092956510754
 20
5.063645835290896
 10
0.7804154267312171
 20
4.742717623064463
 10
0.7458502312255461
 20
4.406723176472917
1001
REVIT
1002
{
1070
     2
1000
-2001160
1002
}
  0
LWPOLYLINE
  5
E8
330
D7
100
AcDbEntity
  8
P-SANR-FIXT
100
AcDbPolyline
 90
       10
 70
   128
 43
0.0
 10
-0.7458502312261217
 20
4.406723176472918
 10
-0.7779359124368951
 20
4.719076789445379
 10
-0.8055761909487484
 20
4.975857523739321
 10
-0.8292713678574441
 20
5.180244356937949
 10
-0.8493875628282976
 20
5.338121355437672
 10
-0.8661651343731334
 20
5.456075876292677
 10
-0.8797034278978157
 20
5.540263617144555
 10
-0.8899337087807024
 20
5.595957197817409
 10
-0.8965422511153134
 20
5.627185694633827
 10
-0.8989156273289323
 20
5.636971868478866
1001
REVIT
1002
{
1070
     2
1000
-2001160
1002
}
  0
LINE
  5
E9
330
D7
100
AcDbEntity
  8
P-SANR-FIXT
100
AcDbLine
 10
-0.0000000000007461
 20
0.4601950373089778
 30
0.0
 11
-1.161055258804786
 21
0.4601950373089778
 31
0.0
1001
REVIT
1002
{
1070
     2
1000
-2001160
1002
}
  0
LINE
  5
EA
330
D7
100
AcDbEntity
  8
P-SANR-FIXT
100
AcDbLine
 10
1.161055258803336
 20
0.4601950373089778
 30
0.0
 11
-0.0000000000007461
 21
0.4601950373089778
 31
0.0
1001
REVIT
1002
{
1070
     2
1000
-2001160
1002
}
  0
LINE
  5
EB
330
D7
100
AcDbEntity
  8
P-SANR-FIXT
100
AcDbLine
 10
1.468750000002378
 20
-0.0000000000000345
 30
0.0
 11
-0.0000000000002419
 21
-0.0000000000000292
 31
0.0
1001
REVIT
1002
{
1070
     2
1000
-2001160
1002
}
  0
LINE
  5
EC
330
D7
100
AcDbEntity
  8
P-SANR-FIXT
100
AcDbLine
 10
-0.0000000000002419
 20
-0.0000000000000292
 30
0.0
 11
-1.468750000002871
 21
-0.0000000000000646
 31
0.0
1001
REVIT
1002
{
1070
     2
1000
-2001160
1002
}
  0
SPLINE
  5
ED
330
D7
100
AcDbEntity
  8
P-SANR-FIXT
100
AcDbSpline
210
0.0
220
0.0
230
1.0
 70
     8
 71
     3
 72
     8
 73
     4
 74
     0
 42
0.000000001
 43
0.0000000001
 40
0.4444444444444445
 40
0.4444444444444445
 40
0.4444444444444445
 40
0.4444444444444445
 40
0.4998580324928926
 40
0.4998580324928926
 40
0.4998580324928926
 40
0.4998580324928926
 10
0.7345267297541313
 20
4.406673806477242
 30
0.0
 10
0.7420230568502684
 20
4.406694062274583
 30
0.0
 10
0.7456681021873645
 20
4.406711433801365
 30
0.0
 10
0.7456172831343945
 20
4.406724567473064
 30
0.0
1001
REVIT
1002
{
1070
     2
1000
-2001160
1002
}
  0
SPLINE
  5
EE
330
D7
100
AcDbEntity
  8
P-SANR-FIXT
100
AcDbSpline
210
0.0
220
0.0
230
1.0
 70
     8
 71
     3
 72
    12
 73
     8
 74
     0
 42
0.000000001
 43
0.0000000001
 40
0.4998675190590358
 40
0.4998675190590358
 40
0.4998675190590358
 40
0.4998675190590358
 40
0.5555555555555556
 40
0.6666666666666666
 40
0.7777777777777778
 40
0.8888888888888889
 40
1.0
 40
1.0
 40
1.0
 40
1.0
 10
0.7457725250785084
 20
4.406724646410022
 30
0.0
 10
0.7457724336233684
 20
4.4067378679651
 30
0.0
 10
0.7344372882092003
 20
4.406764577498743
 30
0.0
 10
0.6589995574318781
 20
4.406723116257037
 30
0.0
 10
0.4890807760263664
 20
4.406585535152286
 30
0.0
 10
0.2602053549872359
 20
4.406318581970028
 30
0.0
 10
0.08674119344632
 20
4.406263948311792
 30
0.0
 10
-0.0000000000002895
 20
4.406250000000023
 30
0.0
1001
REVIT
1002
{
1070
     2
1000
-2001160
1002
}
  0
SPLINE
  5
EF
330
D7
100
AcDbEntity
  8
P-SANR-FIXT
100
AcDbSpline
210
0.0
220
0.0
230
1.0
 70
     8
 71
     3
 72
    12
 73
     8
 74
     0
 42
0.000000001
 43
0.0000000001
 40
0.0
 40
0.0
 40
0.0
 40
0.0
 40
0.1111111111111111
 40
0.2222222222222222
 40
0.3333333333333333
 40
0.4444444444444445
 40
0.5001324809409664
 40
0.5001324809409664
 40
0.5001324809409664
 40
0.5001324809409664
 10
-0.0000000000002895
 20
4.406250000000023
 30
0.0
 10
-0.0867411934468988
 20
4.406263948311791
 30
0.0
 10
-0.2602053549878156
 20
4.406318581970029
 30
0.0
 10
-0.4890807760269463
 20
4.406585535152284
 30
0.0
 10
-0.6589995574324603
 20
4.406723116257037
 30
0.0
 10
-0.7344372882097833
 20
4.406764577498743
 30
0.0
 10
-0.7457724336239524
 20
4.406737867965102
 30
0.0
 10
-0.7457725250790923
 20
4.406724646410023
 30
0.0
1001
REVIT
1002
{
1070
     2
1000
-2001160
1002
}
  0
SPLINE
  5
F0
330
D7
100
AcDbEntity
  8
P-SANR-FIXT
100
AcDbSpline
210
0.0
220
0.0
230
1.0
 70
     8
 71
     3
 72
     8
 73
     4
 74
     0
 42
0.000000001
 43
0.0000000001
 40
0.5001419675071098
 40
0.5001419675071098
 40
0.5001419675071098
 40
0.5001419675071098
 40
0.5555555555555556
 40
0.5555555555555556
 40
0.5555555555555556
 40
0.5555555555555556
 10
-0.7457725247963728
 20
4.406724639652695
 30
0.0
 10
-0.7457713328317293
 20
4.406711481798468
 30
0.0
 10
-0.741911712184745
 20
4.406694123726873
 30
0.0
 10
-0.734526729754716
 20
4.406673806477245
 30
0.0
1001
REVIT
1002
{
1070
     2
1000
-2001160
1002
}
  0
LWPOLYLINE
  5
F1
330
D7
100
AcDbEntity
  8
P-SANR-FIXT
100
AcDbPolyline
 90
        9
 70
   128
 43
0.0
 10
-0.0000000000003218
 20
6.999999999999966
 10
0.2588182274261059
 20
6.96587509220673
 10
0.4999665778679347
 20
6.865984700494114
 10
0.7071067811862294
 20
6.707106781186523
 10
0.8659851198929018
 20
6.499968954463002
 10
0.9658749524067571
 20
6.258812216039633
 10
0.9999999999996916
 20
5.99999999999998
 10
0.9658749524067649
 20
5.741187783960325
 10
0.8780798616265087
 20
5.521568806703579
1001
REVIT
1002
{
1070
     2
1000
-2001160
1002
}
  0
LWPOLYLINE
  5
F2
330
D7
100
AcDbEntity
  8
P-SANR-FIXT
100
AcDbPolyline
 90
        9
 70
   128
 43
0.0
 10
-0.8743932117627199
 20
5.514871069055681
 10
-0.9658749524073744
 20
5.7411877839603
 10
-1.000000000000308
 20
5.999999999999953
 10
-0.9658749524073806
 20
6.258812216039609
 10
-0.8659851198935321
 20
6.499968954462981
 10
-0.7071067811868646
 20
6.707106781186504
 10
-0.4999665778685743
 20
6.8659847004941
 10
-0.2588182274267488
 20
6.965875092206723
 10
-0.0000000000003218
 20
6.999999999999966
1001
REVIT
1002
{
1070
     2
1000
-2001160
1002
}
  0
LINE
  5
F3
330
D7
100
AcDbEntity
  8
P-SANR-FIXT
100
AcDbLine
 10
1.211055258803318
 20
0.4101950373089773
 30
0.0
 11
1.211055258803318
 21
0.2290877180930958
 31
0.0
1001
REVIT
1002
{
1070
     2
1000
-2001160
1002
}
  0
LINE
  5
F4
330
D7
100
AcDbEntity
  8
P-SANR-FIXT
100
AcDbLine
 10
-1.211055258804798
 20
0.2290877180930958
 30
0.0
 11
-1.211055258804798
 21
0.4101950373089773
 31
0.0
1001
REVIT
1002
{
1070
     2
1000
-2001160
1002
}
  0
LINE
  5
F5
330
D7
100
AcDbEntity
  8
P-SANR-FIXT
100
AcDbLine
 10
-0.0000000000007441
 20
0.2290877180930958
 30
0.0
 11
-0.0000000000007441
 21
0.4101950373089773
 31
0.0
1001
REVIT
1002
{
1070
     2
1000
-2001160
1002
}
  0
SPLINE
  5
F6
330
D7
100
AcDbEntity
  8
P-SANR-FIXT
100
AcDbSpline
210
0.0
220
0.0
230
1.0
 70
     8
 71
     3
 72
    16
 73
    12
 74
     0
 42
0.000000001
 43
0.0000000001
 40
0.0
 40
0.0
 40
0.0
 40
0.0
 40
0.1666666666666666
 40
0.3333333333333333
 40
0.4166666666666666
 40
0.5
 40
0.5833333333333333
 40
0.6666666666666666
 40
0.75
 40
0.8333333333333332
 40
1.0
 40
1.0
 40
1.0
 40
1.0
 10
-0.0000000000007444
 20
0.4101950373089775
 30
0.0
 10
-0.0000096754116951
 20
0.4145583604389634
 30
0.0
 10
0.0000037904262971
 20
0.4232847561408656
 30
0.0
 10
0.0000016705885808
 20
0.4334489178844344
 30
0.0
 10
-0.0000037651469375
 20
0.4407201085067787
 30
0.0
 10
0.0000017213703664
 20
0.445651502989349
 30
0.0
 10
-0.0000031203389923
 20
0.4499761377456574
 30
0.0
 10
0.0000007635841292
 20
0.4536201719692598
 30
0.0
 10
0.0000000659980119
 20
0.4565210193665019
 30
0.0
 10
-0.0000097707706736
 20
0.4593327724404794
 30
0.0
 10
0.0000486558526387
 20
0.4601950373089775
 30
0.0
 10
-0.0000000000007437
 20
0.4601950373089771
 30
0.0
1001
REVIT
1002
{
1070
     2
1000
-2001160
1002
}
  0
SPLINE
  5
F7
330
D7
100
AcDbEntity
  8
P-SANR-FIXT
100
AcDbSpline
210
0.0
220
0.0
230
1.0
 70
     8
 71
     3
 72
    16
 73
    12
 74
     0
 42
0.000000001
 43
0.0000000001
 40
0.0
 40
0.0
 40
0.0
 40
0.0
 40
0.1666666666666666
 40
0.3333333333333333
 40
0.4166666666666666
 40
0.5
 40
0.5833333333333333
 40
0.6666666666666666
 40
0.75
 40
0.8333333333333332
 40
1.0
 40
1.0
 40
1.0
 40
1.0
 10
1.211055258803319
 20
0.4101950373089775
 30
0.0
 10
1.211045583392368
 20
0.4145583604389635
 30
0.0
 10
1.20991038054789
 20
0.4232847561408656
 30
0.0
 10
1.205697224841703
 20
0.4334489178844347
 30
0.0
 10
1.20083250615298
 20
0.4407201085067786
 30
0.0
 10
1.196513457567625
 20
0.4456515029893492
 30
0.0
 10
1.191577250752399
 20
0.4499761377456576
 30
0.0
 10
1.1861275245483
 20
0.4536201719692599
 30
0.0
 10
1.18024420387431
 20
0.456521019366502
 30
0.0
 10
1.171953210023277
 20
0.4593327724404794
 30
0.0
 10
1.165467237786687
 20
0.4601950373089775
 30
0.0
 10
1.161055258803318
 20
0.4601950373089773
 30
0.0
1001
REVIT
1002
{
1070
     2
1000
-2001160
1002
}
  0
SPLINE
  5
F8
330
D7
100
AcDbEntity
  8
P-SANR-FIXT
100
AcDbSpline
210
0.0
220
0.0
230
1.0
 70
     8
 71
     3
 72
    16
 73
    12
 74
     0
 42
0.000000001
 43
0.0000000001
 40
-1.0
 40
-1.0
 40
-1.0
 40
-1.0
 40
-0.8333333333333333
 40
-0.75
 40
-0.6666666666666666
 40
-0.5833333333333333
 40
-0.5
 40
-0.4166666666666666
 40
-0.3333333333333333
 40
-0.1666666666666666
 40
0.0
 40
0.0
 40
0.0
 40
0.0
 10
-1.161055258804797
 20
0.4601950373089773
 30
0.0
 10
-1.165418581934783
 20
0.4601950373089775
 30
0.0
 10
-1.171962980794685
 20
0.4593327724404791
 30
0.0
 10
-1.180244137877034
 20
0.4565210193665016
 30
0.0
 10
-1.186126760964907
 20
0.4536201719692597
 30
0.0
 10
-1.191580371092126
 20
0.4499761377456569
 30
0.0
 10
-1.196511736197994
 20
0.4456515029893488
 30
0.0
 10
-1.200836271300652
 20
0.4407201085067781
 30
0.0
 10
-1.205695554253856
 20
0.4334489178844341
 30
0.0
 10
-1.209906590122328
 20
0.4232847561408652
 30
0.0
 10
-1.211055258804798
 20
0.4145583604389633
 30
0.0
 10
-1.211055258804798
 20
0.4101950373089775
 30
0.0
1001
REVIT
1002
{
1070
     2
1000
-2001160
1002
}
  0
ENDBLK
  5
F9
330
D7
100
AcDbEntity
  8
0
100
AcDbBlockEnd
  0
BLOCK
  5
166
330
165
100
AcDbEntity
  8
0
100
AcDbBlockBegin
  2
Tub_Filler-DXV-Oak_Hill-D35155760_Series - Left View
 70
     0
 10
0.0
 20
0.0
 30
0.0
  3
Tub_Filler-DXV-Oak_Hill-D35155760_Series - Left View
  1

  0
LINE
  5
168
330
165
100
AcDbEntity
  8
P-SANR-FIXT
 62
     0
100
AcDbLine
 10
-9.040437006660742
 20
0.7458021851500004
 30
0.0
 11
-12.10943119918479
 21
0.7458021851500436
 31
0.0
1001
REVIT
1002
{
1070
     2
1000
-2001160
1002
}
  0
LINE
  5
169
330
165
100
AcDbEntity
  8
P-SANR-FIXT
 62
     0
100
AcDbLine
 10
-12.10943119918481
 20
-0.7458021851502787
 30
0.0
 11
-9.040437006660777
 21
-0.7458021851503221
 31
0.0
1001
REVIT
1002
{
1070
     2
1000
-2001160
1002
}
  0
LWPOLYLINE
  5
16A
330
165
100
AcDbEntity
  8
P-SANR-FIXT
 62
     0
100
AcDbPolyline
 90
       12
 70
   128
 43
0.0
 10
-12.10943119918481
 20
-0.7458021851502574
 10
-12.18023377182514
 20
-0.7472184254401208
 10
-12.25092307545299
 20
-0.7514648806274346
 10
-12.32138602226214
 20
-0.7585347572897129
 10
-12.39150988656898
 20
-0.7684167451324521
 10
-12.46118248514958
 20
-0.7810950350831797
 10
-12.53029235670892
 20
-0.7965493445824984
 10
-12.59872894019514
 20
-0.8147549500319863
 10
-12.66638275167369
 20
-0.8356827263465371
 10
-12.73314555947825
 20
-0.8592991935484697
 10
-12.79891055735832
 20
-0.8855665703280983
 10
-12.81646154757401
 20
-0.8930988504062646
1001
REVIT
1002
{
1070
     2
1000
-2001160
1002
}
  0
LWPOLYLINE
  5
16B
330
165
100
AcDbEntity
  8
P-SANR-FIXT
 62
     0
100
AcDbPolyline
 90
       12
 70
   128
 43
0.0
 10
-12.81646154757398
 20
0.8930988504060513
 10
-12.75098372163899
 20
0.8661235961926967
 10
-12.6844795485253
 20
0.8417883339686472
 10
-12.61705542072311
 20
0.8201319949621922
 10
-12.54881920245385
 20
0.8011892246959849
 10
-12.47988005711047
 20
0.784990327561555
 10
-12.41034827261928
 20
0.7715612183386856
 10
-12.34033508500282
 20
0.7609233807374626
 10
-12.26995250042591
 20
0.753093833028753
 10
-12.19931311600974
 20
0.7480851008186665
 10
-12.12852993970043
 20
0.7459051970102482
 10
-12.10943119918479
 20
0.745802185150001
1001
REVIT
1002
{
1070
     2
1000
-2001160
1002
}
  0
LWPOLYLINE
  5
16C
330
165
100
AcDbEntity
  8
P-SANR-FIXT
 62
     0
100
AcDbPolyline
 90
       30
 70
   128
 43
0.0
 10
-12.81646154757401
 20
-0.8930988504062646
 10
-12.82674912563086
 20
-0.8978267551284737
 10
-12.83683940896061
 20
-0.9029622714280911
 10
-12.84671625526241
 20
-0.9084971835745143
 10
-12.85636386368912
 20
-0.9144226368890464
 10
-12.86576680012531
 20
-0.9207291519104394
 10
-12.87491002187855
 20
-0.9274066395599582
 10
-12.88377890174445
 20
-0.9344444172818135
 10
-12.89235925140718
 20
-0.9418312261329582
 10
-12.90063734413765
 20
-0.9495552487950043
 10
-12.90859993675338
 20
-0.9576041284794207
 10
-12.91623429080479
 20
-0.9659649886956778
 10
-12.92352819295397
 20
-0.9746244538510033
 10
-12.93046997451343
 20
-0.9835686706484132
 10
-12.93704853011351
 20
-0.9927833302489723
 10
-12.9432533354686
 20
-1.002253691163094
 10
-12.94907446421376
 20
-1.01196460283349
 10
-12.95450260378476
 20
-1.021900529873082
 10
-12.95952907031624
 20
-1.032045576918125
 10
-12.964145822534
 20
-1.042383514057508
 10
-12.96834547461935
 20
-1.052897802797115
 10
-12.97212130802482
 20
-1.063571622517937
 10
-12.97546728222243
 20
-1.074387897385317
 10
-12.97837804436725
 20
-1.085329323666858
 10
-12.98084893786077
 20
-1.09637839741455
 10
-12.98287600980049
 20
-1.1075174424674
 10
-12.98445601730373
 20
-1.118728638729503
 10
-12.98558643269553
 20
-1.129994050678479
 10
-12.98626544755241
 20
-1.141295656058342
 10
-12.98649197559545
 20
-1.152615374711391
1001
REVIT
1002
{
1070
     2
1000
-2001160
1002
}
  0
LWPOLYLINE
  5
16D
330
165
100
AcDbEntity
  8
P-SANR-FIXT
 62
     0
100
AcDbPolyline
 90
       30
 70
   128
 43
0.0
 10
-12.98649197560724
 20
1.152617961347086
 10
-12.98626555100204
 20
1.141298240624546
 10
-12.9855866394175
 20
1.12999662904043
 10
-12.98445632696732
 20
1.118731206762351
 10
-12.98287642191032
 20
1.107519996062837
 10
-12.98084945175755
 20
1.096380932487395
 10
-12.97837865922885
 20
1.085331836161518
 10
-12.97546799706521
 20
1.074390383282352
 10
-12.97212212170517
 20
1.063574077840431
 10
-12.96834638583556
 20
1.052900223617075
 10
-12.96414682982833
 20
1.042385896502128
 10
-12.95953017207723
 20
1.032047917176011
 10
-12.95450379824982
 20
1.021902824200328
 10
-12.949075749472
 20
1.011966847559665
 10
-12.94325470946389
 20
1.002255882697109
 10
-12.93704999064774
 20
0.9927854650848322
 10
-12.93047151925006
 20
0.9835707453708229
 10
-12.92352981942175
 20
0.9746264651408685
 10
-12.91623599640172
 20
0.9659669333353695
 10
-12.90860171875087
 20
0.957606003357913
 10
-12.90063919968488
 20
0.9495570509129043
 10
-12.89236117753568
 20
0.9418329526072602
 10
-12.88378089537282
 20
0.9344460653505029
 10
-12.8749120798174
 20
0.9274082065865092
 10
-12.8657689190824
 20
0.9207306353879294
 10
-12.85636604027455
 20
0.9144240344442271
 10
-12.84671848599411
 20
0.9084984929716062
 10
-12.83684169026989
 20
0.9029634905723005
 10
-12.82675145386811
 20
0.8978278820694674
 10
-12.81646391901455
 20
0.8930998833411754
1001
REVIT
1002
{
1070
     2
1000
-2001160
1002
}
  0
LWPOLYLINE
  5
16E
330
165
100
AcDbEntity
  8
P-SANR-FIXT
 62
     0
100
AcDbPolyline
 90
        2
 70
   128
 43
0.0
 10
-13.2175992885677
 20
-1.40625000000276
 10
-13.21759928856766
 20
1.406250000002547
1001
REVIT
1002
{
1070
     2
1000
-2001160
1002
}
  0
LWPOLYLINE
  5
16F
330
165
100
AcDbEntity
  8
P-SANR-FIXT
 62
     0
100
AcDbPolyline
 90
       41
 70
   128
 43
0.0
 10
-13.2175992885677
 20
-1.40625000000276
 10
-13.21764928190139
 20
-1.408749333389412
 10
-13.21779918192379
 20
-1.411244668375818
 10
-13.21804874882684
 20
-1.413732012958302
 10
-13.21839758335672
 20
-1.416207387916134
 10
-13.21884512745263
 20
-1.418666833177429
 10
-13.21939066513945
 20
-1.421106414154447
 10
-13.22003332367328
 20
-1.42352222803802
 10
-13.22077207493755
 20
-1.425910410041257
 10
-13.22160573708783
 20
-1.428267139582441
 10
-13.22253297644252
 20
-1.430588646397044
 10
-13.22355230961645
 20
-1.432871216569384
 10
-13.224662105894
 20
-1.435111198474093
 10
-13.22586058983785
 20
-1.437305008617986
 10
-13.22714584412936
 20
-1.439449137372807
 10
-13.22851581263585
 20
-1.441540154589933
 10
-13.22996830369993
 20
-1.443574715087908
 10
-13.23150099364577
 20
-1.4455495640039
 10
-13.2331114304964
 20
-1.447461542000968
 10
-13.23479703789639
 20
-1.449307590322152
 10
-13.2365551192335
 20
-1.451084755683968
 10
-13.23838286195262
 20
-1.452790195000925
 10
-13.24027734205529
 20
-1.454421179933934
 10
-13.24223552877749
 20
-1.455975101255024
 10
-13.24425428943817
 20
-1.457449473021565
 10
-13.24633039445094
 20
-1.458841936553245
 10
-13.24846052249065
 20
-1.460150264205456
 10
-13.25064126580684
 20
-1.461372362933058
 10
-13.25286913567541
 20
-1.462506277638784
 10
-13.25514056797981
 20
-1.463550194300996
 10
-13.25745192891291
 20
-1.464502442875708
 10
-13.25979952079028
 20
-1.465361499968348
 10
-13.26217958796571
 20
-1.466125991270825
 10
-13.26458832283943
 20
-1.466794693760153
 10
-13.26702187194949
 20
-1.467366537654949
 10
-13.26947634213644
 20
-1.467840608127023
 10
-13.27194780677157
 20
-1.468216146764735
 10
-13.27443231203868
 20
-1.468492552786347
 10
-13.27692588325935
 20
-1.468669384001213
 10
-13.27942453125156
 20
-1.468746357517115
 10
-13.28009928856771
 20
-1.468750000002746
1001
REVIT
1002
{
1070
     2
1000
-2001160
1002
}
  0
LWPOLYLINE
  5
170
330
165
100
AcDbEntity
  8
P-SANR-FIXT
 62
     0
100
AcDbPolyline
 90
       41
 70
   128
 43
0.0
 10
-13.28009928856766
 20
1.468750000002532
 10
-13.277599955181
 20
1.468700006668857
 10
-13.27510462019459
 20
1.468550106646457
 10
-13.27261727561211
 20
1.46830053974342
 10
-13.27014190065427
 20
1.467951705213518
 10
-13.26768245539297
 20
1.467504161117634
 10
-13.26524287441597
 20
1.466958623430801
 10
-13.2628270605324
 20
1.466315964896967
 10
-13.26043887852916
 20
1.465577213632687
 10
-13.25808214898797
 20
1.46474355148241
 10
-13.25576064217337
 20
1.463816312127715
 10
-13.25347807200104
 20
1.462796978953793
 10
-13.25123809009632
 20
1.461687182676261
 10
-13.24904427995243
 20
1.460488698732408
 10
-13.24690015119761
 20
1.45920344444087
 10
-13.24480913398047
 20
1.457833475934403
 10
-13.24277457348251
 20
1.456380984870317
 10
-13.24079972456651
 20
1.454848294924477
 10
-13.23888774656945
 20
1.453237858073851
 10
-13.23704169824825
 20
1.451552250673845
 10
-13.23526453288644
 20
1.449794169336737
 10
-13.23355909356948
 20
1.447966426617622
 10
-13.23192810863648
 20
1.446071946514951
 10
-13.23037418731539
 20
1.444113759792759
 10
-13.22889981554885
 20
1.442094999132063
 10
-13.22750735201717
 20
1.440018894119294
 10
-13.22619902436495
 20
1.437888766079577
 10
-13.22497692563735
 20
1.43570802276341
 10
-13.22384301093163
 20
1.433480152894833
 10
-13.22279909426943
 20
1.431208720590422
 10
-13.22184684569471
 20
1.42889735965733
 10
-13.22098778860207
 20
1.426549767779977
 10
-13.22022329729959
 20
1.424169700604547
 10
-13.21955459481027
 20
1.4217609657308
 10
-13.21898275091546
 20
1.419327416620756
 10
-13.21850868044339
 20
1.416872946433809
 10
-13.21813314180568
 20
1.414401481798666
 10
-13.21785673578406
 20
1.411916976531568
 10
-13.21767990456919
 20
1.409423405310892
 10
-13.21760293105329
 20
1.40692475731868
 10
-13.21759928856766
 20
1.406250000002547
1001
REVIT
1002
{
1070
     2
1000
-2001160
1002
}
  0
LINE
  5
171
330
165
100
AcDbEntity
  8
P-SANR-FIXT
 62
     0
100
AcDbLine
 10
-13.28009928856766
 20
1.468750000002511
 30
0.0
 11
-13.4466870066608
 21
1.468750000002511
 31
0.0
1001
REVIT
1002
{
1070
     2
1000
-2001160
1002
}
  0
LINE
  5
172
330
165
100
AcDbEntity
  8
P-SANR-FIXT
 62
     0
100
AcDbLine
 10
-13.44668700666084
 20
-1.468750000002724
 30
0.0
 11
-13.28009928856771
 21
-1.468750000002724
 31
0.0
1001
REVIT
1002
{
1070
     2
1000
-2001160
1002
}
  0
LINE
  5
173
330
165
100
AcDbEntity
  8
P-SANR-FIXT
 62
     0
100
AcDbLine
 10
-12.98649196935179
 20
-1.340671132429871
 30
0.0
 11
-12.98649196935179
 21
1.340671132428358
 31
0.0
1001
REVIT
1002
{
1070
     2
1000
-2001160
1002
}
  0
LINE
  5
174
330
165
100
AcDbEntity
  8
P-SANR-FIXT
 62
     0
100
AcDbLine
 10
-13.44668700666084
 20
-1.468750000002733
 30
0.0
 11
-13.4466870066608
 21
1.468750000002516
 31
0.0
1001
REVIT
1002
{
1070
     2
1000
-2001160
1002
}
  0
LWPOLYLINE
  5
175
330
165
100
AcDbEntity
  8
P-SANR-FIXT
 62
     0
100
AcDbPolyline
 90
        2
 70
   128
 43
0.0
 10
-6.446687006660804
 20
-1.593750000000014
 10
-8.446687006660805
 20
-1.593749999999989
1001
REVIT
1002
{
1070
     2
1000
-2001160
1002
}
  0
LINE
  5
176
330
165
100
AcDbEntity
  8
P-SANR-FIXT
 62
     0
100
AcDbLine
 10
-13.03649196935179
 20
0.6992030796732669
 30
0.0
 11
-13.21759928856767
 21
0.699203079673267
 31
0.0
1001
REVIT
1002
{
1070
     2
1000
-2001160
1002
}
  0
LINE
  5
177
330
165
100
AcDbEntity
  8
P-SANR-FIXT
 62
     0
100
AcDbLine
 10
-13.21759928856767
 20
-0.6992030796747992
 30
0.0
 11
-13.03649196935179
 21
-0.6992030796747994
 31
0.0
1001
REVIT
1002
{
1070
     2
1000
-2001160
1002
}
  0
LINE
  5
178
330
165
100
AcDbEntity
  8
P-SANR-FIXT
 62
     0
100
AcDbLine
 10
-13.21759928856767
 20
-1.398406159348839
 30
0.0
 11
-13.03649196935179
 21
-1.398406159348839
 31
0.0
1001
REVIT
1002
{
1070
     2
1000
-2001160
1002
}
  0
LINE
  5
179
330
165
100
AcDbEntity
  8
P-SANR-FIXT
 62
     0
100
AcDbLine
 10
-13.21759928856767
 20
1.398406159347298
 30
0.0
 11
-13.03649196935179
 21
1.398406159347298
 31
0.0
1001
REVIT
1002
{
1070
     2
1000
-2001160
1002
}
  0
SPLINE
  5
17A
330
165
100
AcDbEntity
  8
P-SANR-FIXT
 62
     0
100
AcDbSpline
210
0.0
220
0.0
230
1.0
 70
     8
 71
     3
 72
    16
 73
    12
 74
     0
 42
0.000000001
 43
0.0000000001
 40
0.0
 40
0.0
 40
0.0
 40
0.0
 40
0.1666666666666666
 40
0.3333333333333333
 40
0.4166666666666666
 40
0.5
 40
0.5833333333333333
 40
0.6666666666666666
 40
0.75
 40
0.8333333333333332
 40
1.0
 40
1.0
 40
1.0
 40
1.0
 10
-13.03649196935179
 20
1.3984061593473
 30
0.0
 10
-13.0321286462218
 20
1.398400573246183
 30
0.0
 10
-13.0234022505199
 20
1.397081979405305
 30
0.0
 10
-13.01323808877633
 20
1.39221827013197
 30
0.0
 10
-13.00596689815399
 20
1.386604115166404
 30
0.0
 10
-13.00103550367142
 20
1.381613739797366
 30
0.0
 10
-12.99671086891511
 20
1.375916694492475
 30
0.0
 10
-12.99306683469151
 20
1.369621650326523
 30
0.0
 10
-12.99016598729427
 20
1.362828579528341
 30
0.0
 10
-12.98735423422029
 20
1.353260643725902
 30
0.0
 10
-12.98649196935179
 20
1.345737555465703
 30
0.0
 10
-12.98649196935179
 20
1.340671132428336
 30
0.0
1001
REVIT
1002
{
1070
     2
1000
-2001160
1002
}
  0
SPLINE
  5
17B
330
165
100
AcDbEntity
  8
P-SANR-FIXT
 62
     0
100
AcDbSpline
210
0.0
220
0.0
230
1.0
 70
     8
 71
     3
 72
    16
 73
    12
 74
     0
 42
0.000000001
 43
0.0000000001
 40
0.0
 40
0.0
 40
0.0
 40
0.0
 40
0.1666666666666666
 40
0.3333333333333333
 40
0.4166666666666666
 40
0.5
 40
0.5833333333333333
 40
0.6666666666666666
 40
0.75
 40
0.8333333333333332
 40
1.0
 40
1.0
 40
1.0
 40
1.0
 10
-13.03649196935179
 20
0.6992030796732682
 30
0.0
 10
-13.0321286462218
 20
0.6992086657743851
 30
0.0
 10
-13.0234022505199
 20
0.6985377070961622
 30
0.0
 10
-13.01323808877633
 20
0.6961076882928083
 30
0.0
 10
-13.00596689815399
 20
0.6933053182950719
 30
0.0
 10
-13.00103550367142
 20
0.6908053791471895
 30
0.0
 10
-12.99671086891511
 20
0.6879610495380461
 30
0.0
 10
-12.99306683469151
 20
0.6848101638789813
 30
0.0
 10
-12.99016598729427
 20
0.6814142326071888
 30
0.0
 10
-12.98735423422029
 20
0.6766387835975429
 30
0.0
 10
-12.98649196935179
 20
0.6728266405273958
 30
0.0
 10
-12.98649196935179
 20
0.6703355662137856
 30
0.0
1001
REVIT
1002
{
1070
     2
1000
-2001160
1002
}
  0
SPLINE
  5
17C
330
165
100
AcDbEntity
  8
P-SANR-FIXT
 62
     0
100
AcDbSpline
210
0.0
220
0.0
230
1.0
 70
     8
 71
     3
 72
    16
 73
    12
 74
     0
 42
0.000000001
 43
0.0000000001
 40
0.0
 40
0.0
 40
0.0
 40
0.0
 40
0.1666666666666666
 40
0.3333333333333333
 40
0.4166666666666666
 40
0.5
 40
0.5833333333333333
 40
0.6666666666666666
 40
0.75
 40
0.8333333333333332
 40
1.0
 40
1.0
 40
1.0
 40
1.0
 10
-13.03649196935179
 20
-0.6992030796747996
 30
0.0
 10
-13.0321286462218
 20
-0.6991919074725658
 30
0.0
 10
-13.0234022505199
 20
-0.6985442723099111
 30
0.0
 10
-13.01323808877633
 20
-0.6961105818399301
 30
0.0
 10
-13.00596689815399
 20
-0.693298796872099
 30
0.0
 10
-13.00103550367142
 20
-0.6908083606509431
 30
0.0
 10
-12.99671086891511
 20
-0.6879556449551957
 30
0.0
 10
-12.99306683469151
 20
-0.6848114864483096
 30
0.0
 10
-12.99016598729427
 20
-0.6814143469219194
 30
0.0
 10
-12.98735423422029
 20
-0.6766218601291271
 30
0.0
 10
-12.98649196935179
 20
-0.672910914939073
 30
0.0
 10
-12.98649196935179
 20
-0.6703355662153183
 30
0.0
1001
REVIT
1002
{
1070
     2
1000
-2001160
1002
}
  0
SPLINE
  5
17D
330
165
100
AcDbEntity
  8
P-SANR-FIXT
 62
     0
100
AcDbSpline
210
0.0
220
0.0
230
1.0
 70
     8
 71
     3
 72
    16
 73
    12
 74
     0
 42
0.000000001
 43
0.0000000001
 40
0.0
 40
0.0
 40
0.0
 40
0.0
 40
0.1666666666666666
 40
0.3333333333333333
 40
0.4166666666666666
 40
0.5
 40
0.5833333333333333
 40
0.6666666666666666
 40
0.75
 40
0.8333333333333332
 40
1.0
 40
1.0
 40
1.0
 40
1.0
 10
-13.03649196935179
 20
-1.398406159348841
 30
0.0
 10
-13.0321286462218
 20
-1.398400573247724
 30
0.0
 10
-13.0234022505199
 20
-1.397081979406846
 30
0.0
 10
-13.01323808877633
 20
-1.392218270133512
 30
0.0
 10
-13.00596689815399
 20
-1.386604115167944
 30
0.0
 10
-13.00103550367142
 20
-1.381613739798906
 30
0.0
 10
-12.99671086891511
 20
-1.375916694494014
 30
0.0
 10
-12.99306683469151
 20
-1.369621650328064
 30
0.0
 10
-12.99016598729427
 20
-1.362828579529881
 30
0.0
 10
-12.98735423422029
 20
-1.353260643727443
 30
0.0
 10
-12.98649196935179
 20
-1.345737555467241
 30
0.0
 10
-12.98649196935179
 20
-1.340671132429877
 30
0.0
1001
REVIT
1002
{
1070
     2
1000
-2001160
1002
}
  0
ARC
  5
17E
330
165
100
AcDbEntity
  8
0
 62
     0
100
AcDbCircle
 10
-9.167535914085426
 20
-1.466651092574949
 30
0.0
 40
0.7319680864654677
100
AcDbArc
 50
350.0004782461735
 51
80.00047824617352
  0
ARC
  5
17F
330
165
100
AcDbEntity
  8
0
 62
     0
100
AcDbCircle
 10
-8.913338099235868
 20
-1.720848907424881
 30
0.0
 40
2.469923428928597
100
AcDbArc
 50
2.949665810687084
 51
92.9496658106871
  0
ENDBLK
  5
167
330
165
100
AcDbEntity
  8
0
100
AcDbBlockEnd
  0
BLOCK
  5
182
330
181
100
AcDbEntity
  8
0
100
AcDbBlockBegin
  2
Tub_Filler-DXV-Oak_Hill-D35155760_Series - Front View
 70
     0
 10
0.0
 20
0.0
 30
0.0
  3
Tub_Filler-DXV-Oak_Hill-D35155760_Series - Front View
  1

  0
LWPOLYLINE
  5
184
330
181
100
AcDbEntity
  8
P-SANR-FIXT
 62
     0
100
AcDbPolyline
 90
       62
 70
   128
 43
0.0
 10
0.0000000000002425
 20
1.468750000002309
 10
-0.0587343345864815
 20
1.467575156660615
 10
-0.1173747067671908
 20
1.464052506134265
 10
-0.1758273044556744
 20
1.458187683912647
 10
-0.2339986159648517
 20
1.449990072460231
 10
-0.291795579605528
 20
1.439472786206579
 10
-0.3491257325652394
 20
1.42665265056614
 10
-0.4058973588290299
 20
1.411550175021133
 10
-0.4620196359055133
 20
1.39418952031076
 10
-0.5174027801234784
 20
1.374598459779093
 10
-0.5719581902666175
 20
1.352808334943844
 10
-0.6255985893165703
 20
1.328854005356376
 10
-0.6782381640775314
 20
1.302773792834088
 10
-0.72979270245906
 20
1.274609420153509
 10
-0.78017972819746
 20
1.24440594430284
 10
-0.8293186328002091
 20
1.212211684400429
 10
-0.87713080450235
 20
1.178078144394326
 10
-0.923539754028545
 20
1.142059930667137
 10
-0.9684712369596029
 20
1.104214664677335
 10
-1.011853372507701
 20
1.064602890777279
 10
-1.053616758510328
 20
1.02328797935516
 10
-1.093694582458925
 20
0.9803360254558482
 10
-1.132022728384656
 20
0.9358157430430152
 10
-1.168539879430273
 20
0.8897983550713417
 10
-1.203187615944014
 20
0.8423574795450859
 10
-1.235910508938579
 20
0.7935690117449212
 10
-1.26665620876569
 20
0.7435110028116298
 10
-1.295375528864355
 20
0.6922635348810786
 10
-1.322022524448878
 20
0.6399085929697392
 10
-1.346554566010712
 20
0.5865299338161591
 10
-1.368932407516583
 20
0.5322129518882192
 10
-1.389120249193766
 20
0.4770445427699812
 10
-1.407085794802087
 20
0.4211129641473405
 10
-1.422800303301017
 20
0.3645076946147298
 10
-1.43623863482921
 20
0.3073192905282269
 10
-1.447379290922911
 20
0.2496392411348367
 10
-1.456204448908916
 20
0.1915598222091432
 10
-1.462699990417046
 20
0.1331739484318532
 10
-1.466855523966533
 20
0.0745750247459895
 10
-1.468664401590159
 20
0.0158567969290076
 10
-1.468123729469607
 20
-0.0428867983804437
 10
-1.465234372564927
 20
-0.1015617839611806
 10
-1.460000953230805
 20
-0.1600742923529452
 10
-1.452431843821772
 20
-0.2183307160243046
 10
-1.442539153298226
 20
-0.2762378571247552
 10
-1.430338707854676
 20
-0.3337030765814148
 10
-1.415850025601209
 20
-0.3906344423017316
 10
-1.399096285338675
 20
-0.4469408762452786
 10
-1.380104289477556
 20
-0.5025323001291326
 10
-1.358904421159819
 20
-0.5573197795339552
 10
-1.335530595652375
 20
-0.6112156661800725
 10
-1.310020206089884
 20
-0.6641337381460203
 10
-1.282414063653722
 20
-0.715989337805226
 10
-1.252756332282791
 20
-0.7666995072601991
 10
-1.221094458020638
 20
-0.8161831210574062
 10
-1.18747909311191
 20
-0.8643610159706865
 10
-1.151964014969564
 20
-0.9111561176456104
 10
-1.114606040142484
 20
-0.9564935639019152
 10
-1.075464933421115
 20
-1.000300824497031
 10
-1.034603312226556
 20
-1.04250781715909
 10
-0.9920865464360362
 20
-1.083047019703492
 10
-0.9496334034745602
 20
-1.12040110051641
1001
REVIT
1002
{
1070
     2
1000
-2001160
1002
}
  0
LWPOLYLINE
  5
185
330
181
100
AcDbEntity
  8
P-SANR-FIXT
 62
     0
100
AcDbPolyline
 90
       63
 70
   128
 43
0.0
 10
0.9504529609316753
 20
-1.119391249212732
 10
0.9684712369601012
 20
-1.104214664678017
 10
1.011853372508199
 20
-1.064602890777962
 10
1.053616758510826
 20
-1.02328797935582
 10
1.093694582459423
 20
-0.980336025456509
 10
1.132022728385155
 20
-0.9358157430436973
 10
1.168539879430771
 20
-0.8897983550720239
 10
1.203187615944512
 20
-0.842357479545768
 10
1.235910508939077
 20
-0.7935690117456033
 10
1.266656208766187
 20
-0.7435110028123119
 10
1.295375528864852
 20
-0.6922635348817607
 10
1.322022524449374
 20
-0.6399085929704
 10
1.346554566011209
 20
-0.5865299338168412
 10
1.36893240751708
 20
-0.5322129518889013
 10
1.389120249194263
 20
-0.477044542770642
 10
1.407085794802583
 20
-0.4211129641480226
 10
1.422800303301516
 20
-0.3645076946154119
 10
1.436238634829707
 20
-0.307319290528909
 10
1.447379290923406
 20
-0.2496392411355188
 10
1.456204448909412
 20
-0.1915598222098253
 10
1.462699990417541
 20
-0.1331739484325354
 10
1.466855523967028
 20
-0.0745750247466503
 10
1.468664401590655
 20
-0.0158567969296897
 10
1.468123729470102
 20
0.0428867983797616
 10
1.465234372565421
 20
0.1015617839604985
 10
1.4600009532313
 20
0.1600742923522631
 10
1.452431843822266
 20
0.2183307160236225
 10
1.44253915329872
 20
0.2762378571240731
 10
1.430338707855169
 20
0.333703076580754
 10
1.415850025601702
 20
0.3906344423010708
 10
1.399096285339171
 20
0.4469408762446178
 10
1.38010428947805
 20
0.5025323001284718
 10
1.358904421160312
 20
0.5573197795332731
 10
1.335530595652868
 20
0.6112156661793903
 10
1.310020206090377
 20
0.6641337381453382
 10
1.282414063654216
 20
0.7159893378045438
 10
1.252756332283284
 20
0.7666995072595383
 10
1.221094458021131
 20
0.8161831210567241
 10
1.187479093112401
 20
0.8643610159700044
 10
1.151964014970056
 20
0.9111561176449283
 10
1.114606040142976
 20
0.9564935639012331
 10
1.075464933421607
 20
1.000300824496349
 10
1.034603312227047
 20
1.042507817158408
 10
0.9920865464365279
 20
1.083047019702831
 10
0.9479826538055531
 20
1.121853578053418
 10
0.9023621911540024
 20
1.158865409995129
 10
0.8552981414902735
 20
1.194023304492276
 10
0.8068657972540322
 20
1.227271016413638
 10
0.7571426398643752
 20
1.258555356512566
 10
0.7062082157660869
 20
1.287826276518593
 10
0.6541440091722883
 20
1.315036949203779
 10
0.6010333117070945
 20
1.340143843296502
 10
0.5469610891567708
 20
1.363106793122071
 10
0.4920138455426075
 20
1.383889062859253
 10
0.4362794847329314
 20
1.402457405309774
 10
0.3798471698156755
 20
1.418782115086749
 10
0.3228071804564565
 20
1.432837076136962
 10
0.2652507684703664
 20
1.444599803520958
 10
0.2072700118385371
 20
1.454051479384176
 10
0.1489576674030117
 20
1.461176983061491
 10
0.0904070224755817
 20
1.465964915267036
 10
0.0317117455979954
 20
1.468407616330665
 10
0.0000000000002425
 20
1.468750000002309
1001
REVIT
1002
{
1070
     2
1000
-2001160
1002
}
  0
LWPOLYLINE
  5
186
330
181
100
AcDbEntity
  8
P-SANR-FIXT
 62
     0
100
AcDbPolyline
 90
       16
 70
   128
 43
0.0
 10
0.0000000000002944
 20
0.7513670624307877
 10
-0.1084481216623483
 20
0.7435359806014076
 10
-0.2155973959749326
 20
0.7200749640662351
 10
-0.3181368001073763
 20
0.6815196296662406
 10
-0.41377774864638
 20
0.6288391776956956
 10
-0.5016202057100485
 20
0.5627279301061705
 10
-0.5789553023993367
 20
0.4852860287019993
 10
-0.6450103549365504
 20
0.3979908014196666
 10
-0.6994060335232026
 20
0.3026513818090208
 10
-0.7430458782338087
 20
0.1995770781242498
 10
-0.8086898459402236
 20
-0.0423878789969407
 10
-0.8490680630617475
 20
-0.2710274687028331
 10
-0.8896637000960144
 20
-0.5675177284031249
 10
-0.9183982392041642
 20
-0.8118044330617307
 10
-0.9607356663440247
 20
-1.208015647826442
 10
-0.9999999999996925
 20
-1.593750000000212
1001
REVIT
1002
{
1070
     2
1000
-2001160
1002
}
  0
LWPOLYLINE
  5
187
330
181
100
AcDbEntity
  8
P-SANR-FIXT
 62
     0
100
AcDbPolyline
 90
       16
 70
   128
 43
0.0
 10
0.0000000000002944
 20
0.7513670624307877
 10
0.1084481216629385
 20
0.7435359806014076
 10
0.2155973959755228
 20
0.7200749640662351
 10
0.3181368001079665
 20
0.6815196296662193
 10
0.4137777486469715
 20
0.6288391776956956
 10
0.5016202057106387
 20
0.5627279301061705
 10
0.5789553023999269
 20
0.4852860287019993
 10
0.6450103549371419
 20
0.3979908014196666
 10
0.6994060335237941
 20
0.3026513818090208
 10
0.7430458782344042
 20
0.1995770781242498
 10
0.8086898459408272
 20
-0.0423878789969621
 10
0.8490680630623565
 20
-0.2710274687028757
 10
0.8896637000966272
 20
-0.5675177284031889
 10
0.9183982392047782
 20
-0.8118044330617733
 10
0.9607356663446429
 20
-1.208015647826463
 10
1.000000000000309
 20
-1.593750000000234
1001
REVIT
1002
{
1070
     2
1000
-2001160
1002
}
  0
LINE
  5
188
330
181
100
AcDbEntity
  8
P-SANR-FIXT
 62
     0
100
AcDbLine
 10
1.211055258804799
 20
0.6992030796730261
 30
0.0
 11
0.0000000000007434
 21
1.398406159347075
 31
0.0
1001
REVIT
1002
{
1070
     2
1000
-2001160
1002
}
  0
LINE
  5
189
330
181
100
AcDbEntity
  8
P-SANR-FIXT
 62
     0
100
AcDbLine
 10
0.0000000000007434
 20
1.398406159347075
 30
0.0
 11
-1.21105525880332
 21
0.6992030796730475
 31
0.0
1001
REVIT
1002
{
1070
     2
1000
-2001160
1002
}
  0
LINE
  5
18A
330
181
100
AcDbEntity
  8
P-SANR-FIXT
 62
     0
100
AcDbLine
 10
-1.21105525880332
 20
0.6992030796730475
 30
0.0
 11
-1.211055258803327
 21
-0.6992030796750299
 31
0.0
1001
REVIT
1002
{
1070
     2
1000
-2001160
1002
}
  0
LINE
  5
18B
330
181
100
AcDbEntity
  8
P-SANR-FIXT
 62
     0
100
AcDbLine
 10
-1.211055258803327
 20
-0.6992030796750299
 30
0.0
 11
-0.9212257187973261
 21
-0.8665362426166181
 31
0.0
1001
REVIT
1002
{
1070
     2
1000
-2001160
1002
}
  0
LINE
  5
18C
330
181
100
AcDbEntity
  8
P-SANR-FIXT
 62
     0
100
AcDbLine
 10
0.9226967320520426
 20
-0.8656869527188602
 30
0.0
 11
1.211055258804788
 21
-0.6992030796750512
 31
0.0
1001
REVIT
1002
{
1070
     2
1000
-2001160
1002
}
  0
LINE
  5
18D
330
181
100
AcDbEntity
  8
P-SANR-FIXT
 62
     0
100
AcDbLine
 10
1.211055258804788
 20
-0.6992030796750512
 30
0.0
 11
1.211055258804799
 21
0.6992030796730261
 31
0.0
1001
REVIT
1002
{
1070
     2
1000
-2001160
1002
}
  0
LINE
  5
18E
330
181
100
AcDbEntity
  8
P-SANR-FIXT
 62
     0
100
AcDbLine
 10
1.000000000000308
 20
-1.593750000000234
 30
0.0
 11
-0.9999999999996916
 21
-1.593750000000214
 31
0.0
  0
ENDBLK
  5
183
330
181
100
AcDbEntity
  8
0
100
AcDbBlockEnd
  0
BLOCK
  5
191
330
190
100
AcDbEntity
  8
0
100
AcDbBlockBegin
  2
Tub_Filler-DXV-Oak_Hill-D35155760_Series - Top View
 70
     0
 10
0.0
 20
0.0
 30
0.0
  3
Tub_Filler-DXV-Oak_Hill-D35155760_Series - Top View
  1

  0
LINE
  5
193
330
190
100
AcDbEntity
  8
P-SANR-FIXT
 62
     0
100
AcDbLine
 10
-0.7458021851495698
 20
12.12024177418796
 30
0.0
 11
-0.7458021851495489
 21
9.050774390411085
 31
0.0
1001
REVIT
1002
{
1070
     2
1000
-2001160
1002
}
  0
LINE
  5
194
330
190
100
AcDbEntity
  8
P-SANR-FIXT
 62
     0
100
AcDbLine
 10
0.7458021851507521
 20
9.050774390411085
 30
0.0
 11
0.7458021851507314
 21
12.12024177418798
 31
0.0
1001
REVIT
1002
{
1070
     2
1000
-2001160
1002
}
  0
LWPOLYLINE
  5
195
330
190
100
AcDbEntity
  8
P-SANR-FIXT
 62
     0
100
AcDbPolyline
 90
       12
 70
   128
 43
0.0
 10
-0.7458021851495698
 20
12.12024177418796
 10
-0.7472184254394545
 20
12.19104434682829
 10
-0.751464880626747
 20
12.26173365045615
 10
-0.758534757289004
 20
12.33219659726529
 10
-0.7684167451317432
 20
12.40232046157214
 10
-0.7810950350824922
 20
12.47199306015274
 10
-0.7965493445818109
 20
12.54110293171207
 10
-0.8147549500312774
 20
12.60953951519829
 10
-0.8356827263458708
 20
12.67719332667684
 10
-0.8592991935477609
 20
12.74395613448141
 10
-0.8855665703274322
 20
12.80972113236147
 10
-0.8930988504055772
 20
12.82727212257716
1001
REVIT
1002
{
1070
     2
1000
-2001160
1002
}
  0
LWPOLYLINE
  5
196
330
190
100
AcDbEntity
  8
P-SANR-FIXT
 62
     0
100
AcDbPolyline
 90
       12
 70
   128
 43
0.0
 10
0.8930988504067174
 20
12.82727212257718
 10
0.8661235961933842
 20
12.76179429664218
 10
0.8417883339693135
 20
12.69529012352849
 10
0.8201319949628798
 20
12.62786599572631
 10
0.8011892246966725
 20
12.55962977745705
 10
0.7849903275622213
 20
12.49069063211366
 10
0.7715612183393733
 20
12.42115884762247
 10
0.7609233807381502
 20
12.35114566000601
 10
0.7530938330294193
 20
12.2807630754291
 10
0.7480851008193329
 20
12.21012369101293
 10
0.7459051970109572
 20
12.13934051470362
 10
0.74580218515071
 20
12.12024177418798
1001
REVIT
1002
{
1070
     2
1000
-2001160
1002
}
  0
LWPOLYLINE
  5
197
330
190
100
AcDbEntity
  8
P-SANR-FIXT
 62
     0
100
AcDbPolyline
 90
       30
 70
   128
 43
0.0
 10
-0.8930988504055772
 20
12.82727212257716
 10
-0.8978267551278076
 20
12.83755970063401
 10
-0.9029622714273823
 20
12.84764998396376
 10
-0.9084971835738269
 20
12.85752683026556
 10
-0.9144226368884016
 20
12.86717443869228
 10
-0.9207291519097733
 20
12.87657737512847
 10
-0.9274066395592921
 20
12.8857205968817
 10
-0.9344444172811474
 20
12.8945894767476
 10
-0.941831226132292
 20
12.90316982641033
 10
-0.9495552487943381
 20
12.91144791914079
 10
-0.9576041284787333
 20
12.91941051175653
 10
-0.9659649886950116
 20
12.92704486580794
 10
-0.9746244538503372
 20
12.93433876795712
 10
-0.9835686706477257
 20
12.94128054951658
 10
-0.9927833302483275
 20
12.94785910511666
 10
-1.002253691162428
 20
12.95406391047175
 10
-1.011964602832824
 20
12.95988503921691
 10
-1.021900529872395
 20
12.96531317878792
 10
-1.032045576917459
 20
12.97033964531939
 10
-1.04238351405682
 20
12.97495639753715
 10
-1.05289780279647
 20
12.97915604962249
 10
-1.063571622517249
 20
12.98293188302796
 10
-1.074387897384651
 20
12.98627785722558
 10
-1.085329323666192
 20
12.9891886193704
 10
-1.096378397413884
 20
12.99165951286392
 10
-1.107517442466734
 20
12.99368658480363
 10
-1.118728638728837
 20
12.99526659230687
 10
-1.129994050677813
 20
12.99639700769868
 10
-1.141295656057676
 20
12.99707602255556
 10
-1.152615374710703
 20
12.9973025505986
1001
REVIT
1002
{
1070
     2
1000
-2001160
1002
}
  0
LWPOLYLINE
  5
198
330
190
100
AcDbEntity
  8
P-SANR-FIXT
 62
     0
100
AcDbPolyline
 90
       30
 70
   128
 43
0.0
 10
1.152617961347752
 20
12.99730255061044
 10
1.141298240625234
 20
12.99707612600524
 10
1.129996629041075
 20
12.9963972144207
 10
1.118731206763038
 20
12.99526690197052
 10
1.107519996063524
 20
12.99368699691352
 10
1.096380932488082
 20
12.99166002676075
 10
1.085331836162205
 20
12.98918923423205
 10
1.074390383283039
 20
12.98627857206841
 10
1.063574077841097
 20
12.98293269670837
 10
1.052900223617763
 20
12.97915696083876
 10
1.042385896502794
 20
12.97495740483153
 10
1.032047917176677
 20
12.97034074708042
 10
1.021902824201015
 20
12.96531437325302
 10
1.011966847560353
 20
12.9598863244752
 10
1.002255882697775
 20
12.95406528446708
 10
0.9927854650855197
 20
12.94786056565093
 10
0.983570745371489
 20
12.94128209425325
 10
0.9746264651415346
 20
12.93434039442495
 10
0.9659669333360357
 20
12.92704657140492
 10
0.9576060033586005
 20
12.91941229375407
 10
0.9495570509135918
 20
12.91144977468808
 10
0.9418329526079263
 20
12.90317175253887
 10
0.9344460653511903
 20
12.89459147037602
 10
0.9274082065871967
 20
12.8857226548206
 10
0.9207306353886169
 20
12.8765794940856
 10
0.9144240344449146
 20
12.86717661527775
 10
0.908498492972251
 20
12.85752906099731
 10
0.902963490572988
 20
12.84765226527309
 10
0.8978278820701548
 20
12.83756202887131
 10
0.8930998833418628
 20
12.82727449401775
1001
REVIT
1002
{
1070
     2
1000
-2001160
1002
}
  0
LWPOLYLINE
  5
199
330
190
100
AcDbEntity
  8
P-SANR-FIXT
 62
     0
100
AcDbPolyline
 90
       41
 70
   128
 43
0.0
 10
-1.406250000002072
 20
13.22840986357084
 10
-1.408749333388746
 20
13.22845985690453
 10
-1.411244668375152
 20
13.22860975692693
 10
-1.413732012957636
 20
13.22885932382998
 10
-1.416207387915489
 20
13.22920815835986
 10
-1.418666833176762
 20
13.22965570245576
 10
-1.421106414153781
 20
13.23020124014259
 10
-1.423522228037333
 20
13.23084389867642
 10
-1.425910410040591
 20
13.23158264994069
 10
-1.428267139581775
 20
13.23241631209097
 10
-1.430588646396378
 20
13.23334355144566
 10
-1.432871216568697
 20
13.23436288461959
 10
-1.435111198473426
 20
13.23547268089714
 10
-1.437305008617298
 20
13.23667116484099
 10
-1.439449137372141
 20
13.2379564191325
 10
-1.441540154589267
 20
13.23932638763898
 10
-1.443574715087221
 20
13.24077887870307
 10
-1.445549564003256
 20
13.24231156864891
 10
-1.447461542000302
 20
13.24392200549954
 10
-1.449307590321508
 20
13.24560761289953
 10
-1.45108475568328
 20
13.24736569423664
 10
-1.452790195000259
 20
13.24919343695576
 10
-1.454421179933268
 20
13.25108791705843
 10
-1.455975101254358
 20
13.25304610378063
 10
-1.457449473020899
 20
13.25506486444131
 10
-1.458841936552578
 20
13.25714096945408
 10
-1.460150264204789
 20
13.25927109749379
 10
-1.461372362932392
 20
13.26145184080998
 10
-1.462506277638096
 20
13.26367971067855
 10
-1.463550194300329
 20
13.26595114298295
 10
-1.464502442875021
 20
13.26826250391605
 10
-1.465361499967682
 20
13.27061009579342
 10
-1.466125991270159
 20
13.27299016296884
 10
-1.466794693759487
 20
13.27539889784257
 10
-1.467366537654283
 20
13.27783244695263
 10
-1.467840608126378
 20
13.28028691713958
 10
-1.468216146764047
 20
13.28275838177471
 10
-1.468492552785681
 20
13.28524288704182
 10
-1.468669384000568
 20
13.28773645826249
 10
-1.46874635751647
 20
13.2902351062547
 10
-1.468750000002079
 20
13.29090986357084
1001
REVIT
1002
{
1070
     2
1000
-2001160
1002
}
  0
LWPOLYLINE
  5
19A
330
190
100
AcDbEntity
  8
P-SANR-FIXT
 62
     0
100
AcDbPolyline
 90
       41
 70
   128
 43
0.0
 10
1.468750000003199
 20
13.29090986357087
 10
1.468700006669523
 20
13.28841053018421
 10
1.468550106647144
 20
13.2859151951978
 10
1.468300539744086
 20
13.28342785061531
 10
1.467951705214184
 20
13.28095247565748
 10
1.4675041611183
 20
13.27849303039618
 10
1.466958623431446
 20
13.27605344941918
 10
1.466315964897633
 20
13.27363763553562
 10
1.465577213633354
 20
13.27124945353237
 10
1.464743551483076
 20
13.26889272399118
 10
1.463816312128381
 20
13.26657121717658
 10
1.462796978954459
 20
13.26428864700425
 10
1.461687182676927
 20
13.26204866509953
 10
1.460488698733074
 20
13.25985485495564
 10
1.459203444441536
 20
13.25771072620082
 10
1.457833475935069
 20
13.25561970898368
 10
1.456380984870983
 20
13.25358514848572
 10
1.454848294925143
 20
13.25161029956972
 10
1.453237858074517
 20
13.24969832157266
 10
1.451552250674511
 20
13.24785227325146
 10
1.449794169337424
 20
13.24607510788965
 10
1.447966426618288
 20
13.24436966857269
 10
1.446071946515617
 20
13.24273868363969
 10
1.444113759793425
 20
13.2411847623186
 10
1.442094999132729
 20
13.23971039055206
 10
1.44001889411996
 20
13.23831792702038
 10
1.437888766080243
 20
13.23700959936817
 10
1.435708022764076
 20
13.23578750064056
 10
1.433480152895499
 20
13.23465358593484
 10
1.431208720591109
 20
13.23360966927263
 10
1.428897359657996
 20
13.23265742069792
 10
1.426549767780643
 20
13.23179836360528
 10
1.424169700605213
 20
13.23103387230279
 10
1.421760965731466
 20
13.23036516981348
 10
1.419327416621443
 20
13.22979332591866
 10
1.416872946434475
 20
13.22931925544659
 10
1.414401481799332
 20
13.22894371680889
 10
1.411916976532234
 20
13.22866731078727
 10
1.409423405311558
 20
13.2284904795724
 10
1.406924757319367
 20
13.2284135060565
 10
1.406250000003213
 20
13.22840986357087
1001
REVIT
1002
{
1070
     2
1000
-2001160
1002
}
  0
LINE
  5
19B
330
190
100
AcDbEntity
  8
P-SANR-FIXT
 62
     0
100
AcDbLine
 10
-1.468750000002079
 20
13.45749758166398
 30
0.0
 11
-1.468750000002079
 21
13.29090986357084
 31
0.0
1001
REVIT
1002
{
1070
     2
1000
-2001160
1002
}
  0
LINE
  5
19C
330
190
100
AcDbEntity
  8
P-SANR-FIXT
 62
     0
100
AcDbLine
 10
1.468750000003177
 20
13.29090986357087
 30
0.0
 11
1.468750000003177
 21
13.45749758166401
 31
0.0
1001
REVIT
1002
{
1070
     2
1000
-2001160
1002
}
  0
LWPOLYLINE
  5
19D
330
190
100
AcDbEntity
  8
P-SANR-FIXT
 62
     0
100
AcDbPolyline
 90
        6
 70
   128
 43
0.0
 10
-0.8759021488604188
 20
7.941376312472179
 10
-0.8671455368282737
 20
7.994970970483196
 10
-0.838251340239252
 20
8.204771219007842
 10
-0.8155092956507617
 20
8.393851746373048
 10
-0.7804154267309032
 20
8.714779958599478
 10
-0.7458502312252322
 20
9.050774405191026
1001
REVIT
1002
{
1070
     2
1000
-2001160
1002
}
  0
LWPOLYLINE
  5
19E
330
190
100
AcDbEntity
  8
P-SANR-FIXT
 62
     0
100
AcDbPolyline
 90
        7
 70
   128
 43
0.0
 10
0.7458502312264355
 20
9.050774405191024
 10
0.7779359124372089
 20
8.738420792218564
 10
0.8055761909490623
 20
8.481640057924622
 10
0.829271367857758
 20
8.277253224725994
 10
0.8493875628286115
 20
8.119376226226272
 10
0.8661651343734472
 20
8.001421705371265
 10
0.8764305451340316
 20
7.937586352763896
1001
REVIT
1002
{
1070
     2
1000
-2001160
1002
}
  0
LINE
  5
19F
330
190
100
AcDbEntity
  8
P-SANR-FIXT
 62
     0
100
AcDbLine
 10
-1.161055258803022
 20
12.99730254435496
 30
0.0
 11
1.1610552588051
 21
12.99730254435496
 31
0.0
1001
REVIT
1002
{
1070
     2
1000
-2001160
1002
}
  0
LINE
  5
1A0
330
190
100
AcDbEntity
  8
P-SANR-FIXT
 62
     0
100
AcDbLine
 10
-1.468750000002063
 20
13.45749758166397
 30
0.0
 11
1.468750000003186
 21
13.45749758166401
 31
0.0
1001
REVIT
1002
{
1070
     2
1000
-2001160
1002
}
  0
LWPOLYLINE
  5
1A1
330
190
100
AcDbEntity
  8
P-SANR-FIXT
 62
     0
100
AcDbPolyline
 90
        9
 70
   128
 43
0.0
 10
0.0000000000006353
 20
6.457497581663977
 10
-0.2588182274257924
 20
6.491622489457212
 10
-0.499966577867621
 20
6.591512881169829
 10
-0.7071067811859157
 20
6.75039080047742
 10
-0.8659851198925883
 20
6.95752862720094
 10
-0.9658749524064436
 20
7.19868536562431
 10
-0.999999999999378
 20
7.457497581663963
 10
-0.9658749524064512
 20
7.716309797703618
 10
-0.8759021488604187
 20
7.941376312472179
1001
REVIT
1002
{
1070
     2
1000
-2001160
1002
}
  0
LWPOLYLINE
  5
1A2
330
190
100
AcDbEntity
  8
P-SANR-FIXT
 62
     0
100
AcDbPolyline
 90
        9
 70
   128
 43
0.0
 10
0.8764305451340316
 20
7.937586352763896
 10
0.9658749524076883
 20
7.716309797703643
 10
1.000000000000621
 20
7.457497581663989
 10
0.9658749524076943
 20
7.198685365624334
 10
0.8659851198938458
 20
6.957528627200962
 10
0.7071067811871782
 20
6.750390800477439
 10
0.4999665778688879
 20
6.591512881169843
 10
0.2588182274270624
 20
6.49162248945722
 10
0.0000000000006353
 20
6.457497581663977
1001
REVIT
1002
{
1070
     2
1000
-2001160
1002
}
  0
LINE
  5
1A3
330
190
100
AcDbEntity
  8
P-SANR-FIXT
 62
     0
100
AcDbLine
 10
-1.211055258803004
 20
13.04730254435497
 30
0.0
 11
-1.211055258803004
 21
13.22840986357085
 31
0.0
1001
REVIT
1002
{
1070
     2
1000
-2001160
1002
}
  0
LINE
  5
1A4
330
190
100
AcDbEntity
  8
P-SANR-FIXT
 62
     0
100
AcDbLine
 10
1.211055258805112
 20
13.22840986357085
 30
0.0
 11
1.211055258805112
 21
13.04730254435497
 31
0.0
1001
REVIT
1002
{
1070
     2
1000
-2001160
1002
}
  0
LINE
  5
1A5
330
190
100
AcDbEntity
  8
P-SANR-FIXT
 62
     0
100
AcDbLine
 10
0.0000000000010585
 20
13.22840986357085
 30
0.0
 11
0.0000000000010584
 21
13.04730254435497
 31
0.0
1001
REVIT
1002
{
1070
     2
1000
-2001160
1002
}
  0
SPLINE
  5
1A6
330
190
100
AcDbEntity
  8
P-SANR-FIXT
 62
     0
100
AcDbSpline
210
0.0
220
0.0
230
1.0
 70
     8
 71
     3
 72
    16
 73
    12
 74
     0
 42
0.000000001
 43
0.0000000001
 40
0.0
 40
0.0
 40
0.0
 40
0.0
 40
0.1666666666666666
 40
0.3333333333333333
 40
0.4166666666666666
 40
0.5
 40
0.5833333333333333
 40
0.6666666666666666
 40
0.75
 40
0.8333333333333332
 40
1.0
 40
1.0
 40
1.0
 40
1.0
 10
0.0000000000010588
 20
13.04730254435497
 30
0.0
 10
0.0000096754120095
 20
13.04293922122498
 30
0.0
 10
-0.0000037904259827
 20
13.03421282552308
 30
0.0
 10
-0.0000016705882664
 20
13.02404866377951
 30
0.0
 10
0.0000037651472519
 20
13.01677747315716
 30
0.0
 10
-0.000001721370052
 20
13.01184607867459
 30
0.0
 10
0.0000031203393067
 20
13.00752144391828
 30
0.0
 10
-0.0000007635838149
 20
13.00387740969468
 30
0.0
 10
-0.0000000659976975
 20
13.00097656229744
 30
0.0
 10
0.000009770770988
 20
12.99816480922346
 30
0.0
 10
-0.0000486558523244
 20
12.99730254435496
 30
0.0
 10
0.0000000000010581
 20
12.99730254435496
 30
0.0
1001
REVIT
1002
{
1070
     2
1000
-2001160
1002
}
  0
SPLINE
  5
1A7
330
190
100
AcDbEntity
  8
P-SANR-FIXT
 62
     0
100
AcDbSpline
210
0.0
220
0.0
230
1.0
 70
     8
 71
     3
 72
    16
 73
    12
 74
     0
 42
0.000000001
 43
0.0000000001
 40
0.0
 40
0.0
 40
0.0
 40
0.0
 40
0.1666666666666666
 40
0.3333333333333333
 40
0.4166666666666666
 40
0.5
 40
0.5833333333333333
 40
0.6666666666666666
 40
0.75
 40
0.8333333333333332
 40
1.0
 40
1.0
 40
1.0
 40
1.0
 10
-1.211055258803005
 20
13.04730254435497
 30
0.0
 10
-1.211045583392054
 20
13.04293922122498
 30
0.0
 10
-1.209910380547576
 20
13.03421282552308
 30
0.0
 10
-1.205697224841388
 20
13.02404866377951
 30
0.0
 10
-1.200832506152665
 20
13.01677747315716
 30
0.0
 10
-1.19651345756731
 20
13.01184607867459
 30
0.0
 10
-1.191577250752084
 20
13.00752144391828
 30
0.0
 10
-1.186127524547986
 20
13.00387740969468
 30
0.0
 10
-1.180244203873995
 20
13.00097656229744
 30
0.0
 10
-1.171953210022963
 20
12.99816480922346
 30
0.0
 10
-1.165467237786372
 20
12.99730254435496
 30
0.0
 10
-1.161055258803004
 20
12.99730254435496
 30
0.0
1001
REVIT
1002
{
1070
     2
1000
-2001160
1002
}
  0
SPLINE
  5
1A8
330
190
100
AcDbEntity
  8
P-SANR-FIXT
 62
     0
100
AcDbSpline
210
0.0
220
0.0
230
1.0
 70
     8
 71
     3
 72
    16
 73
    12
 74
     0
 42
0.000000001
 43
0.0000000001
 40
-1.0
 40
-1.0
 40
-1.0
 40
-1.0
 40
-0.8333333333333333
 40
-0.75
 40
-0.6666666666666666
 40
-0.5833333333333333
 40
-0.5
 40
-0.4166666666666666
 40
-0.3333333333333333
 40
-0.1666666666666666
 40
0.0
 40
0.0
 40
0.0
 40
0.0
 10
1.161055258805112
 20
12.99730254435496
 30
0.0
 10
1.165418581935098
 20
12.99730254435496
 30
0.0
 10
1.171962980795
 20
12.99816480922346
 30
0.0
 10
1.180244137877348
 20
13.00097656229744
 30
0.0
 10
1.186126760965222
 20
13.00387740969468
 30
0.0
 10
1.19158037109244
 20
13.00752144391828
 30
0.0
 10
1.196511736198308
 20
13.01184607867459
 30
0.0
 10
1.200836271300967
 20
13.01677747315716
 30
0.0
 10
1.205695554254171
 20
13.02404866377951
 30
0.0
 10
1.209906590122643
 20
13.03421282552308
 30
0.0
 10
1.211055258805113
 20
13.04293922122498
 30
0.0
 10
1.211055258805113
 20
13.04730254435497
 30
0.0
1001
REVIT
1002
{
1070
     2
1000
-2001160
1002
}
  0
LINE
  5
1A9
330
190
100
AcDbEntity
  8
P-SANR-FIXT
 62
     0
100
AcDbLine
 10
-1.406250000002072
 20
13.22840986357084
 30
0.0
 11
1.406250000003213
 21
13.22840986357087
 31
0.0
  0
ENDBLK
  5
192
330
190
100
AcDbEntity
  8
0
100
AcDbBlockEnd
  0
ENDSEC
  0
SECTION
  2
ENTITIES
  0
INSERT
  5
180
330
70
100
AcDbEntity
  8
0
100
AcDbBlockReference
  2
Tub_Filler-DXV-Oak_Hill-D35155760_Series - Left View
 10
0.0
 20
0.0
 30
0.0
  0
INSERT
  5
18F
330
70
100
AcDbEntity
  8
0
100
AcDbBlockReference
  2
Tub_Filler-DXV-Oak_Hill-D35155760_Series - Front View
 10
0.0
 20
0.0
 30
0.0
  0
INSERT
  5
1AA
330
70
100
AcDbEntity
  8
0
100
AcDbBlockReference
  2
Tub_Filler-DXV-Oak_Hill-D35155760_Series - Top View
 10
0.0
 20
0.0
 30
0.0
  0
ENDSEC
  0
SECTION
  2
OBJECTS
  0
DICTIONARY
  5
C
330
0
100
AcDbDictionary
281
     1
  3
ACAD_CIP_PREVIOUS_PRODUCT_INFO
350
79
  3
ACAD_COLOR
350
63
  3
ACAD_DETAILVIEWSTYLE
350
6A
  3
ACAD_GROUP
350
D
  3
ACAD_IMAGE_VARS
350
7A
  3
ACAD_LAYOUT
350
62
  3
ACAD_MATERIAL
350
10
  3
ACAD_MLEADERSTYLE
350
66
  3
ACAD_MLINESTYLE
350
5F
  3
ACAD_PLOTSETTINGS
350
61
  3
ACAD_PLOTSTYLENAME
350
E
  3
ACAD_SCALELIST
350
42
  3
ACAD_SECTIONVIEWSTYLE
350
68
  3
ACAD_TABLESTYLE
350
64
  3
ACAD_VISUALSTYLE
350
29
  3
ACDB_RECOMPOSE_DATA
350
1E3
  3
AcDbVariableDictionary
350
A2
  3
REVIT_DICTIONARY
350
9C
  0
DICTIONARY
  5
A0
330
70
100
AcDbDictionary
280
     1
281
     1
  3
ACAD_SORTENTS
360
A1
  0
XRECORD
  5
79
102
{ACAD_REACTORS
330
C
102
}
330
C
100
AcDbXrecord
280
     1
300
ACD
300
2019
300

  0
DICTIONARY
  5
63
102
{ACAD_REACTORS
330
C
102
}
330
C
100
AcDbDictionary
281
     1
  0
DICTIONARY
  5
6A
102
{ACAD_REACTORS
330
C
102
}
330
C
100
AcDbDictionary
281
     1
  3
Imperial24
350
6B
  0
DICTIONARY
  5
D
102
{ACAD_REACTORS
330
C
102
}
330
C
100
AcDbDictionary
281
     1
  0
RASTERVARIABLES
  5
7A
102
{ACAD_REACTORS
330
C
102
}
330
C
100
AcDbRasterVariables
 90
        0
 70
     0
 71
     1
 72
     5
  0
DICTIONARY
  5
62
102
{ACAD_REACTORS
330
C
102
}
330
C
100
AcDbDictionary
281
     1
  3
Layout1
350
6F
  3
Layout2
350
77
  3
Model
350
73
  0
DICTIONARY
  5
10
102
{ACAD_REACTORS
330
C
102
}
330
C
100
AcDbDictionary
281
     1
  3
ByBlock
350
19
  3
ByLayer
350
11
  3
Global
350
21
  0
DICTIONARY
  5
66
102
{ACAD_REACTORS
330
C
102
}
330
C
100
AcDbDictionary
281
     1
  3
Standard
350
67
  0
DICTIONARY
  5
5F
102
{ACAD_REACTORS
330
C
102
}
330
C
100
AcDbDictionary
281
     1
  3
Standard
350
60
  0
DICTIONARY
  5
61
102
{ACAD_REACTORS
330
C
102
}
330
C
100
AcDbDictionary
281
     1
  0
ACDBDICTIONARYWDFLT
  5
E
102
{ACAD_REACTORS
330
C
102
}
330
C
100
AcDbDictionary
281
     1
  3
Normal
350
F
100
AcDbDictionaryWithDefault
340
F
  0
DICTIONARY
  5
42
102
{ACAD_REACTORS
330
C
102
}
330
C
100
AcDbDictionary
281
     1
  3
A0
350
43
  3
A1
350
44
  3
A2
350
45
  3
A3
350
46
  3
A4
350
47
  3
A5
350
48
  3
A6
350
49
  3
A7
350
4A
  3
A8
350
4B
  3
A9
350
4C
  3
B0
350
4D
  3
B1
350
4E
  3
B2
350
4F
  3
B3
350
50
  3
B4
350
51
  3
B5
350
52
  3
B6
350
53
  0
DICTIONARY
  5
68
102
{ACAD_REACTORS
330
C
102
}
330
C
100
AcDbDictionary
281
     1
  3
Imperial24
350
69
  0
DICTIONARY
  5
64
102
{ACAD_REACTORS
330
C
102
}
330
C
100
AcDbDictionary
281
     1
  3
Standard
350
65
  0
DICTIONARY
  5
29
102
{ACAD_REACTORS
330
C
102
}
330
C
100
AcDbDictionary
281
     1
  3
2dWireframe
350
2F
  3
Basic
350
2E
  3
Brighten
350
35
  3
ColorChange
350
39
  3
Conceptual
350
32
  3
Dim
350
34
  3
EdgeColorOff
350
41
  3
Facepattern
350
38
  3
Flat
350
2A
  3
FlatWithEdges
350
2B
  3
Gouraud
350
2C
  3
GouraudWithEdges
350
2D
  3
Hidden
350
31
  3
JitterOff
350
3F
  3
Linepattern
350
37
  3
OverhangOff
350
40
  3
Realistic
350
33
  3
Shaded
350
3E
  3
Shaded with edges
350
3D
  3
Shades of Gray
350
3A
  3
Sketchy
350
3B
  3
Thicken
350
36
  3
Wireframe
350
30
  3
X-Ray
350
3C
  0
XRECORD
  5
1E3
102
{ACAD_REACTORS
330
C
102
}
330
C
100
AcDbXrecord
280
     1
 90
        1
330
65
  0
DICTIONARY
  5
A2
102
{ACAD_REACTORS
330
C
102
}
330
C
100
AcDbDictionary
281
     1
  3
CANNOSCALE
350
A7
  3
CMLEADERSTYLE
350
A4
  3
CTABLESTYLE
350
A3
  3
CVIEWDETAILSTYLE
350
A5
  3
CVIEWSECTIONSTYLE
350
A6
  0
DICTIONARY
  5
9C
102
{ACAD_REACTORS
330
C
102
}
330
C
100
AcDbDictionary
281
     1
  3
DRAWING_TOOL
350
9F
  3
REVIT_CATEGORY_MAPPING
350
9D
  3
REVIT_SUB_CATEGORY_MAPPING
350
9E
  0
SORTENTSTABLE
  5
A1
102
{ACAD_REACTORS
330
A0
102
}
330
A0
100
AcDbSortentsTable
330
70
  0
ACDBDETAILVIEWSTYLE
  5
6B
102
{ACAD_XDICTIONARY
360
218
102
}
102
{ACAD_REACTORS
330
6A
102
}
330
6A
100
AcDbModelDocViewStyle
 70
     0
  3
Imperial24
290
     0
100
AcDbDetailViewStyle
 70
     0
 71
     0
 90
        3
 71
     1
340
55
 62
   256
 40
0.24
340
0
 62
   256
 40
0.24
300

 40
0.36
280
     3
 71
     2
340
5D
 90
       25
 62
   256
 71
     3
340
55
 62
   256
 40
0.24
 90
        1
 40
0.75
 90
        1
300
%<\AcVar ViewType \f "%tc1">% %<\AcVar ViewDetailId>%\PSCALE %<\AcVar ViewScale \f "%sn">%
 71
     4
340
5D
 90
       25
 62
   256
340
5D
 90
       25
 62
   256
280
     0
  0
LAYOUT
  5
6F
102
{ACAD_REACTORS
330
62
102
}
330
62
100
AcDbPlotSettings
  1

  2

  4

  6

 40
0.0
 41
0.0
 42
0.0
 43
0.0
 44
0.0
 45
0.0
 46
0.0
 47
0.0
 48
0.0
 49
0.0
140
0.0
141
0.0
142
1.0
143
1.0
 70
   688
 72
     0
 73
     0
 74
     5
  7

 75
    16
147
1.0
 76
     0
 77
     2
 78
   300
148
0.0
149
0.0
100
AcDbLayout
  1
Layout1
 70
     1
 71
     1
 10
0.0
 20
0.0
 11
12.0
 21
9.0
 12
0.0
 22
0.0
 32
0.0
 14
1.000000000000000E+20
 24
1.000000000000000E+20
 34
1.000000000000000E+20
 15
-1.000000000000000E+20
 25
-1.000000000000000E+20
 35
-1.000000000000000E+20
146
0.0
 13
0.0
 23
0.0
 33
0.0
 16
1.0
 26
0.0
 36
0.0
 17
0.0
 27
1.0
 37
0.0
 76
     0
330
6C
  0
LAYOUT
  5
77
102
{ACAD_REACTORS
330
62
102
}
330
62
100
AcDbPlotSettings
  1

  2

  4

  6

 40
0.0
 41
0.0
 42
0.0
 43
0.0
 44
0.0
 45
0.0
 46
0.0
 47
0.0
 48
0.0
 49
0.0
140
0.0
141
0.0
142
1.0
143
1.0
 70
   688
 72
     0
 73
     0
 74
     5
  7

 75
    16
147
1.0
 76
     0
 77
     2
 78
   300
148
0.0
149
0.0
100
AcDbLayout
  1
Layout2
 70
     1
 71
     2
 10
0.0
 20
0.0
 11
12.0
 21
9.0
 12
0.0
 22
0.0
 32
0.0
 14
0.0
 24
0.0
 34
0.0
 15
0.0
 25
0.0
 35
0.0
146
0.0
 13
0.0
 23
0.0
 33
0.0
 16
1.0
 26
0.0
 36
0.0
 17
0.0
 27
1.0
 37
0.0
 76
     0
330
74
  0
LAYOUT
  5
73
102
{ACAD_REACTORS
330
62
102
}
330
62
100
AcDbPlotSettings
  1

  2

  4

  6

 40
0.0
 41
0.0
 42
0.0
 43
0.0
 44
0.0
 45
0.0
 46
0.0
 47
0.0
 48
0.0
 49
0.0
140
0.0
141
0.0
142
1.0
143
1.0
 70
  1712
 72
     0
 73
     0
 74
     0
  7

 75
     0
147
1.0
 76
     0
 77
     2
 78
   300
148
0.0
149
0.0
100
AcDbLayout
  1
Model
 70
     1
 71
     0
 10
0.0
 20
0.0
 11
12.0
 21
9.0
 12
0.0
 22
0.0
 32
0.0
 14
0.0
 24
0.0
 34
0.0
 15
0.0
 25
0.0
 35
0.0
146
0.0
 13
0.0
 23
0.0
 33
0.0
 16
1.0
 26
0.0
 36
0.0
 17
0.0
 27
1.0
 37
0.0
 76
     0
330
70
331
57
  0
MATERIAL
  5
19
102
{ACAD_XDICTIONARY
360
1A
102
}
102
{ACAD_REACTORS
330
10
102
}
330
10
100
AcDbMaterial
  1
ByBlock
 72
     0
 43
0.0208333333333333
 43
0.0
 43
0.0
 43
0.0
 43
0.0
 43
0.0208333333333333
 43
0.0
 43
0.0
 43
0.0
 43
0.0
 43
1.0
 43
0.0
 43
0.0
 43
0.0
 43
0.0
 43
1.0
 77
     0
 47
0.0208333333333333
 47
0.0
 47
0.0
 47
0.0
 47
0.0
 47
0.0208333333333333
 47
0.0
 47
0.0
 47
0.0
 47
0.0
 47
1.0
 47
0.0
 47
0.0
 47
0.0
 47
0.0
 47
1.0
171
     0
 49
0.0208333333333333
 49
0.0
 49
0.0
 49
0.0
 49
0.0
 49
0.0208333333333333
 49
0.0
 49
0.0
 49
0.0
 49
0.0
 49
1.0
 49
0.0
 49
0.0
 49
0.0
 49
0.0
 49
1.0
175
     0
142
0.0208333333333333
142
0.0
142
0.0
142
0.0
142
0.0
142
0.0208333333333333
142
0.0
142
0.0
142
0.0
142
0.0
142
1.0
142
0.0
142
0.0
142
0.0
142
0.0
142
1.0
179
     0
144
0.0208333333333333
144
0.0
144
0.0
144
0.0
144
0.0
144
0.0208333333333333
144
0.0
144
0.0
144
0.0
144
0.0
144
1.0
144
0.0
144
0.0
144
0.0
144
0.0
144
1.0
147
0.0208333333333333
147
0.0
147
0.0
147
0.0
147
0.0
147
0.0208333333333333
147
0.0
147
0.0
147
0.0
147
0.0
147
1.0
147
0.0
147
0.0
147
0.0
147
0.0
147
1.0
  0
MATERIAL
  5
11
102
{ACAD_XDICTIONARY
360
12
102
}
102
{ACAD_REACTORS
330
10
102
}
330
10
100
AcDbMaterial
  1
ByLayer
 72
     0
 43
0.0208333333333333
 43
0.0
 43
0.0
 43
0.0
 43
0.0
 43
0.0208333333333333
 43
0.0
 43
0.0
 43
0.0
 43
0.0
 43
1.0
 43
0.0
 43
0.0
 43
0.0
 43
0.0
 43
1.0
 77
     0
 47
0.0208333333333333
 47
0.0
 47
0.0
 47
0.0
 47
0.0
 47
0.0208333333333333
 47
0.0
 47
0.0
 47
0.0
 47
0.0
 47
1.0
 47
0.0
 47
0.0
 47
0.0
 47
0.0
 47
1.0
171
     0
 49
0.0208333333333333
 49
0.0
 49
0.0
 49
0.0
 49
0.0
 49
0.0208333333333333
 49
0.0
 49
0.0
 49
0.0
 49
0.0
 49
1.0
 49
0.0
 49
0.0
 49
0.0
 49
0.0
 49
1.0
175
     0
142
0.0208333333333333
142
0.0
142
0.0
142
0.0
142
0.0
142
0.0208333333333333
142
0.0
142
0.0
142
0.0
142
0.0
142
1.0
142
0.0
142
0.0
142
0.0
142
0.0
142
1.0
179
     0
144
0.0208333333333333
144
0.0
144
0.0
144
0.0
144
0.0
144
0.0208333333333333
144
0.0
144
0.0
144
0.0
144
0.0
144
1.0
144
0.0
144
0.0
144
0.0
144
0.0
144
1.0
147
0.0208333333333333
147
0.0
147
0.0
147
0.0
147
0.0
147
0.0208333333333333
147
0.0
147
0.0
147
0.0
147
0.0
147
1.0
147
0.0
147
0.0
147
0.0
147
0.0
147
1.0
  0
MATERIAL
  5
21
102
{ACAD_XDICTIONARY
360
22
102
}
102
{ACAD_REACTORS
330
10
102
}
330
10
100
AcDbMaterial
  1
Global
 72
     0
 43
0.0208333333333333
 43
0.0
 43
0.0
 43
0.0
 43
0.0
 43
0.0208333333333333
 43
0.0
 43
0.0
 43
0.0
 43
0.0
 43
1.0
 43
0.0
 43
0.0
 43
0.0
 43
0.0
 43
1.0
 77
     0
 47
0.0208333333333333
 47
0.0
 47
0.0
 47
0.0
 47
0.0
 47
0.0208333333333333
 47
0.0
 47
0.0
 47
0.0
 47
0.0
 47
1.0
 47
0.0
 47
0.0
 47
0.0
 47
0.0
 47
1.0
171
     0
 49
0.0208333333333333
 49
0.0
 49
0.0
 49
0.0
 49
0.0
 49
0.0208333333333333
 49
0.0
 49
0.0
 49
0.0
 49
0.0
 49
1.0
 49
0.0
 49
0.0
 49
0.0
 49
0.0
 49
1.0
175
     0
142
0.0208333333333333
142
0.0
142
0.0
142
0.0
142
0.0
142
0.0208333333333333
142
0.0
142
0.0
142
0.0
142
0.0
142
1.0
142
0.0
142
0.0
142
0.0
142
0.0
142
1.0
179
     0
144
0.0208333333333333
144
0.0
144
0.0
144
0.0
144
0.0
144
0.0208333333333333
144
0.0
144
0.0
144
0.0
144
0.0
144
1.0
144
0.0
144
0.0
144
0.0
144
0.0
144
1.0
147
0.0208333333333333
147
0.0
147
0.0
147
0.0
147
0.0
147
0.0208333333333333
147
0.0
147
0.0
147
0.0
147
0.0
147
1.0
147
0.0
147
0.0
147
0.0
147
0.0
147
1.0
  0
MLEADERSTYLE
  5
67
102
{ACAD_XDICTIONARY
360
214
102
}
102
{ACAD_REACTORS
330
66
102
}
330
66
100
AcDbMLeaderStyle
179
     2
170
     2
171
     1
172
     0
 90
        2
 40
0.0
 41
0.0
173
     1
 91
-1056964608
340
5B
 92
       -2
290
     1
 42
0.09
291
     1
 43
0.36
  3
Standard
 44
0.18
300

342
55
174
     1
178
     6
175
     1
176
     0
 93
-1056964608
 45
0.18
292
     0
297
     0
 46
0.18
 94
-1056964608
 47
1.0
 49
1.0
140
1.0
293
     1
141
0.0
294
     1
177
     0
142
1.0
295
     0
296
     0
143
0.125
271
     0
272
     9
273
     9
  0
MLINESTYLE
  5
60
102
{ACAD_REACTORS
330
5F
102
}
330
5F
100
AcDbMlineStyle
  2
STANDARD
 70
     0
  3

 62
   256
 51
90.0
 52
90.0
 71
     2
 49
0.5
 62
   256
  6
BYLAYER
 49
-0.5
 62
   256
  6
BYLAYER
  0
ACDBPLACEHOLDER
  5
F
102
{ACAD_REACTORS
330
E
102
}
330
E
  0
SCALE
  5
43
102
{ACAD_REACTORS
330
42
102
}
330
42
100
AcDbScale
 70
     0
300
1:1
140
1.0
141
1.0
290
     1
  0
SCALE
  5
44
102
{ACAD_REACTORS
330
42
102
}
330
42
100
AcDbScale
 70
     0
300
1/128" = 1'-0"
140
0.0078125
141
12.0
290
     0
  0
SCALE
  5
45
102
{ACAD_REACTORS
330
42
102
}
330
42
100
AcDbScale
 70
     0
300
1/64" = 1'-0"
140
0.015625
141
12.0
290
     0
  0
SCALE
  5
46
102
{ACAD_REACTORS
330
42
102
}
330
42
100
AcDbScale
 70
     0
300
1/32" = 1'-0"
140
0.03125
141
12.0
290
     0
  0
SCALE
  5
47
102
{ACAD_REACTORS
330
42
102
}
330
42
100
AcDbScale
 70
     0
300
1/16" = 1'-0"
140
0.0625
141
12.0
290
     0
  0
SCALE
  5
48
102
{ACAD_REACTORS
330
42
102
}
330
42
100
AcDbScale
 70
     0
300
3/32" = 1'-0"
140
0.09375
141
12.0
290
     0
  0
SCALE
  5
49
102
{ACAD_REACTORS
330
42
102
}
330
42
100
AcDbScale
 70
     0
300
1/8" = 1'-0"
140
0.125
141
12.0
290
     0
  0
SCALE
  5
4A
102
{ACAD_REACTORS
330
42
102
}
330
42
100
AcDbScale
 70
     0
300
3/16" = 1'-0"
140
0.1875
141
12.0
290
     0
  0
SCALE
  5
4B
102
{ACAD_REACTORS
330
42
102
}
330
42
100
AcDbScale
 70
     0
300
1/4" = 1'-0"
140
0.25
141
12.0
290
     0
  0
SCALE
  5
4C
102
{ACAD_REACTORS
330
42
102
}
330
42
100
AcDbScale
 70
     0
300
3/8" = 1'-0"
140
0.375
141
12.0
290
     0
  0
SCALE
  5
4D
102
{ACAD_REACTORS
330
42
102
}
330
42
100
AcDbScale
 70
     0
300
1/2" = 1'-0"
140
0.5
141
12.0
290
     0
  0
SCALE
  5
4E
102
{ACAD_REACTORS
330
42
102
}
330
42
100
AcDbScale
 70
     0
300
3/4" = 1'-0"
140
0.75
141
12.0
290
     0
  0
SCALE
  5
4F
102
{ACAD_REACTORS
330
42
102
}
330
42
100
AcDbScale
 70
     0
300
1" = 1'-0"
140
1.0
141
12.0
290
     0
  0
SCALE
  5
50
102
{ACAD_REACTORS
330
42
102
}
330
42
100
AcDbScale
 70
     0
300
1-1/2" = 1'-0"
140
1.5
141
12.0
290
     0
  0
SCALE
  5
51
102
{ACAD_REACTORS
330
42
102
}
330
42
100
AcDbScale
 70
     0
300
3" = 1'-0"
140
3.0
141
12.0
290
     0
  0
SCALE
  5
52
102
{ACAD_REACTORS
330
42
102
}
330
42
100
AcDbScale
 70
     0
300
6" = 1'-0"
140
6.0
141
12.0
290
     0
  0
SCALE
  5
53
102
{ACAD_REACTORS
330
42
102
}
330
42
100
AcDbScale
 70
     0
300
1'-0" = 1'-0"
140
12.0
141
12.0
290
     0
  0
ACDBSECTIONVIEWSTYLE
  5
69
102
{ACAD_XDICTIONARY
360
216
102
}
102
{ACAD_REACTORS
330
68
102
}
330
68
100
AcDbModelDocViewStyle
 70
     0
  3
Imperial24
290
     0
100
AcDbSectionViewStyle
 70
     0
 71
     0
 90
       78
 71
     1
340
55
 62
   256
 40
0.24
340
0
340
0
 62
   256
 40
0.24
300
I, O, Q, S, X, Z
 40
0.48
 90
        3
 40
0.18
 90
        1
 71
     2
340
5D
 90
       25
 62
   256
340
5D
 90
       50
 62
   256
 40
0.24
 40
0.0
 40
0.24
 71
     3
340
55
 62
   256
 40
0.24
 90
        1
 40
0.75
 90
        1
300
%<\AcVar ViewType \f "%tc1">% %<\AcVar ViewSectionStartId>%-%<\AcVar ViewSectionEndId>%\PSCALE %<\AcVar ViewScale \f "%sn">%
 71
     4
 62
   256
 62
   257
300
ANSI31
 40
1.0
 90
        0
290
     0
290
     0
 90
        6
 40
0.0
 40
1.570796326794896
 40
0.2617993877991494
 40
1.308996938995747
 40
-0.2617993877991494
 40
1.832595714594046
  0
TABLESTYLE
  5
65
102
{ACAD_XDICTIONARY
360
1E1
102
}
102
{ACAD_REACTORS
330
64
102
}
330
64
100
AcDbTableStyle
280
     0
  3
Standard
 70
     0
 71
     0
 40
0.06
 41
0.06
280
     0
281
     0
  7
Standard
140
0.18
170
     2
 62
     0
 63
     7
283
     0
 90
      512
 91
        0
  1

274
    -2
284
     1
 64
     0
275
    -2
285
     1
 65
     0
276
    -2
286
     1
 66
     0
277
    -2
287
     1
 67
     0
278
    -2
288
     1
 68
     0
279
    -2
289
     1
 69
     0
  7
Standard
140
0.25
170
     5
 62
     0
 63
     7
283
     0
 90
      512
 91
        0
  1

274
    -2
284
     1
 64
     0
275
    -2
285
     1
 65
     0
276
    -2
286
     1
 66
     0
277
    -2
287
     1
 67
     0
278
    -2
288
     1
 68
     0
279
    -2
289
     1
 69
     0
  7
Standard
140
0.18
170
     5
 62
     0
 63
     7
283
     0
 90
      512
 91
        0
  1

274
    -2
284
     1
 64
     0
275
    -2
285
     1
 65
     0
276
    -2
286
     1
 66
     0
277
    -2
287
     1
 67
     0
278
    -2
288
     1
 68
     0
279
    -2
289
     1
 69
     0
  0
VISUALSTYLE
  5
2F
102
{ACAD_XDICTIONARY
360
1EE
102
}
102
{ACAD_REACTORS
330
29
102
}
330
29
100
AcDbVisualStyle
  2
2dWireframe
 70
     4
177
     2
291
     0
 71
     0
176
     1
 72
     2
176
     1
 73
     0
176
     1
 90
        0
176
     1
 40
0.6
176
     1
 41
30.0
176
     1
 63
     7
421
 16777215
176
     1
 74
     1
176
     1
 91
        4
176
     1
 64
     7
176
     1
 65
   257
176
     1
 75
     1
176
     1
175
     1
176
     1
 42
1.0
176
     1
 92
        0
176
     1
 66
   257
176
     1
 43
1.0
176
     1
 76
     1
176
     1
 77
     6
176
     1
 78
     2
176
     1
 67
     7
176
     1
 79
     5
176
     1
170
     0
176
     1
171
     0
176
     1
290
     0
176
     1
 93
        1
176
     1
 44
0.0
176
     1
173
     0
176
     1
1001
ACAD
1000
AcDbSavedByObjectVersion
1070
     0
  0
VISUALSTYLE
  5
2E
102
{ACAD_XDICTIONARY
360
1EC
102
}
102
{ACAD_REACTORS
330
29
102
}
330
29
100
AcDbVisualStyle
  2
Basic
 70
     7
177
     2
291
     1
 71
     1
176
     1
 72
     0
176
     1
 73
     1
176
     1
 90
        0
176
     1
 40
0.6
176
     1
 41
30.0
176
     1
 63
     7
421
 16777215
176
     1
 74
     0
176
     1
 91
        4
176
     1
 64
     7
176
     1
 65
   257
176
     1
 75
     1
176
     1
175
     1
176
     1
 42
1.0
176
     1
 92
        8
176
     1
 66
     7
176
     1
 43
1.0
176
     1
 76
     1
176
     1
 77
     6
176
     1
 78
     2
176
     1
 67
     7
176
     1
 79
     5
176
     1
170
     0
176
     1
171
     0
176
     1
290
     0
176
     1
 93
        1
176
     1
 44
0.0
176
     1
173
     0
176
     1
1001
ACAD
1000
AcDbSavedByObjectVersion
1070
     0
  0
VISUALSTYLE
  5
35
102
{ACAD_XDICTIONARY
360
1FA
102
}
102
{ACAD_REACTORS
330
29
102
}
330
29
100
AcDbVisualStyle
  2
Brighten
 70
    12
177
     2
291
     1
 71
     2
176
     1
 72
     2
176
     1
 73
     0
176
     1
 90
        0
176
     1
 40
0.6
176
     1
 41
30.0
176
     1
 63
     7
421
 16777215
176
     1
 74
     1
176
     1
 91
        4
176
     1
 64
     7
176
     1
 65
   257
176
     1
 75
     1
176
     1
175
     1
176
     1
 42
1.0
176
     1
 92
        8
176
     1
 66
     7
176
     1
 43
1.0
176
     1
 76
     1
176
     1
 77
     6
176
     1
 78
     2
176
     1
 67
     7
176
     1
 79
     5
176
     1
170
     0
176
     1
171
     0
176
     1
290
     0
176
     1
 93
        1
176
     1
 44
50.0
176
     1
173
     0
176
     1
1001
ACAD
1000
AcDbSavedByObjectVersion
1070
     0
  0
VISUALSTYLE
  5
39
102
{ACAD_XDICTIONARY
360
202
102
}
102
{ACAD_REACTORS
330
29
102
}
330
29
100
AcDbVisualStyle
  2
ColorChange
 70
    16
177
     2
291
     1
 71
     2
176
     1
 72
     2
176
     1
 73
     3
176
     1
 90
        0
176
     1
 40
0.6
176
     1
 41
30.0
176
     1
 63
     8
421
  8421504
176
     1
 74
     1
176
     1
 91
        4
176
     1
 64
     7
176
     1
 65
   257
176
     1
 75
     1
176
     1
175
     1
176
     1
 42
1.0
176
     1
 92
        8
176
     1
 66
     8
424
  8421504
176
     1
 43
1.0
176
     1
 76
     1
176
     1
 77
     6
176
     1
 78
     2
176
     1
 67
     7
176
     1
 79
     5
176
     1
170
     0
176
     1
171
     0
176
     1
290
     0
176
     1
 93
        1
176
     1
 44
0.0
176
     1
173
     0
176
     1
1001
ACAD
1000
AcDbSavedByObjectVersion
1070
     0
  0
VISUALSTYLE
  5
32
102
{ACAD_XDICTIONARY
360
1F4
102
}
102
{ACAD_REACTORS
330
29
102
}
330
29
100
AcDbVisualStyle
  2
Conceptual
 70
     9
177
     2
291
     0
 71
     3
176
     1
 72
     2
176
     1
 73
     0
176
     1
 90
        0
176
     1
 40
0.6
176
     1
 41
30.0
176
     1
 63
     7
421
 16777215
176
     1
 74
     2
176
     1
 91
        2
176
     1
 64
     7
176
     1
 65
   257
176
     1
 75
     1
176
     1
175
     1
176
     1
 42
179.0
176
     1
 92
        8
176
     1
 66
     7
176
     1
 43
1.0
176
     1
 76
     1
176
     1
 77
     6
176
     1
 78
     2
176
     1
 67
     7
176
     1
 79
     3
176
     1
170
     0
176
     1
171
     0
176
     1
290
     0
176
     1
 93
        1
176
     1
 44
0.0
176
     1
173
     0
176
     1
1001
ACAD
1000
AcDbSavedByObjectVersion
1070
     0
  0
VISUALSTYLE
  5
34
102
{ACAD_XDICTIONARY
360
1F8
102
}
102
{ACAD_REACTORS
330
29
102
}
330
29
100
AcDbVisualStyle
  2
Dim
 70
    11
177
     2
291
     1
 71
     2
176
     1
 72
     2
176
     1
 73
     0
176
     1
 90
        0
176
     1
 40
0.6
176
     1
 41
30.0
176
     1
 63
     7
421
 16777215
176
     1
 74
     1
176
     1
 91
        4
176
     1
 64
     7
176
     1
 65
   257
176
     1
 75
     1
176
     1
175
     1
176
     1
 42
1.0
176
     1
 92
        8
176
     1
 66
     7
176
     1
 43
1.0
176
     1
 76
     1
176
     1
 77
     6
176
     1
 78
     2
176
     1
 67
     7
176
     1
 79
     5
176
     1
170
     0
176
     1
171
     0
176
     1
290
     0
176
     1
 93
        1
176
     1
 44
-50.0
176
     1
173
     0
176
     1
1001
ACAD
1000
AcDbSavedByObjectVersion
1070
     0
  0
VISUALSTYLE
  5
41
102
{ACAD_XDICTIONARY
360
212
102
}
102
{ACAD_REACTORS
330
29
102
}
330
29
100
AcDbVisualStyle
  2
EdgeColorOff
 70
    22
177
     2
291
     1
 71
     2
176
     0
 72
     2
176
     0
 73
     0
176
     0
 90
        0
176
     0
 40
0.6
176
     0
 41
30.0
176
     0
 63
     7
421
 16777215
176
     0
 74
     1
176
     0
 91
        4
176
     0
 64
     7
176
     0
 65
   257
176
     0
 75
     1
176
     0
175
     1
176
     0
 42
1.0
176
     0
 92
        8
176
     2
 66
     7
176
     0
 43
1.0
176
     0
 76
     1
176
     0
 77
     6
176
     0
 78
     2
176
     0
 67
     7
176
     0
 79
     5
176
     0
170
     0
176
     0
171
     0
176
     0
290
     0
176
     0
 93
        1
176
     0
 44
0.0
176
     0
173
     0
176
     0
1001
ACAD
1000
AcDbSavedByObjectVersion
1070
     0
  0
VISUALSTYLE
  5
38
102
{ACAD_XDICTIONARY
360
200
102
}
102
{ACAD_REACTORS
330
29
102
}
330
29
100
AcDbVisualStyle
  2
Facepattern
 70
    15
177
     2
291
     1
 71
     2
176
     1
 72
     2
176
     1
 73
     0
176
     1
 90
        0
176
     1
 40
0.6
176
     1
 41
30.0
176
     1
 63
     7
421
 16777215
176
     1
 74
     1
176
     1
 91
        4
176
     1
 64
     7
176
     1
 65
   257
176
     1
 75
     1
176
     1
175
     1
176
     1
 42
1.0
176
     1
 92
        8
176
     1
 66
     7
176
     1
 43
1.0
176
     1
 76
     1
176
     1
 77
     6
176
     1
 78
     2
176
     1
 67
     7
176
     1
 79
     5
176
     1
170
     0
176
     1
171
     0
176
     1
290
     0
176
     1
 93
        1
176
     1
 44
0.0
176
     1
173
     0
176
     1
1001
ACAD
1000
AcDbSavedByObjectVersion
1070
     0
  0
VISUALSTYLE
  5
2A
102
{ACAD_XDICTIONARY
360
1E4
102
}
102
{ACAD_REACTORS
330
29
102
}
330
29
100
AcDbVisualStyle
  2
Flat
 70
     0
177
     2
291
     1
 71
     2
176
     1
 72
     1
176
     1
 73
     1
176
     1
 90
        2
176
     1
 40
0.6
176
     1
 41
30.0
176
     1
 63
     7
421
 16777215
176
     1
 74
     0
176
     1
 91
        0
176
     1
 64
     7
176
     1
 65
   257
176
     1
 75
     1
176
     1
175
     1
176
     1
 42
1.0
176
     1
 92
        8
176
     1
 66
     7
176
     1
 43
1.0
176
     1
 76
     1
176
     1
 77
     6
176
     1
 78
     2
176
     1
 67
     7
176
     1
 79
     5
176
     1
170
     0
176
     1
171
     0
176
     1
290
     0
176
     1
 93
       13
176
     1
 44
0.0
176
     1
173
     0
176
     1
1001
ACAD
1000
AcDbSavedByObjectVersion
1070
     0
  0
VISUALSTYLE
  5
2B
102
{ACAD_XDICTIONARY
360
1E6
102
}
102
{ACAD_REACTORS
330
29
102
}
330
29
100
AcDbVisualStyle
  2
FlatWithEdges
 70
     1
177
     2
291
     1
 71
     2
176
     1
 72
     1
176
     1
 73
     1
176
     1
 90
        2
176
     1
 40
0.6
176
     1
 41
30.0
176
     1
 63
     7
421
 16777215
176
     1
 74
     1
176
     1
 91
        0
176
     1
 64
     7
176
     1
 65
   257
176
     1
 75
     1
176
     1
175
     1
176
     1
 42
1.0
176
     1
 92
        0
176
     1
 66
   257
176
     1
 43
1.0
176
     1
 76
     1
176
     1
 77
     6
176
     1
 78
     2
176
     1
 67
     7
176
     1
 79
     5
176
     1
170
     0
176
     1
171
     0
176
     1
290
     0
176
     1
 93
       13
176
     1
 44
0.0
176
     1
173
     0
176
     1
1001
ACAD
1000
AcDbSavedByObjectVersion
1070
     0
  0
VISUALSTYLE
  5
2C
102
{ACAD_XDICTIONARY
360
1E8
102
}
102
{ACAD_REACTORS
330
29
102
}
330
29
100
AcDbVisualStyle
  2
Gouraud
 70
     2
177
     2
291
     1
 71
     2
176
     1
 72
     2
176
     1
 73
     1
176
     1
 90
        2
176
     1
 40
0.6
176
     1
 41
30.0
176
     1
 63
     7
421
 16777215
176
     1
 74
     0
176
     1
 91
        0
176
     1
 64
     7
176
     1
 65
   257
176
     1
 75
     1
176
     1
175
     1
176
     1
 42
1.0
176
     1
 92
        0
176
     1
 66
     7
176
     1
 43
1.0
176
     1
 76
     1
176
     1
 77
     6
176
     1
 78
     2
176
     1
 67
     7
176
     1
 79
     5
176
     1
170
     0
176
     1
171
     0
176
     1
290
     0
176
     1
 93
       13
176
     1
 44
0.0
176
     1
173
     0
176
     1
1001
ACAD
1000
AcDbSavedByObjectVersion
1070
     0
  0
VISUALSTYLE
  5
2D
102
{ACAD_XDICTIONARY
360
1EA
102
}
102
{ACAD_REACTORS
330
29
102
}
330
29
100
AcDbVisualStyle
  2
GouraudWithEdges
 70
     3
177
     2
291
     1
 71
     2
176
     1
 72
     2
176
     1
 73
     1
176
     1
 90
        2
176
     1
 40
0.6
176
     1
 41
30.0
176
     1
 63
     7
421
 16777215
176
     1
 74
     1
176
     1
 91
        0
176
     1
 64
     7
176
     1
 65
   257
176
     1
 75
     1
176
     1
175
     1
176
     1
 42
1.0
176
     1
 92
        0
176
     1
 66
   257
176
     1
 43
1.0
176
     1
 76
     1
176
     1
 77
     6
176
     1
 78
     2
176
     1
 67
     7
176
     1
 79
     5
176
     1
170
     0
176
     1
171
     0
176
     1
290
     0
176
     1
 93
       13
176
     1
 44
0.0
176
     1
173
     0
176
     1
1001
ACAD
1000
AcDbSavedByObjectVersion
1070
     0
  0
VISUALSTYLE
  5
31
102
{ACAD_XDICTIONARY
360
1F2
102
}
102
{ACAD_REACTORS
330
29
102
}
330
29
100
AcDbVisualStyle
  2
Hidden
 70
     6
177
     2
291
     0
 71
     1
176
     1
 72
     2
176
     1
 73
     2
176
     1
 90
        0
176
     1
 40
0.6
176
     1
 41
30.0
176
     1
 63
     7
421
 16777215
176
     1
 74
     2
176
     1
 91
        2
176
     1
 64
     7
176
     1
 65
   257
176
     1
 75
     2
176
     1
175
     1
176
     1
 42
40.0
176
     1
 92
        0
176
     1
 66
   257
176
     1
 43
1.0
176
     1
 76
     1
176
     1
 77
     6
176
     1
 78
     2
176
     1
 67
     7
176
     1
 79
     3
176
     1
170
     0
176
     1
171
     0
176
     1
290
     0
176
     1
 93
        1
176
     1
 44
0.0
176
     1
173
     0
176
     1
1001
ACAD
1000
AcDbSavedByObjectVersion
1070
     0
  0
VISUALSTYLE
  5
3F
102
{ACAD_XDICTIONARY
360
20E
102
}
102
{ACAD_REACTORS
330
29
102
}
330
29
100
AcDbVisualStyle
  2
JitterOff
 70
    20
177
     2
291
     1
 71
     2
176
     0
 72
     2
176
     0
 73
     0
176
     0
 90
        0
176
     0
 40
0.6
176
     0
 41
30.0
176
     0
 63
     7
421
 16777215
176
     0
 74
     1
176
     0
 91
        4
176
     0
 64
     7
176
     0
 65
   257
176
     0
 75
     1
176
     0
175
     1
176
     0
 42
1.0
176
     0
 92
       10
176
     2
 66
     7
176
     0
 43
1.0
176
     0
 76
     1
176
     0
 77
     6
176
     0
 78
     2
176
     0
 67
     7
176
     0
 79
     5
176
     0
170
     0
176
     0
171
     0
176
     0
290
     0
176
     0
 93
        1
176
     0
 44
0.0
176
     0
173
     0
176
     0
1001
ACAD
1000
AcDbSavedByObjectVersion
1070
     0
  0
VISUALSTYLE
  5
37
102
{ACAD_XDICTIONARY
360
1FE
102
}
102
{ACAD_REACTORS
330
29
102
}
330
29
100
AcDbVisualStyle
  2
Linepattern
 70
    14
177
     2
291
     1
 71
     2
176
     1
 72
     2
176
     1
 73
     0
176
     1
 90
        0
176
     1
 40
0.6
176
     1
 41
30.0
176
     1
 63
     7
421
 16777215
176
     1
 74
     1
176
     1
 91
        4
176
     1
 64
     7
176
     1
 65
   257
176
     1
 75
     7
176
     1
175
     7
176
     1
 42
1.0
176
     1
 92
        8
176
     1
 66
     7
176
     1
 43
1.0
176
     1
 76
     1
176
     1
 77
     6
176
     1
 78
     2
176
     1
 67
     7
176
     1
 79
     5
176
     1
170
     0
176
     1
171
     0
176
     1
290
     0
176
     1
 93
        1
176
     1
 44
0.0
176
     1
173
     0
176
     1
1001
ACAD
1000
AcDbSavedByObjectVersion
1070
     0
  0
VISUALSTYLE
  5
40
102
{ACAD_XDICTIONARY
360
210
102
}
102
{ACAD_REACTORS
330
29
102
}
330
29
100
AcDbVisualStyle
  2
OverhangOff
 70
    21
177
     2
291
     1
 71
     2
176
     0
 72
     2
176
     0
 73
     0
176
     0
 90
        0
176
     0
 40
0.6
176
     0
 41
30.0
176
     0
 63
     7
421
 16777215
176
     0
 74
     1
176
     0
 91
        4
176
     0
 64
     7
176
     0
 65
   257
176
     0
 75
     1
176
     0
175
     1
176
     0
 42
1.0
176
     0
 92
        9
176
     2
 66
     7
176
     0
 43
1.0
176
     0
 76
     1
176
     0
 77
     6
176
     0
 78
     2
176
     0
 67
     7
176
     0
 79
     5
176
     0
170
     0
176
     0
171
     0
176
     0
290
     0
176
     0
 93
        1
176
     0
 44
0.0
176
     0
173
     0
176
     0
1001
ACAD
1000
AcDbSavedByObjectVersion
1070
     0
  0
VISUALSTYLE
  5
33
102
{ACAD_XDICTIONARY
360
1F6
102
}
102
{ACAD_REACTORS
330
29
102
}
330
29
100
AcDbVisualStyle
  2
Realistic
 70
     8
177
     2
291
     0
 71
     2
176
     1
 72
     3
176
     1
 73
     0
176
     1
 90
        2
176
     1
 40
0.6
176
     1
 41
30.0
176
     1
 63
     7
421
 16777215
176
     1
 74
     0
176
     1
 91
        0
176
     1
 64
     7
176
     1
 65
   257
176
     1
 75
     1
176
     1
175
     1
176
     1
 42
1.0
176
     1
 92
        8
176
     1
 66
   257
176
     1
 43
1.0
176
     1
 76
     1
176
     1
 77
     6
176
     1
 78
     2
176
     1
 67
     7
176
     1
 79
     3
176
     1
170
     0
176
     1
171
     0
176
     1
290
     0
176
     1
 93
       13
176
     1
 44
0.0
176
     1
173
     0
176
     1
1001
ACAD
1000
AcDbSavedByObjectVersion
1070
     0
  0
VISUALSTYLE
  5
3E
102
{ACAD_XDICTIONARY
360
20C
102
}
102
{ACAD_REACTORS
330
29
102
}
330
29
100
AcDbVisualStyle
  2
Shaded
 70
    27
177
     2
291
     0
 71
     2
176
     1
 72
     2
176
     1
 73
     1
176
     1
 90
        2
176
     1
 40
0.6
176
     1
 41
30.0
176
     1
 63
     7
421
 16777215
176
     1
 74
     0
176
     1
 91
        4
176
     1
 64
     7
176
     1
 65
   257
176
     1
 75
     1
176
     1
175
     1
176
     1
 42
1.0
176
     1
 92
        8
176
     1
 66
   257
176
     1
 43
1.0
176
     1
 76
     1
176
     1
 77
     6
176
     1
 78
     2
176
     1
 67
     8
425
  7895160
176
     1
 79
     3
176
     1
170
     0
176
     1
171
     0
176
     1
290
     0
176
     1
 93
        5
176
     1
 44
0.0
176
     1
173
     0
176
     1
1001
ACAD
1000
AcDbSavedByObjectVersion
1070
     0
  0
VISUALSTYLE
  5
3D
102
{ACAD_XDICTIONARY
360
20A
102
}
102
{ACAD_REACTORS
330
29
102
}
330
29
100
AcDbVisualStyle
  2
Shaded with edges
 70
    26
177
     2
291
     0
 71
     2
176
     1
 72
     2
176
     1
 73
     1
176
     1
 90
        2
176
     1
 40
0.6
176
     1
 41
30.0
176
     1
 63
     7
421
 16777215
176
     1
 74
     1
176
     1
 91
        2
176
     1
 64
     7
176
     1
 65
   257
176
     1
 75
     2
176
     1
175
     1
176
     1
 42
1.0
176
     1
 92
        8
176
     1
 66
   257
176
     1
 43
1.0
176
     1
 76
     1
176
     1
 77
     6
176
     1
 78
     2
176
     1
 67
     7
176
     1
 79
     3
176
     1
170
     0
176
     1
171
     0
176
     1
290
     0
176
     1
 93
        5
176
     1
 44
0.0
176
     1
173
     0
176
     1
1001
ACAD
1000
AcDbSavedByObjectVersion
1070
     0
  0
VISUALSTYLE
  5
3A
102
{ACAD_XDICTIONARY
360
204
102
}
102
{ACAD_REACTORS
330
29
102
}
330
29
100
AcDbVisualStyle
  2
Shades of Gray
 70
    23
177
     2
291
     0
 71
     2
176
     1
 72
     2
176
     1
 73
     3
176
     1
 90
        0
176
     1
 40
0.6
176
     1
 41
30.0
176
     1
 63
     7
421
 16777215
176
     1
 74
     2
176
     1
 91
        2
176
     1
 64
     7
176
     1
 65
     7
176
     1
 75
     1
176
     1
175
     1
176
     1
 42
40.0
176
     1
 92
        8
176
     1
 66
     7
176
     1
 43
1.0
176
     1
 76
     1
176
     1
 77
     6
176
     1
 78
     2
176
     1
 67
     7
176
     1
 79
     3
176
     1
170
     0
176
     1
171
     0
176
     1
290
     0
176
     1
 93
        1
176
     1
 44
0.0
176
     1
173
     0
176
     1
1001
ACAD
1000
AcDbSavedByObjectVersion
1070
     0
  0
VISUALSTYLE
  5
3B
102
{ACAD_XDICTIONARY
360
206
102
}
102
{ACAD_REACTORS
330
29
102
}
330
29
100
AcDbVisualStyle
  2
Sketchy
 70
    24
177
     2
291
     0
 71
     1
176
     1
 72
     2
176
     1
 73
     2
176
     1
 90
        0
176
     1
 40
0.6
176
     1
 41
30.0
176
     1
 63
     7
421
 16777215
176
     1
 74
     2
176
     1
 91
        2
176
     1
 64
     7
176
     1
 65
     7
176
     1
 75
     1
176
     1
175
     1
176
     1
 42
40.0
176
     1
 92
       11
176
     1
 66
     7
176
     1
 43
1.0
176
     1
 76
     1
176
     1
 77
     6
176
     1
 78
     2
176
     1
 67
     7
176
     1
 79
     6
176
     1
170
     0
176
     1
171
     0
176
     1
290
     0
176
     1
 93
        1
176
     1
 44
0.0
176
     1
173
     0
176
     1
1001
ACAD
1000
AcDbSavedByObjectVersion
1070
     0
  0
VISUALSTYLE
  5
36
102
{ACAD_XDICTIONARY
360
1FC
102
}
102
{ACAD_REACTORS
330
29
102
}
330
29
100
AcDbVisualStyle
  2
Thicken
 70
    13
177
     2
291
     1
 71
     2
176
     1
 72
     2
176
     1
 73
     0
176
     1
 90
        0
176
     1
 40
0.6
176
     1
 41
30.0
176
     1
 63
     7
421
 16777215
176
     1
 74
     1
176
     1
 91
        4
176
     1
 64
     7
176
     1
 65
   257
176
     1
 75
     1
176
     1
175
     1
176
     1
 42
1.0
176
     1
 92
       12
176
     1
 66
     7
176
     1
 43
1.0
176
     1
 76
     1
176
     1
 77
     6
176
     1
 78
     2
176
     1
 67
     7
176
     1
 79
     5
176
     1
170
     0
176
     1
171
     0
176
     1
290
     0
176
     1
 93
        1
176
     1
 44
0.0
176
     1
173
     0
176
     1
1001
ACAD
1000
AcDbSavedByObjectVersion
1070
     0
  0
VISUALSTYLE
  5
30
102
{ACAD_XDICTIONARY
360
1F0
102
}
102
{ACAD_REACTORS
330
29
102
}
330
29
100
AcDbVisualStyle
  2
Wireframe
 70
     5
177
     2
291
     0
 71
     0
176
     1
 72
     2
176
     1
 73
     0
176
     1
 90
        0
176
     1
 40
0.6
176
     1
 41
30.0
176
     1
 63
     7
421
 16777215
176
     1
 74
     1
176
     1
 91
        4
176
     1
 64
     7
176
     1
 65
   257
176
     1
 75
     1
176
     1
175
     1
176
     1
 42
1.0
176
     1
 92
        0
176
     1
 66
   257
176
     1
 43
1.0
176
     1
 76
     1
176
     1
 77
     6
176
     1
 78
     2
176
     1
 67
     7
176
     1
 79
     3
176
     1
170
     0
176
     1
171
     0
176
     1
290
     0
176
     1
 93
        1
176
     1
 44
0.0
176
     1
173
     0
176
     1
1001
ACAD
1000
AcDbSavedByObjectVersion
1070
     0
  0
VISUALSTYLE
  5
3C
102
{ACAD_XDICTIONARY
360
208
102
}
102
{ACAD_REACTORS
330
29
102
}
330
29
100
AcDbVisualStyle
  2
X-Ray
 70
    25
177
     2
291
     0
 71
     2
176
     1
 72
     2
176
     1
 73
     1
176
     1
 90
        1
176
     1
 40
0.5
176
     1
 41
30.0
176
     1
 63
     7
421
 16777215
176
     1
 74
     1
176
     1
 91
        0
176
     1
 64
     7
176
     1
 65
   257
176
     1
 75
     1
176
     1
175
     1
176
     1
 42
1.0
176
     1
 92
        8
176
     1
 66
     7
176
     1
 43
1.0
176
     1
 76
     1
176
     1
 77
     6
176
     1
 78
     2
176
     1
 67
     7
176
     1
 79
     3
176
     1
170
     0
176
     1
171
     0
176
     1
290
     0
176
     1
 93
       13
176
     1
 44
0.0
176
     1
173
     0
176
     1
1001
ACAD
1000
AcDbSavedByObjectVersion
1070
     0
  0
DICTIONARYVAR
  5
A7
102
{ACAD_REACTORS
330
A2
102
}
330
A2
100
DictionaryVariables
280
     0
  1
1:1
  0
DICTIONARYVAR
  5
A4
102
{ACAD_REACTORS
330
A2
102
}
330
A2
100
DictionaryVariables
280
     0
  1
STANDARD
  0
DICTIONARYVAR
  5
A3
102
{ACAD_REACTORS
330
A2
102
}
330
A2
100
DictionaryVariables
280
     0
  1
STANDARD
  0
DICTIONARYVAR
  5
A5
102
{ACAD_REACTORS
330
A2
102
}
330
A2
100
DictionaryVariables
280
     0
  1
Imperial24
  0
DICTIONARYVAR
  5
A6
102
{ACAD_REACTORS
330
A2
102
}
330
A2
100
DictionaryVariables
280
     0
  1
Imperial24
  0
XRECORD
  5
9F
102
{ACAD_REACTORS
330
9C
102
}
330
9C
100
AcDbXrecord
280
     1
  1
BUILDING_ID
  1
Tub_Filler-DXV-Oak_Hill-D35155760_Series
  1
FLOOR_ID
  1
1884
  0
XRECORD
  5
9D
102
{ACAD_REACTORS
330
9C
102
}
330
9C
100
AcDbXrecord
280
     1
  1
-2000051
  1
Lines
  1
-2001160
  1
Plumbing Fixtures
  0
XRECORD
  5
9E
102
{ACAD_REACTORS
330
9C
102
}
330
9C
100
AcDbXrecord
280
     1
  1
-2000287
  1
<Beyond>
  0
DICTIONARY
  5
218
330
6B
100
AcDbDictionary
280
     1
281
     1
  3
ACAD_XREC_ROUNDTRIP
360
219
  0
DICTIONARY
  5
1A
330
19
100
AcDbDictionary
280
     1
281
     1
  3
BUMPTILE
360
1C
  3
DIFFUSETILE
360
1B
  3
OPACITYTILE
360
1F
  3
REFLECTIONTILE
360
1E
  3
REFRACTIONTILE
360
20
  3
SPECULARTILE
360
1D
  0
DICTIONARY
  5
12
330
11
100
AcDbDictionary
280
     1
281
     1
  3
BUMPTILE
360
14
  3
DIFFUSETILE
360
13
  3
OPACITYTILE
360
17
  3
REFLECTIONTILE
360
16
  3
REFRACTIONTILE
360
18
  3
SPECULARTILE
360
15
  0
DICTIONARY
  5
22
330
21
100
AcDbDictionary
280
     1
281
     1
  3
BUMPTILE
360
24
  3
DIFFUSETILE
360
23
  3
OPACITYTILE
360
27
  3
REFLECTIONTILE
360
26
  3
REFRACTIONTILE
360
28
  3
SPECULARTILE
360
25
  0
DICTIONARY
  5
214
330
67
100
AcDbDictionary
280
     1
281
     1
  3
ACAD_XREC_ROUNDTRIP
360
215
  0
DICTIONARY
  5
216
330
69
100
AcDbDictionary
280
     1
281
     1
  3
ACAD_XREC_ROUNDTRIP
360
217
  0
DICTIONARY
  5
1E1
330
65
100
AcDbDictionary
280
     1
281
     1
  3
ACAD_ROUNDTRIP_2008_TABLESTYLE_CELLSTYLEMAP
360
1E2
  0
DICTIONARY
  5
1EE
330
2F
100
AcDbDictionary
280
     1
281
     1
  3
ACAD_XREC_ROUNDTRIP
360
1EF
  0
DICTIONARY
  5
1EC
330
2E
100
AcDbDictionary
280
     1
281
     1
  3
ACAD_XREC_ROUNDTRIP
360
1ED
  0
DICTIONARY
  5
1FA
330
35
100
AcDbDictionary
280
     1
281
     1
  3
ACAD_XREC_ROUNDTRIP
360
1FB
  0
DICTIONARY
  5
202
330
39
100
AcDbDictionary
280
     1
281
     1
  3
ACAD_XREC_ROUNDTRIP
360
203
  0
DICTIONARY
  5
1F4
330
32
100
AcDbDictionary
280
     1
281
     1
  3
ACAD_XREC_ROUNDTRIP
360
1F5
  0
DICTIONARY
  5
1F8
330
34
100
AcDbDictionary
280
     1
281
     1
  3
ACAD_XREC_ROUNDTRIP
360
1F9
  0
DICTIONARY
  5
212
330
41
100
AcDbDictionary
280
     1
281
     1
  3
ACAD_XREC_ROUNDTRIP
360
213
  0
DICTIONARY
  5
200
330
38
100
AcDbDictionary
280
     1
281
     1
  3
ACAD_XREC_ROUNDTRIP
360
201
  0
DICTIONARY
  5
1E4
330
2A
100
AcDbDictionary
280
     1
281
     1
  3
ACAD_XREC_ROUNDTRIP
360
1E5
  0
DICTIONARY
  5
1E6
330
2B
100
AcDbDictionary
280
     1
281
     1
  3
ACAD_XREC_ROUNDTRIP
360
1E7
  0
DICTIONARY
  5
1E8
330
2C
100
AcDbDictionary
280
     1
281
     1
  3
ACAD_XREC_ROUNDTRIP
360
1E9
  0
DICTIONARY
  5
1EA
330
2D
100
AcDbDictionary
280
     1
281
     1
  3
ACAD_XREC_ROUNDTRIP
360
1EB
  0
DICTIONARY
  5
1F2
330
31
100
AcDbDictionary
280
     1
281
     1
  3
ACAD_XREC_ROUNDTRIP
360
1F3
  0
DICTIONARY
  5
20E
330
3F
100
AcDbDictionary
280
     1
281
     1
  3
ACAD_XREC_ROUNDTRIP
360
20F
  0
DICTIONARY
  5
1FE
330
37
100
AcDbDictionary
280
     1
281
     1
  3
ACAD_XREC_ROUNDTRIP
360
1FF
  0
DICTIONARY
  5
210
330
40
100
AcDbDictionary
280
     1
281
     1
  3
ACAD_XREC_ROUNDTRIP
360
211
  0
DICTIONARY
  5
1F6
330
33
100
AcDbDictionary
280
     1
281
     1
  3
ACAD_XREC_ROUNDTRIP
360
1F7
  0
DICTIONARY
  5
20C
330
3E
100
AcDbDictionary
280
     1
281
     1
  3
ACAD_XREC_ROUNDTRIP
360
20D
  0
DICTIONARY
  5
20A
330
3D
100
AcDbDictionary
280
     1
281
     1
  3
ACAD_XREC_ROUNDTRIP
360
20B
  0
DICTIONARY
  5
204
330
3A
100
AcDbDictionary
280
     1
281
     1
  3
ACAD_XREC_ROUNDTRIP
360
205
  0
DICTIONARY
  5
206
330
3B
100
AcDbDictionary
280
     1
281
     1
  3
ACAD_XREC_ROUNDTRIP
360
207
  0
DICTIONARY
  5
1FC
330
36
100
AcDbDictionary
280
     1
281
     1
  3
ACAD_XREC_ROUNDTRIP
360
1FD
  0
DICTIONARY
  5
1F0
330
30
100
AcDbDictionary
280
     1
281
     1
  3
ACAD_XREC_ROUNDTRIP
360
1F1
  0
DICTIONARY
  5
208
330
3C
100
AcDbDictionary
280
     1
281
     1
  3
ACAD_XREC_ROUNDTRIP
360
209
  0
XRECORD
  5
219
102
{ACAD_REACTORS
330
218
102
}
330
218
100
AcDbXrecord
280
     1
102
DISPLAYNAME
  1
Imperial24
102
FLAGS
 90
        0
  0
XRECORD
  5
1C
102
{ACAD_REACTORS
330
1A
102
}
330
1A
100
AcDbXrecord
280
     1
270
     1
271
     1
  0
XRECORD
  5
1B
102
{ACAD_REACTORS
330
1A
102
}
330
1A
100
AcDbXrecord
280
     1
270
     1
271
     1
  0
XRECORD
  5
1F
102
{ACAD_REACTORS
330
1A
102
}
330
1A
100
AcDbXrecord
280
     1
270
     1
271
     1
  0
XRECORD
  5
1E
102
{ACAD_REACTORS
330
1A
102
}
330
1A
100
AcDbXrecord
280
     1
270
     1
271
     1
  0
XRECORD
  5
20
102
{ACAD_REACTORS
330
1A
102
}
330
1A
100
AcDbXrecord
280
     1
270
     1
271
     1
  0
XRECORD
  5
1D
102
{ACAD_REACTORS
330
1A
102
}
330
1A
100
AcDbXrecord
280
     1
270
     1
271
     1
  0
XRECORD
  5
14
102
{ACAD_REACTORS
330
12
102
}
330
12
100
AcDbXrecord
280
     1
270
     1
271
     1
  0
XRECORD
  5
13
102
{ACAD_REACTORS
330
12
102
}
330
12
100
AcDbXrecord
280
     1
270
     1
271
     1
  0
XRECORD
  5
17
102
{ACAD_REACTORS
330
12
102
}
330
12
100
AcDbXrecord
280
     1
270
     1
271
     1
  0
XRECORD
  5
16
102
{ACAD_REACTORS
330
12
102
}
330
12
100
AcDbXrecord
280
     1
270
     1
271
     1
  0
XRECORD
  5
18
102
{ACAD_REACTORS
330
12
102
}
330
12
100
AcDbXrecord
280
     1
270
     1
271
     1
  0
XRECORD
  5
15
102
{ACAD_REACTORS
330
12
102
}
330
12
100
AcDbXrecord
280
     1
270
     1
271
     1
  0
XRECORD
  5
24
102
{ACAD_REACTORS
330
22
102
}
330
22
100
AcDbXrecord
280
     1
270
     1
271
     1
  0
XRECORD
  5
23
102
{ACAD_REACTORS
330
22
102
}
330
22
100
AcDbXrecord
280
     1
270
     1
271
     1
  0
XRECORD
  5
27
102
{ACAD_REACTORS
330
22
102
}
330
22
100
AcDbXrecord
280
     1
270
     1
271
     1
  0
XRECORD
  5
26
102
{ACAD_REACTORS
330
22
102
}
330
22
100
AcDbXrecord
280
     1
270
     1
271
     1
  0
XRECORD
  5
28
102
{ACAD_REACTORS
330
22
102
}
330
22
100
AcDbXrecord
280
     1
270
     1
271
     1
  0
XRECORD
  5
25
102
{ACAD_REACTORS
330
22
102
}
330
22
100
AcDbXrecord
280
     1
270
     1
271
     1
  0
XRECORD
  5
215
102
{ACAD_REACTORS
330
214
102
}
330
214
100
AcDbXrecord
280
     1
102
ACAD_ROUNDTRIP_2012_MLEADER_STYLE
298
     1
  0
XRECORD
  5
217
102
{ACAD_REACTORS
330
216
102
}
330
216
100
AcDbXrecord
280
     1
102
DISPLAYNAME
  1
Imperial24
102
FLAGS
 90
        0
  0
CELLSTYLEMAP
  5
1E2
102
{ACAD_REACTORS
330
1E1
102
}
330
1E1
100
AcDbCellStyleMap
 90
        3
300
CELLSTYLE
  1
TABLEFORMAT_BEGIN
 90
        5
170
     1
 91
        0
 92
    32768
 62
   257
 93
        1
300
CONTENTFORMAT
  1
CONTENTFORMAT_BEGIN
 90
        0
 91
        0
 92
      512
 93
        0
300

 40
0.0
140
1.0
 94
        5
 62
     0
340
55
144
0.25
309
CONTENTFORMAT_END
171
     0
 94
        0
309
TABLEFORMAT_END
  1
CELLSTYLE_BEGIN
 90
        1
 91
        1
300
_TITLE
309
CELLSTYLE_END
300
CELLSTYLE
  1
TABLEFORMAT_BEGIN
 90
        5
170
     1
 91
        0
 92
        0
 62
   257
 93
        1
300
CONTENTFORMAT
  1
CONTENTFORMAT_BEGIN
 90
        0
 91
        0
 92
      512
 93
        0
300

 40
0.0
140
1.0
 94
        5
 62
     0
340
55
144
0.18
309
CONTENTFORMAT_END
171
     0
 94
        0
309
TABLEFORMAT_END
  1
CELLSTYLE_BEGIN
 90
        2
 91
        1
300
_HEADER
309
CELLSTYLE_END
300
CELLSTYLE
  1
TABLEFORMAT_BEGIN
 90
        5
170
     1
 91
        0
 92
        0
 62
   257
 93
        1
300
CONTENTFORMAT
  1
CONTENTFORMAT_BEGIN
 90
        0
 91
        0
 92
      512
 93
        0
300

 40
0.0
140
1.0
 94
        2
 62
     0
340
55
144
0.18
309
CONTENTFORMAT_END
171
     0
 94
        0
309
TABLEFORMAT_END
  1
CELLSTYLE_BEGIN
 90
        3
 91
        2
300
_DATA
309
CELLSTYLE_END
  0
XRECORD
  5
1EF
102
{ACAD_REACTORS
330
1EE
102
}
330
1EE
100
AcDbXrecord
280
     1
102
RTVSPost2010Prop28
280
     1
102
RTVSPost2010PropOp28
 70
     1
102
RTVSPost2010Prop29
280
     1
102
RTVSPost2010PropOp29
 70
     1
102
RTVSPost2010Prop30
280
     0
102
RTVSPost2010PropOp30
 70
     1
102
RTVSPost2010Prop31
280
     0
102
RTVSPost2010PropOp31
 70
     1
102
RTVSPost2010Prop32
280
     0
102
RTVSPost2010PropOp32
 70
     1
102
RTVSPost2010Prop33
280
     0
102
RTVSPost2010PropOp33
 70
     1
102
RTVSPost2010Prop34
280
     0
102
RTVSPost2010PropOp34
 70
     1
102
RTVSPost2010Prop35
280
     0
102
RTVSPost2010PropOp35
 70
     1
102
RTVSPost2010Prop36
280
     0
102
RTVSPost2010PropOp36
 70
     1
102
RTVSPost2010Prop37
 90
       50
102
RTVSPost2010PropOp37
 70
     1
102
RTVSPost2010Prop38
140
0.0
102
RTVSPost2010PropOp38
 70
     1
102
RTVSPost2010Prop39
140
1.0
102
RTVSPost2010PropOp39
 70
     1
102
RTVSPost2010Prop40
 90
        0
102
RTVSPost2010PropOp40
 70
     1
102
RTVSPost2010Prop41ColorIndex
 90
       18
102
RTVSPost2010Prop41ColorRGB
 90
        0
102
RTVSPost2010PropOp41
 70
     1
102
RTVSPost2010Prop42
 90
       50
102
RTVSPost2010PropOp42
 70
     1
102
RTVSPost2010Prop43
 90
        3
102
RTVSPost2010PropOp43
 70
     1
102
RTVSPost2010Prop44ColorIndex
 90
        5
102
RTVSPost2010Prop44ColorRGB
 90
      255
102
RTVSPost2010PropOp44
 70
     1
102
RTVSPost2010Prop45
280
     0
102
RTVSPost2010PropOp45
 70
     1
102
RTVSPost2010Prop46
 90
       50
102
RTVSPost2010PropOp46
 70
     1
102
RTVSPost2010Prop47
 90
       50
102
RTVSPost2010PropOp47
 70
     1
102
RTVSPost2010Prop48
 90
       50
102
RTVSPost2010PropOp48
 70
     1
102
RTVSPost2010Prop49
280
     0
102
RTVSPost2010PropOp49
 70
     1
102
RTVSPost2010Prop50
 90
       50
102
RTVSPost2010PropOp50
 70
     1
102
RTVSPost2010Prop51ColorIndex
 90
      256
102
RTVSPost2010Prop51ColorRGB
 90
-16777216
102
RTVSPost2010PropOp51
 70
     0
102
RTVSPost2010Prop52
140
1.0
102
RTVSPost2010PropOp52
 70
     0
102
RTVSPost2010Prop53
 90
        2
102
RTVSPost2010PropOp53
 70
     1
102
RTVSPost2010Prop54
  1
strokes_ogs.tif
102
RTVSPost2010PropOp54
 70
     1
102
RTVSPost2010Prop55
280
     0
102
RTVSPost2010PropOp55
 70
     1
102
RTVSPost2010Prop56
140
1.0
102
RTVSPost2010PropOp56
 70
     1
102
RTVSPost2010Prop57
140
1.0
102
RTVSPost2010PropOp57
 70
     1
  0
XRECORD
  5
1ED
102
{ACAD_REACTORS
330
1EC
102
}
330
1EC
100
AcDbXrecord
280
     1
102
RTVSPost2010Prop28
280
     0
102
RTVSPost2010PropOp28
 70
     1
102
RTVSPost2010Prop29
280
     1
102
RTVSPost2010PropOp29
 70
     1
102
RTVSPost2010Prop30
280
     1
102
RTVSPost2010PropOp30
 70
     1
102
RTVSPost2010Prop31
280
     0
102
RTVSPost2010PropOp31
 70
     1
102
RTVSPost2010Prop32
280
     0
102
RTVSPost2010PropOp32
 70
     1
102
RTVSPost2010Prop33
280
     0
102
RTVSPost2010PropOp33
 70
     1
102
RTVSPost2010Prop34
280
     0
102
RTVSPost2010PropOp34
 70
     1
102
RTVSPost2010Prop35
280
     0
102
RTVSPost2010PropOp35
 70
     1
102
RTVSPost2010Prop36
280
     0
102
RTVSPost2010PropOp36
 70
     1
102
RTVSPost2010Prop37
 90
       50
102
RTVSPost2010PropOp37
 70
     1
102
RTVSPost2010Prop38
140
0.0
102
RTVSPost2010PropOp38
 70
     1
102
RTVSPost2010Prop39
140
1.0
102
RTVSPost2010PropOp39
 70
     1
102
RTVSPost2010Prop40
 90
        0
102
RTVSPost2010PropOp40
 70
     1
102
RTVSPost2010Prop41ColorIndex
 90
       18
102
RTVSPost2010Prop41ColorRGB
 90
        0
102
RTVSPost2010PropOp41
 70
     1
102
RTVSPost2010Prop42
 90
       50
102
RTVSPost2010PropOp42
 70
     1
102
RTVSPost2010Prop43
 90
        3
102
RTVSPost2010PropOp43
 70
     1
102
RTVSPost2010Prop44ColorIndex
 90
        5
102
RTVSPost2010Prop44ColorRGB
 90
      255
102
RTVSPost2010PropOp44
 70
     1
102
RTVSPost2010Prop45
280
     0
102
RTVSPost2010PropOp45
 70
     1
102
RTVSPost2010Prop46
 90
       50
102
RTVSPost2010PropOp46
 70
     1
102
RTVSPost2010Prop47
 90
       50
102
RTVSPost2010PropOp47
 70
     1
102
RTVSPost2010Prop48
 90
       50
102
RTVSPost2010PropOp48
 70
     1
102
RTVSPost2010Prop49
280
     0
102
RTVSPost2010PropOp49
 70
     1
102
RTVSPost2010Prop50
 90
       50
102
RTVSPost2010PropOp50
 70
     1
102
RTVSPost2010Prop51ColorIndex
 90
      256
102
RTVSPost2010Prop51ColorRGB
 90
-16777216
102
RTVSPost2010PropOp51
 70
     0
102
RTVSPost2010Prop52
140
1.0
102
RTVSPost2010PropOp52
 70
     0
102
RTVSPost2010Prop53
 90
        2
102
RTVSPost2010PropOp53
 70
     1
102
RTVSPost2010Prop54
  1
strokes_ogs.tif
102
RTVSPost2010PropOp54
 70
     1
102
RTVSPost2010Prop55
280
     0
102
RTVSPost2010PropOp55
 70
     1
102
RTVSPost2010Prop56
140
1.0
102
RTVSPost2010PropOp56
 70
     1
102
RTVSPost2010Prop57
140
1.0
102
RTVSPost2010PropOp57
 70
     1
  0
XRECORD
  5
1FB
102
{ACAD_REACTORS
330
1FA
102
}
330
1FA
100
AcDbXrecord
280
     1
102
RTVSPost2010Prop28
280
     0
102
RTVSPost2010PropOp28
 70
     1
102
RTVSPost2010Prop29
280
     1
102
RTVSPost2010PropOp29
 70
     1
102
RTVSPost2010Prop30
280
     1
102
RTVSPost2010PropOp30
 70
     1
102
RTVSPost2010Prop31
280
     0
102
RTVSPost2010PropOp31
 70
     1
102
RTVSPost2010Prop32
280
     0
102
RTVSPost2010PropOp32
 70
     1
102
RTVSPost2010Prop33
280
     0
102
RTVSPost2010PropOp33
 70
     1
102
RTVSPost2010Prop34
280
     0
102
RTVSPost2010PropOp34
 70
     1
102
RTVSPost2010Prop35
280
     0
102
RTVSPost2010PropOp35
 70
     1
102
RTVSPost2010Prop36
280
     0
102
RTVSPost2010PropOp36
 70
     1
102
RTVSPost2010Prop37
 90
       50
102
RTVSPost2010PropOp37
 70
     1
102
RTVSPost2010Prop38
140
0.0
102
RTVSPost2010PropOp38
 70
     1
102
RTVSPost2010Prop39
140
1.0
102
RTVSPost2010PropOp39
 70
     1
102
RTVSPost2010Prop40
 90
        0
102
RTVSPost2010PropOp40
 70
     1
102
RTVSPost2010Prop41ColorIndex
 90
       18
102
RTVSPost2010Prop41ColorRGB
 90
        0
102
RTVSPost2010PropOp41
 70
     1
102
RTVSPost2010Prop42
 90
       50
102
RTVSPost2010PropOp42
 70
     1
102
RTVSPost2010Prop43
 90
        3
102
RTVSPost2010PropOp43
 70
     1
102
RTVSPost2010Prop44ColorIndex
 90
        5
102
RTVSPost2010Prop44ColorRGB
 90
      255
102
RTVSPost2010PropOp44
 70
     1
102
RTVSPost2010Prop45
280
     0
102
RTVSPost2010PropOp45
 70
     1
102
RTVSPost2010Prop46
 90
       50
102
RTVSPost2010PropOp46
 70
     1
102
RTVSPost2010Prop47
 90
       50
102
RTVSPost2010PropOp47
 70
     1
102
RTVSPost2010Prop48
 90
       50
102
RTVSPost2010PropOp48
 70
     1
102
RTVSPost2010Prop49
280
     0
102
RTVSPost2010PropOp49
 70
     1
102
RTVSPost2010Prop50
 90
       50
102
RTVSPost2010PropOp50
 70
     1
102
RTVSPost2010Prop51ColorIndex
 90
      256
102
RTVSPost2010Prop51ColorRGB
 90
-16777216
102
RTVSPost2010PropOp51
 70
     0
102
RTVSPost2010Prop52
140
1.0
102
RTVSPost2010PropOp52
 70
     0
102
RTVSPost2010Prop53
 90
        2
102
RTVSPost2010PropOp53
 70
     1
102
RTVSPost2010Prop54
  1
strokes_ogs.tif
102
RTVSPost2010PropOp54
 70
     1
102
RTVSPost2010Prop55
280
     0
102
RTVSPost2010PropOp55
 70
     1
102
RTVSPost2010Prop56
140
1.0
102
RTVSPost2010PropOp56
 70
     1
102
RTVSPost2010Prop57
140
1.0
102
RTVSPost2010PropOp57
 70
     1
  0
XRECORD
  5
203
102
{ACAD_REACTORS
330
202
102
}
330
202
100
AcDbXrecord
280
     1
102
RTVSPost2010Prop28
280
     0
102
RTVSPost2010PropOp28
 70
     1
102
RTVSPost2010Prop29
280
     1
102
RTVSPost2010PropOp29
 70
     1
102
RTVSPost2010Prop30
280
     1
102
RTVSPost2010PropOp30
 70
     1
102
RTVSPost2010Prop31
280
     0
102
RTVSPost2010PropOp31
 70
     1
102
RTVSPost2010Prop32
280
     0
102
RTVSPost2010PropOp32
 70
     1
102
RTVSPost2010Prop33
280
     0
102
RTVSPost2010PropOp33
 70
     1
102
RTVSPost2010Prop34
280
     0
102
RTVSPost2010PropOp34
 70
     1
102
RTVSPost2010Prop35
280
     0
102
RTVSPost2010PropOp35
 70
     1
102
RTVSPost2010Prop36
280
     0
102
RTVSPost2010PropOp36
 70
     1
102
RTVSPost2010Prop37
 90
       50
102
RTVSPost2010PropOp37
 70
     1
102
RTVSPost2010Prop38
140
0.0
102
RTVSPost2010PropOp38
 70
     1
102
RTVSPost2010Prop39
140
1.0
102
RTVSPost2010PropOp39
 70
     1
102
RTVSPost2010Prop40
 90
        0
102
RTVSPost2010PropOp40
 70
     1
102
RTVSPost2010Prop41ColorIndex
 90
       18
102
RTVSPost2010Prop41ColorRGB
 90
        0
102
RTVSPost2010PropOp41
 70
     1
102
RTVSPost2010Prop42
 90
       50
102
RTVSPost2010PropOp42
 70
     1
102
RTVSPost2010Prop43
 90
        3
102
RTVSPost2010PropOp43
 70
     1
102
RTVSPost2010Prop44ColorIndex
 90
        5
102
RTVSPost2010Prop44ColorRGB
 90
      255
102
RTVSPost2010PropOp44
 70
     1
102
RTVSPost2010Prop45
280
     0
102
RTVSPost2010PropOp45
 70
     1
102
RTVSPost2010Prop46
 90
       50
102
RTVSPost2010PropOp46
 70
     1
102
RTVSPost2010Prop47
 90
       50
102
RTVSPost2010PropOp47
 70
     1
102
RTVSPost2010Prop48
 90
       50
102
RTVSPost2010PropOp48
 70
     1
102
RTVSPost2010Prop49
280
     0
102
RTVSPost2010PropOp49
 70
     1
102
RTVSPost2010Prop50
 90
       50
102
RTVSPost2010PropOp50
 70
     1
102
RTVSPost2010Prop51ColorIndex
 90
      256
102
RTVSPost2010Prop51ColorRGB
 90
-16777216
102
RTVSPost2010PropOp51
 70
     0
102
RTVSPost2010Prop52
140
1.0
102
RTVSPost2010PropOp52
 70
     0
102
RTVSPost2010Prop53
 90
        2
102
RTVSPost2010PropOp53
 70
     1
102
RTVSPost2010Prop54
  1
strokes_ogs.tif
102
RTVSPost2010PropOp54
 70
     1
102
RTVSPost2010Prop55
280
     0
102
RTVSPost2010PropOp55
 70
     1
102
RTVSPost2010Prop56
140
1.0
102
RTVSPost2010PropOp56
 70
     1
102
RTVSPost2010Prop57
140
1.0
102
RTVSPost2010PropOp57
 70
     1
  0
XRECORD
  5
1F5
102
{ACAD_REACTORS
330
1F4
102
}
330
1F4
100
AcDbXrecord
280
     1
102
RTVSPost2010Prop28
280
     0
102
RTVSPost2010PropOp28
 70
     1
102
RTVSPost2010Prop29
280
     1
102
RTVSPost2010PropOp29
 70
     1
102
RTVSPost2010Prop30
280
     1
102
RTVSPost2010PropOp30
 70
     1
102
RTVSPost2010Prop31
280
     0
102
RTVSPost2010PropOp31
 70
     1
102
RTVSPost2010Prop32
280
     0
102
RTVSPost2010PropOp32
 70
     1
102
RTVSPost2010Prop33
280
     0
102
RTVSPost2010PropOp33
 70
     1
102
RTVSPost2010Prop34
280
     0
102
RTVSPost2010PropOp34
 70
     1
102
RTVSPost2010Prop35
280
     0
102
RTVSPost2010PropOp35
 70
     1
102
RTVSPost2010Prop36
280
     0
102
RTVSPost2010PropOp36
 70
     1
102
RTVSPost2010Prop37
 90
       50
102
RTVSPost2010PropOp37
 70
     1
102
RTVSPost2010Prop38
140
0.0
102
RTVSPost2010PropOp38
 70
     1
102
RTVSPost2010Prop39
140
1.0
102
RTVSPost2010PropOp39
 70
     1
102
RTVSPost2010Prop40
 90
        0
102
RTVSPost2010PropOp40
 70
     1
102
RTVSPost2010Prop41ColorIndex
 90
       18
102
RTVSPost2010Prop41ColorRGB
 90
        0
102
RTVSPost2010PropOp41
 70
     1
102
RTVSPost2010Prop42
 90
       50
102
RTVSPost2010PropOp42
 70
     1
102
RTVSPost2010Prop43
 90
        3
102
RTVSPost2010PropOp43
 70
     1
102
RTVSPost2010Prop44ColorIndex
 90
        5
102
RTVSPost2010Prop44ColorRGB
 90
      255
102
RTVSPost2010PropOp44
 70
     1
102
RTVSPost2010Prop45
280
     0
102
RTVSPost2010PropOp45
 70
     1
102
RTVSPost2010Prop46
 90
       50
102
RTVSPost2010PropOp46
 70
     1
102
RTVSPost2010Prop47
 90
       50
102
RTVSPost2010PropOp47
 70
     1
102
RTVSPost2010Prop48
 90
       50
102
RTVSPost2010PropOp48
 70
     1
102
RTVSPost2010Prop49
280
     0
102
RTVSPost2010PropOp49
 70
     1
102
RTVSPost2010Prop50
 90
       50
102
RTVSPost2010PropOp50
 70
     1
102
RTVSPost2010Prop51ColorIndex
 90
      256
102
RTVSPost2010Prop51ColorRGB
 90
-16777216
102
RTVSPost2010PropOp51
 70
     0
102
RTVSPost2010Prop52
140
1.0
102
RTVSPost2010PropOp52
 70
     0
102
RTVSPost2010Prop53
 90
        2
102
RTVSPost2010PropOp53
 70
     1
102
RTVSPost2010Prop54
  1
strokes_ogs.tif
102
RTVSPost2010PropOp54
 70
     1
102
RTVSPost2010Prop55
280
     0
102
RTVSPost2010PropOp55
 70
     1
102
RTVSPost2010Prop56
140
1.0
102
RTVSPost2010PropOp56
 70
     1
102
RTVSPost2010Prop57
140
1.0
102
RTVSPost2010PropOp57
 70
     1
  0
XRECORD
  5
1F9
102
{ACAD_REACTORS
330
1F8
102
}
330
1F8
100
AcDbXrecord
280
     1
102
RTVSPost2010Prop28
280
     0
102
RTVSPost2010PropOp28
 70
     1
102
RTVSPost2010Prop29
280
     1
102
RTVSPost2010PropOp29
 70
     1
102
RTVSPost2010Prop30
280
     1
102
RTVSPost2010PropOp30
 70
     1
102
RTVSPost2010Prop31
280
     0
102
RTVSPost2010PropOp31
 70
     1
102
RTVSPost2010Prop32
280
     0
102
RTVSPost2010PropOp32
 70
     1
102
RTVSPost2010Prop33
280
     0
102
RTVSPost2010PropOp33
 70
     1
102
RTVSPost2010Prop34
280
     0
102
RTVSPost2010PropOp34
 70
     1
102
RTVSPost2010Prop35
280
     0
102
RTVSPost2010PropOp35
 70
     1
102
RTVSPost2010Prop36
280
     0
102
RTVSPost2010PropOp36
 70
     1
102
RTVSPost2010Prop37
 90
       50
102
RTVSPost2010PropOp37
 70
     1
102
RTVSPost2010Prop38
140
0.0
102
RTVSPost2010PropOp38
 70
     1
102
RTVSPost2010Prop39
140
1.0
102
RTVSPost2010PropOp39
 70
     1
102
RTVSPost2010Prop40
 90
        0
102
RTVSPost2010PropOp40
 70
     1
102
RTVSPost2010Prop41ColorIndex
 90
       18
102
RTVSPost2010Prop41ColorRGB
 90
        0
102
RTVSPost2010PropOp41
 70
     1
102
RTVSPost2010Prop42
 90
       50
102
RTVSPost2010PropOp42
 70
     1
102
RTVSPost2010Prop43
 90
        3
102
RTVSPost2010PropOp43
 70
     1
102
RTVSPost2010Prop44ColorIndex
 90
        5
102
RTVSPost2010Prop44ColorRGB
 90
      255
102
RTVSPost2010PropOp44
 70
     1
102
RTVSPost2010Prop45
280
     0
102
RTVSPost2010PropOp45
 70
     1
102
RTVSPost2010Prop46
 90
       50
102
RTVSPost2010PropOp46
 70
     1
102
RTVSPost2010Prop47
 90
       50
102
RTVSPost2010PropOp47
 70
     1
102
RTVSPost2010Prop48
 90
       50
102
RTVSPost2010PropOp48
 70
     1
102
RTVSPost2010Prop49
280
     0
102
RTVSPost2010PropOp49
 70
     1
102
RTVSPost2010Prop50
 90
       50
102
RTVSPost2010PropOp50
 70
     1
102
RTVSPost2010Prop51ColorIndex
 90
      256
102
RTVSPost2010Prop51ColorRGB
 90
-16777216
102
RTVSPost2010PropOp51
 70
     0
102
RTVSPost2010Prop52
140
1.0
102
RTVSPost2010PropOp52
 70
     0
102
RTVSPost2010Prop53
 90
        2
102
RTVSPost2010PropOp53
 70
     1
102
RTVSPost2010Prop54
  1
strokes_ogs.tif
102
RTVSPost2010PropOp54
 70
     1
102
RTVSPost2010Prop55
280
     0
102
RTVSPost2010PropOp55
 70
     1
102
RTVSPost2010Prop56
140
1.0
102
RTVSPost2010PropOp56
 70
     1
102
RTVSPost2010Prop57
140
1.0
102
RTVSPost2010PropOp57
 70
     1
  0
XRECORD
  5
213
102
{ACAD_REACTORS
330
212
102
}
330
212
100
AcDbXrecord
280
     1
102
RTVSPost2010Prop28
280
     0
102
RTVSPost2010PropOp28
 70
     0
102
RTVSPost2010Prop29
280
     1
102
RTVSPost2010PropOp29
 70
     0
102
RTVSPost2010Prop30
280
     1
102
RTVSPost2010PropOp30
 70
     0
102
RTVSPost2010Prop31
280
     0
102
RTVSPost2010PropOp31
 70
     0
102
RTVSPost2010Prop32
280
     0
102
RTVSPost2010PropOp32
 70
     0
102
RTVSPost2010Prop33
280
     0
102
RTVSPost2010PropOp33
 70
     0
102
RTVSPost2010Prop34
280
     0
102
RTVSPost2010PropOp34
 70
     0
102
RTVSPost2010Prop35
280
     0
102
RTVSPost2010PropOp35
 70
     0
102
RTVSPost2010Prop36
280
     0
102
RTVSPost2010PropOp36
 70
     0
102
RTVSPost2010Prop37
 90
       50
102
RTVSPost2010PropOp37
 70
     0
102
RTVSPost2010Prop38
140
0.0
102
RTVSPost2010PropOp38
 70
     0
102
RTVSPost2010Prop39
140
1.0
102
RTVSPost2010PropOp39
 70
     0
102
RTVSPost2010Prop40
 90
        0
102
RTVSPost2010PropOp40
 70
     0
102
RTVSPost2010Prop41ColorIndex
 90
       18
102
RTVSPost2010Prop41ColorRGB
 90
        0
102
RTVSPost2010PropOp41
 70
     0
102
RTVSPost2010Prop42
 90
       50
102
RTVSPost2010PropOp42
 70
     0
102
RTVSPost2010Prop43
 90
        3
102
RTVSPost2010PropOp43
 70
     0
102
RTVSPost2010Prop44ColorIndex
 90
        5
102
RTVSPost2010Prop44ColorRGB
 90
      255
102
RTVSPost2010PropOp44
 70
     0
102
RTVSPost2010Prop45
280
     0
102
RTVSPost2010PropOp45
 70
     0
102
RTVSPost2010Prop46
 90
       50
102
RTVSPost2010PropOp46
 70
     0
102
RTVSPost2010Prop47
 90
       50
102
RTVSPost2010PropOp47
 70
     0
102
RTVSPost2010Prop48
 90
       50
102
RTVSPost2010PropOp48
 70
     0
102
RTVSPost2010Prop49
280
     0
102
RTVSPost2010PropOp49
 70
     0
102
RTVSPost2010Prop50
 90
       50
102
RTVSPost2010PropOp50
 70
     0
102
RTVSPost2010Prop51ColorIndex
 90
      256
102
RTVSPost2010Prop51ColorRGB
 90
-16777216
102
RTVSPost2010PropOp51
 70
     0
102
RTVSPost2010Prop52
140
1.0
102
RTVSPost2010PropOp52
 70
     0
102
RTVSPost2010Prop53
 90
        2
102
RTVSPost2010PropOp53
 70
     0
102
RTVSPost2010Prop54
  1
strokes_ogs.tif
102
RTVSPost2010PropOp54
 70
     0
102
RTVSPost2010Prop55
280
     0
102
RTVSPost2010PropOp55
 70
     0
102
RTVSPost2010Prop56
140
1.0
102
RTVSPost2010PropOp56
 70
     0
102
RTVSPost2010Prop57
140
1.0
102
RTVSPost2010PropOp57
 70
     0
  0
XRECORD
  5
201
102
{ACAD_REACTORS
330
200
102
}
330
200
100
AcDbXrecord
280
     1
102
RTVSPost2010Prop28
280
     0
102
RTVSPost2010PropOp28
 70
     1
102
RTVSPost2010Prop29
280
     1
102
RTVSPost2010PropOp29
 70
     1
102
RTVSPost2010Prop30
280
     1
102
RTVSPost2010PropOp30
 70
     1
102
RTVSPost2010Prop31
280
     0
102
RTVSPost2010PropOp31
 70
     1
102
RTVSPost2010Prop32
280
     0
102
RTVSPost2010PropOp32
 70
     1
102
RTVSPost2010Prop33
280
     0
102
RTVSPost2010PropOp33
 70
     1
102
RTVSPost2010Prop34
280
     0
102
RTVSPost2010PropOp34
 70
     1
102
RTVSPost2010Prop35
280
     0
102
RTVSPost2010PropOp35
 70
     1
102
RTVSPost2010Prop36
280
     0
102
RTVSPost2010PropOp36
 70
     1
102
RTVSPost2010Prop37
 90
       50
102
RTVSPost2010PropOp37
 70
     1
102
RTVSPost2010Prop38
140
0.0
102
RTVSPost2010PropOp38
 70
     1
102
RTVSPost2010Prop39
140
1.0
102
RTVSPost2010PropOp39
 70
     1
102
RTVSPost2010Prop40
 90
        0
102
RTVSPost2010PropOp40
 70
     1
102
RTVSPost2010Prop41ColorIndex
 90
       18
102
RTVSPost2010Prop41ColorRGB
 90
        0
102
RTVSPost2010PropOp41
 70
     1
102
RTVSPost2010Prop42
 90
       50
102
RTVSPost2010PropOp42
 70
     1
102
RTVSPost2010Prop43
 90
        3
102
RTVSPost2010PropOp43
 70
     1
102
RTVSPost2010Prop44ColorIndex
 90
        5
102
RTVSPost2010Prop44ColorRGB
 90
      255
102
RTVSPost2010PropOp44
 70
     1
102
RTVSPost2010Prop45
280
     0
102
RTVSPost2010PropOp45
 70
     1
102
RTVSPost2010Prop46
 90
       50
102
RTVSPost2010PropOp46
 70
     1
102
RTVSPost2010Prop47
 90
       50
102
RTVSPost2010PropOp47
 70
     1
102
RTVSPost2010Prop48
 90
       50
102
RTVSPost2010PropOp48
 70
     1
102
RTVSPost2010Prop49
280
     0
102
RTVSPost2010PropOp49
 70
     1
102
RTVSPost2010Prop50
 90
       50
102
RTVSPost2010PropOp50
 70
     1
102
RTVSPost2010Prop51ColorIndex
 90
      256
102
RTVSPost2010Prop51ColorRGB
 90
-16777216
102
RTVSPost2010PropOp51
 70
     0
102
RTVSPost2010Prop52
140
1.0
102
RTVSPost2010PropOp52
 70
     0
102
RTVSPost2010Prop53
 90
        2
102
RTVSPost2010PropOp53
 70
     1
102
RTVSPost2010Prop54
  1
strokes_ogs.tif
102
RTVSPost2010PropOp54
 70
     1
102
RTVSPost2010Prop55
280
     0
102
RTVSPost2010PropOp55
 70
     1
102
RTVSPost2010Prop56
140
1.0
102
RTVSPost2010PropOp56
 70
     1
102
RTVSPost2010Prop57
140
1.0
102
RTVSPost2010PropOp57
 70
     1
  0
XRECORD
  5
1E5
102
{ACAD_REACTORS
330
1E4
102
}
330
1E4
100
AcDbXrecord
280
     1
102
RTVSPost2010Prop28
280
     0
102
RTVSPost2010PropOp28
 70
     1
102
RTVSPost2010Prop29
280
     1
102
RTVSPost2010PropOp29
 70
     1
102
RTVSPost2010Prop30
280
     1
102
RTVSPost2010PropOp30
 70
     1
102
RTVSPost2010Prop31
280
     0
102
RTVSPost2010PropOp31
 70
     1
102
RTVSPost2010Prop32
280
     0
102
RTVSPost2010PropOp32
 70
     1
102
RTVSPost2010Prop33
280
     0
102
RTVSPost2010PropOp33
 70
     1
102
RTVSPost2010Prop34
280
     0
102
RTVSPost2010PropOp34
 70
     1
102
RTVSPost2010Prop35
280
     0
102
RTVSPost2010PropOp35
 70
     1
102
RTVSPost2010Prop36
280
     0
102
RTVSPost2010PropOp36
 70
     1
102
RTVSPost2010Prop37
 90
       50
102
RTVSPost2010PropOp37
 70
     1
102
RTVSPost2010Prop38
140
0.0
102
RTVSPost2010PropOp38
 70
     1
102
RTVSPost2010Prop39
140
1.0
102
RTVSPost2010PropOp39
 70
     1
102
RTVSPost2010Prop40
 90
        0
102
RTVSPost2010PropOp40
 70
     1
102
RTVSPost2010Prop41ColorIndex
 90
       18
102
RTVSPost2010Prop41ColorRGB
 90
        0
102
RTVSPost2010PropOp41
 70
     1
102
RTVSPost2010Prop42
 90
       50
102
RTVSPost2010PropOp42
 70
     1
102
RTVSPost2010Prop43
 90
        3
102
RTVSPost2010PropOp43
 70
     1
102
RTVSPost2010Prop44ColorIndex
 90
        5
102
RTVSPost2010Prop44ColorRGB
 90
      255
102
RTVSPost2010PropOp44
 70
     1
102
RTVSPost2010Prop45
280
     0
102
RTVSPost2010PropOp45
 70
     1
102
RTVSPost2010Prop46
 90
       50
102
RTVSPost2010PropOp46
 70
     1
102
RTVSPost2010Prop47
 90
       50
102
RTVSPost2010PropOp47
 70
     1
102
RTVSPost2010Prop48
 90
       50
102
RTVSPost2010PropOp48
 70
     1
102
RTVSPost2010Prop49
280
     0
102
RTVSPost2010PropOp49
 70
     1
102
RTVSPost2010Prop50
 90
       50
102
RTVSPost2010PropOp50
 70
     1
102
RTVSPost2010Prop51ColorIndex
 90
      256
102
RTVSPost2010Prop51ColorRGB
 90
-16777216
102
RTVSPost2010PropOp51
 70
     0
102
RTVSPost2010Prop52
140
1.0
102
RTVSPost2010PropOp52
 70
     0
102
RTVSPost2010Prop53
 90
        2
102
RTVSPost2010PropOp53
 70
     1
102
RTVSPost2010Prop54
  1
strokes_ogs.tif
102
RTVSPost2010PropOp54
 70
     1
102
RTVSPost2010Prop55
280
     0
102
RTVSPost2010PropOp55
 70
     1
102
RTVSPost2010Prop56
140
1.0
102
RTVSPost2010PropOp56
 70
     1
102
RTVSPost2010Prop57
140
1.0
102
RTVSPost2010PropOp57
 70
     1
  0
XRECORD
  5
1E7
102
{ACAD_REACTORS
330
1E6
102
}
330
1E6
100
AcDbXrecord
280
     1
102
RTVSPost2010Prop28
280
     0
102
RTVSPost2010PropOp28
 70
     1
102
RTVSPost2010Prop29
280
     1
102
RTVSPost2010PropOp29
 70
     1
102
RTVSPost2010Prop30
280
     1
102
RTVSPost2010PropOp30
 70
     1
102
RTVSPost2010Prop31
280
     0
102
RTVSPost2010PropOp31
 70
     1
102
RTVSPost2010Prop32
280
     0
102
RTVSPost2010PropOp32
 70
     1
102
RTVSPost2010Prop33
280
     0
102
RTVSPost2010PropOp33
 70
     1
102
RTVSPost2010Prop34
280
     0
102
RTVSPost2010PropOp34
 70
     1
102
RTVSPost2010Prop35
280
     0
102
RTVSPost2010PropOp35
 70
     1
102
RTVSPost2010Prop36
280
     0
102
RTVSPost2010PropOp36
 70
     1
102
RTVSPost2010Prop37
 90
       50
102
RTVSPost2010PropOp37
 70
     1
102
RTVSPost2010Prop38
140
0.0
102
RTVSPost2010PropOp38
 70
     1
102
RTVSPost2010Prop39
140
1.0
102
RTVSPost2010PropOp39
 70
     1
102
RTVSPost2010Prop40
 90
        0
102
RTVSPost2010PropOp40
 70
     1
102
RTVSPost2010Prop41ColorIndex
 90
       18
102
RTVSPost2010Prop41ColorRGB
 90
        0
102
RTVSPost2010PropOp41
 70
     1
102
RTVSPost2010Prop42
 90
       50
102
RTVSPost2010PropOp42
 70
     1
102
RTVSPost2010Prop43
 90
        3
102
RTVSPost2010PropOp43
 70
     1
102
RTVSPost2010Prop44ColorIndex
 90
        5
102
RTVSPost2010Prop44ColorRGB
 90
      255
102
RTVSPost2010PropOp44
 70
     1
102
RTVSPost2010Prop45
280
     0
102
RTVSPost2010PropOp45
 70
     1
102
RTVSPost2010Prop46
 90
       50
102
RTVSPost2010PropOp46
 70
     1
102
RTVSPost2010Prop47
 90
       50
102
RTVSPost2010PropOp47
 70
     1
102
RTVSPost2010Prop48
 90
       50
102
RTVSPost2010PropOp48
 70
     1
102
RTVSPost2010Prop49
280
     0
102
RTVSPost2010PropOp49
 70
     1
102
RTVSPost2010Prop50
 90
       50
102
RTVSPost2010PropOp50
 70
     1
102
RTVSPost2010Prop51ColorIndex
 90
      256
102
RTVSPost2010Prop51ColorRGB
 90
-16777216
102
RTVSPost2010PropOp51
 70
     0
102
RTVSPost2010Prop52
140
1.0
102
RTVSPost2010PropOp52
 70
     0
102
RTVSPost2010Prop53
 90
        2
102
RTVSPost2010PropOp53
 70
     1
102
RTVSPost2010Prop54
  1
strokes_ogs.tif
102
RTVSPost2010PropOp54
 70
     1
102
RTVSPost2010Prop55
280
     0
102
RTVSPost2010PropOp55
 70
     1
102
RTVSPost2010Prop56
140
1.0
102
RTVSPost2010PropOp56
 70
     1
102
RTVSPost2010Prop57
140
1.0
102
RTVSPost2010PropOp57
 70
     1
  0
XRECORD
  5
1E9
102
{ACAD_REACTORS
330
1E8
102
}
330
1E8
100
AcDbXrecord
280
     1
102
RTVSPost2010Prop28
280
     0
102
RTVSPost2010PropOp28
 70
     1
102
RTVSPost2010Prop29
280
     1
102
RTVSPost2010PropOp29
 70
     1
102
RTVSPost2010Prop30
280
     1
102
RTVSPost2010PropOp30
 70
     1
102
RTVSPost2010Prop31
280
     0
102
RTVSPost2010PropOp31
 70
     1
102
RTVSPost2010Prop32
280
     0
102
RTVSPost2010PropOp32
 70
     1
102
RTVSPost2010Prop33
280
     0
102
RTVSPost2010PropOp33
 70
     1
102
RTVSPost2010Prop34
280
     0
102
RTVSPost2010PropOp34
 70
     1
102
RTVSPost2010Prop35
280
     0
102
RTVSPost2010PropOp35
 70
     1
102
RTVSPost2010Prop36
280
     0
102
RTVSPost2010PropOp36
 70
     1
102
RTVSPost2010Prop37
 90
       50
102
RTVSPost2010PropOp37
 70
     1
102
RTVSPost2010Prop38
140
0.0
102
RTVSPost2010PropOp38
 70
     1
102
RTVSPost2010Prop39
140
1.0
102
RTVSPost2010PropOp39
 70
     1
102
RTVSPost2010Prop40
 90
        0
102
RTVSPost2010PropOp40
 70
     1
102
RTVSPost2010Prop41ColorIndex
 90
       18
102
RTVSPost2010Prop41ColorRGB
 90
        0
102
RTVSPost2010PropOp41
 70
     1
102
RTVSPost2010Prop42
 90
       50
102
RTVSPost2010PropOp42
 70
     1
102
RTVSPost2010Prop43
 90
        3
102
RTVSPost2010PropOp43
 70
     1
102
RTVSPost2010Prop44ColorIndex
 90
        5
102
RTVSPost2010Prop44ColorRGB
 90
      255
102
RTVSPost2010PropOp44
 70
     1
102
RTVSPost2010Prop45
280
     0
102
RTVSPost2010PropOp45
 70
     1
102
RTVSPost2010Prop46
 90
       50
102
RTVSPost2010PropOp46
 70
     1
102
RTVSPost2010Prop47
 90
       50
102
RTVSPost2010PropOp47
 70
     1
102
RTVSPost2010Prop48
 90
       50
102
RTVSPost2010PropOp48
 70
     1
102
RTVSPost2010Prop49
280
     0
102
RTVSPost2010PropOp49
 70
     1
102
RTVSPost2010Prop50
 90
       50
102
RTVSPost2010PropOp50
 70
     1
102
RTVSPost2010Prop51ColorIndex
 90
      256
102
RTVSPost2010Prop51ColorRGB
 90
-16777216
102
RTVSPost2010PropOp51
 70
     0
102
RTVSPost2010Prop52
140
1.0
102
RTVSPost2010PropOp52
 70
     0
102
RTVSPost2010Prop53
 90
        2
102
RTVSPost2010PropOp53
 70
     1
102
RTVSPost2010Prop54
  1
strokes_ogs.tif
102
RTVSPost2010PropOp54
 70
     1
102
RTVSPost2010Prop55
280
     0
102
RTVSPost2010PropOp55
 70
     1
102
RTVSPost2010Prop56
140
1.0
102
RTVSPost2010PropOp56
 70
     1
102
RTVSPost2010Prop57
140
1.0
102
RTVSPost2010PropOp57
 70
     1
  0
XRECORD
  5
1EB
102
{ACAD_REACTORS
330
1EA
102
}
330
1EA
100
AcDbXrecord
280
     1
102
RTVSPost2010Prop28
280
     0
102
RTVSPost2010PropOp28
 70
     1
102
RTVSPost2010Prop29
280
     1
102
RTVSPost2010PropOp29
 70
     1
102
RTVSPost2010Prop30
280
     1
102
RTVSPost2010PropOp30
 70
     1
102
RTVSPost2010Prop31
280
     0
102
RTVSPost2010PropOp31
 70
     1
102
RTVSPost2010Prop32
280
     0
102
RTVSPost2010PropOp32
 70
     1
102
RTVSPost2010Prop33
280
     0
102
RTVSPost2010PropOp33
 70
     1
102
RTVSPost2010Prop34
280
     0
102
RTVSPost2010PropOp34
 70
     1
102
RTVSPost2010Prop35
280
     0
102
RTVSPost2010PropOp35
 70
     1
102
RTVSPost2010Prop36
280
     0
102
RTVSPost2010PropOp36
 70
     1
102
RTVSPost2010Prop37
 90
       50
102
RTVSPost2010PropOp37
 70
     1
102
RTVSPost2010Prop38
140
0.0
102
RTVSPost2010PropOp38
 70
     1
102
RTVSPost2010Prop39
140
1.0
102
RTVSPost2010PropOp39
 70
     1
102
RTVSPost2010Prop40
 90
        0
102
RTVSPost2010PropOp40
 70
     1
102
RTVSPost2010Prop41ColorIndex
 90
       18
102
RTVSPost2010Prop41ColorRGB
 90
        0
102
RTVSPost2010PropOp41
 70
     1
102
RTVSPost2010Prop42
 90
       50
102
RTVSPost2010PropOp42
 70
     1
102
RTVSPost2010Prop43
 90
        3
102
RTVSPost2010PropOp43
 70
     1
102
RTVSPost2010Prop44ColorIndex
 90
        5
102
RTVSPost2010Prop44ColorRGB
 90
      255
102
RTVSPost2010PropOp44
 70
     1
102
RTVSPost2010Prop45
280
     0
102
RTVSPost2010PropOp45
 70
     1
102
RTVSPost2010Prop46
 90
       50
102
RTVSPost2010PropOp46
 70
     1
102
RTVSPost2010Prop47
 90
       50
102
RTVSPost2010PropOp47
 70
     1
102
RTVSPost2010Prop48
 90
       50
102
RTVSPost2010PropOp48
 70
     1
102
RTVSPost2010Prop49
280
     0
102
RTVSPost2010PropOp49
 70
     1
102
RTVSPost2010Prop50
 90
       50
102
RTVSPost2010PropOp50
 70
     1
102
RTVSPost2010Prop51ColorIndex
 90
      256
102
RTVSPost2010Prop51ColorRGB
 90
-16777216
102
RTVSPost2010PropOp51
 70
     0
102
RTVSPost2010Prop52
140
1.0
102
RTVSPost2010PropOp52
 70
     0
102
RTVSPost2010Prop53
 90
        2
102
RTVSPost2010PropOp53
 70
     1
102
RTVSPost2010Prop54
  1
strokes_ogs.tif
102
RTVSPost2010PropOp54
 70
     1
102
RTVSPost2010Prop55
280
     0
102
RTVSPost2010PropOp55
 70
     1
102
RTVSPost2010Prop56
140
1.0
102
RTVSPost2010PropOp56
 70
     1
102
RTVSPost2010Prop57
140
1.0
102
RTVSPost2010PropOp57
 70
     1
  0
XRECORD
  5
1F3
102
{ACAD_REACTORS
330
1F2
102
}
330
1F2
100
AcDbXrecord
280
     1
102
RTVSPost2010Prop28
280
     0
102
RTVSPost2010PropOp28
 70
     1
102
RTVSPost2010Prop29
280
     1
102
RTVSPost2010PropOp29
 70
     1
102
RTVSPost2010Prop30
280
     1
102
RTVSPost2010PropOp30
 70
     1
102
RTVSPost2010Prop31
280
     0
102
RTVSPost2010PropOp31
 70
     1
102
RTVSPost2010Prop32
280
     0
102
RTVSPost2010PropOp32
 70
     1
102
RTVSPost2010Prop33
280
     0
102
RTVSPost2010PropOp33
 70
     1
102
RTVSPost2010Prop34
280
     0
102
RTVSPost2010PropOp34
 70
     1
102
RTVSPost2010Prop35
280
     0
102
RTVSPost2010PropOp35
 70
     1
102
RTVSPost2010Prop36
280
     0
102
RTVSPost2010PropOp36
 70
     1
102
RTVSPost2010Prop37
 90
       50
102
RTVSPost2010PropOp37
 70
     1
102
RTVSPost2010Prop38
140
0.0
102
RTVSPost2010PropOp38
 70
     1
102
RTVSPost2010Prop39
140
1.0
102
RTVSPost2010PropOp39
 70
     1
102
RTVSPost2010Prop40
 90
        0
102
RTVSPost2010PropOp40
 70
     1
102
RTVSPost2010Prop41ColorIndex
 90
       18
102
RTVSPost2010Prop41ColorRGB
 90
        0
102
RTVSPost2010PropOp41
 70
     1
102
RTVSPost2010Prop42
 90
       50
102
RTVSPost2010PropOp42
 70
     1
102
RTVSPost2010Prop43
 90
        3
102
RTVSPost2010PropOp43
 70
     1
102
RTVSPost2010Prop44ColorIndex
 90
        5
102
RTVSPost2010Prop44ColorRGB
 90
      255
102
RTVSPost2010PropOp44
 70
     1
102
RTVSPost2010Prop45
280
     0
102
RTVSPost2010PropOp45
 70
     1
102
RTVSPost2010Prop46
 90
       50
102
RTVSPost2010PropOp46
 70
     1
102
RTVSPost2010Prop47
 90
       50
102
RTVSPost2010PropOp47
 70
     1
102
RTVSPost2010Prop48
 90
       50
102
RTVSPost2010PropOp48
 70
     1
102
RTVSPost2010Prop49
280
     0
102
RTVSPost2010PropOp49
 70
     1
102
RTVSPost2010Prop50
 90
       50
102
RTVSPost2010PropOp50
 70
     1
102
RTVSPost2010Prop51ColorIndex
 90
      256
102
RTVSPost2010Prop51ColorRGB
 90
-16777216
102
RTVSPost2010PropOp51
 70
     0
102
RTVSPost2010Prop52
140
1.0
102
RTVSPost2010PropOp52
 70
     0
102
RTVSPost2010Prop53
 90
        2
102
RTVSPost2010PropOp53
 70
     1
102
RTVSPost2010Prop54
  1
strokes_ogs.tif
102
RTVSPost2010PropOp54
 70
     1
102
RTVSPost2010Prop55
280
     0
102
RTVSPost2010PropOp55
 70
     1
102
RTVSPost2010Prop56
140
1.0
102
RTVSPost2010PropOp56
 70
     1
102
RTVSPost2010Prop57
140
1.0
102
RTVSPost2010PropOp57
 70
     1
  0
XRECORD
  5
20F
102
{ACAD_REACTORS
330
20E
102
}
330
20E
100
AcDbXrecord
280
     1
102
RTVSPost2010Prop28
280
     0
102
RTVSPost2010PropOp28
 70
     0
102
RTVSPost2010Prop29
280
     1
102
RTVSPost2010PropOp29
 70
     0
102
RTVSPost2010Prop30
280
     1
102
RTVSPost2010PropOp30
 70
     0
102
RTVSPost2010Prop31
280
     0
102
RTVSPost2010PropOp31
 70
     0
102
RTVSPost2010Prop32
280
     0
102
RTVSPost2010PropOp32
 70
     0
102
RTVSPost2010Prop33
280
     0
102
RTVSPost2010PropOp33
 70
     0
102
RTVSPost2010Prop34
280
     0
102
RTVSPost2010PropOp34
 70
     0
102
RTVSPost2010Prop35
280
     0
102
RTVSPost2010PropOp35
 70
     0
102
RTVSPost2010Prop36
280
     0
102
RTVSPost2010PropOp36
 70
     0
102
RTVSPost2010Prop37
 90
       50
102
RTVSPost2010PropOp37
 70
     0
102
RTVSPost2010Prop38
140
0.0
102
RTVSPost2010PropOp38
 70
     0
102
RTVSPost2010Prop39
140
1.0
102
RTVSPost2010PropOp39
 70
     0
102
RTVSPost2010Prop40
 90
        0
102
RTVSPost2010PropOp40
 70
     0
102
RTVSPost2010Prop41ColorIndex
 90
       18
102
RTVSPost2010Prop41ColorRGB
 90
        0
102
RTVSPost2010PropOp41
 70
     0
102
RTVSPost2010Prop42
 90
       50
102
RTVSPost2010PropOp42
 70
     0
102
RTVSPost2010Prop43
 90
        3
102
RTVSPost2010PropOp43
 70
     0
102
RTVSPost2010Prop44ColorIndex
 90
        5
102
RTVSPost2010Prop44ColorRGB
 90
      255
102
RTVSPost2010PropOp44
 70
     0
102
RTVSPost2010Prop45
280
     0
102
RTVSPost2010PropOp45
 70
     0
102
RTVSPost2010Prop46
 90
       50
102
RTVSPost2010PropOp46
 70
     0
102
RTVSPost2010Prop47
 90
       50
102
RTVSPost2010PropOp47
 70
     0
102
RTVSPost2010Prop48
 90
       50
102
RTVSPost2010PropOp48
 70
     0
102
RTVSPost2010Prop49
280
     0
102
RTVSPost2010PropOp49
 70
     0
102
RTVSPost2010Prop50
 90
       50
102
RTVSPost2010PropOp50
 70
     0
102
RTVSPost2010Prop51ColorIndex
 90
      256
102
RTVSPost2010Prop51ColorRGB
 90
-16777216
102
RTVSPost2010PropOp51
 70
     0
102
RTVSPost2010Prop52
140
1.0
102
RTVSPost2010PropOp52
 70
     0
102
RTVSPost2010Prop53
 90
        2
102
RTVSPost2010PropOp53
 70
     0
102
RTVSPost2010Prop54
  1
strokes_ogs.tif
102
RTVSPost2010PropOp54
 70
     0
102
RTVSPost2010Prop55
280
     0
102
RTVSPost2010PropOp55
 70
     0
102
RTVSPost2010Prop56
140
1.0
102
RTVSPost2010PropOp56
 70
     0
102
RTVSPost2010Prop57
140
1.0
102
RTVSPost2010PropOp57
 70
     0
  0
XRECORD
  5
1FF
102
{ACAD_REACTORS
330
1FE
102
}
330
1FE
100
AcDbXrecord
280
     1
102
RTVSPost2010Prop28
280
     0
102
RTVSPost2010PropOp28
 70
     1
102
RTVSPost2010Prop29
280
     1
102
RTVSPost2010PropOp29
 70
     1
102
RTVSPost2010Prop30
280
     1
102
RTVSPost2010PropOp30
 70
     1
102
RTVSPost2010Prop31
280
     0
102
RTVSPost2010PropOp31
 70
     1
102
RTVSPost2010Prop32
280
     0
102
RTVSPost2010PropOp32
 70
     1
102
RTVSPost2010Prop33
280
     0
102
RTVSPost2010PropOp33
 70
     1
102
RTVSPost2010Prop34
280
     0
102
RTVSPost2010PropOp34
 70
     1
102
RTVSPost2010Prop35
280
     0
102
RTVSPost2010PropOp35
 70
     1
102
RTVSPost2010Prop36
280
     0
102
RTVSPost2010PropOp36
 70
     1
102
RTVSPost2010Prop37
 90
       50
102
RTVSPost2010PropOp37
 70
     1
102
RTVSPost2010Prop38
140
0.0
102
RTVSPost2010PropOp38
 70
     1
102
RTVSPost2010Prop39
140
1.0
102
RTVSPost2010PropOp39
 70
     1
102
RTVSPost2010Prop40
 90
        0
102
RTVSPost2010PropOp40
 70
     1
102
RTVSPost2010Prop41ColorIndex
 90
       18
102
RTVSPost2010Prop41ColorRGB
 90
        0
102
RTVSPost2010PropOp41
 70
     1
102
RTVSPost2010Prop42
 90
       50
102
RTVSPost2010PropOp42
 70
     1
102
RTVSPost2010Prop43
 90
        3
102
RTVSPost2010PropOp43
 70
     1
102
RTVSPost2010Prop44ColorIndex
 90
        5
102
RTVSPost2010Prop44ColorRGB
 90
      255
102
RTVSPost2010PropOp44
 70
     1
102
RTVSPost2010Prop45
280
     0
102
RTVSPost2010PropOp45
 70
     1
102
RTVSPost2010Prop46
 90
       50
102
RTVSPost2010PropOp46
 70
     1
102
RTVSPost2010Prop47
 90
       50
102
RTVSPost2010PropOp47
 70
     1
102
RTVSPost2010Prop48
 90
       50
102
RTVSPost2010PropOp48
 70
     1
102
RTVSPost2010Prop49
280
     0
102
RTVSPost2010PropOp49
 70
     1
102
RTVSPost2010Prop50
 90
       50
102
RTVSPost2010PropOp50
 70
     1
102
RTVSPost2010Prop51ColorIndex
 90
      256
102
RTVSPost2010Prop51ColorRGB
 90
-16777216
102
RTVSPost2010PropOp51
 70
     0
102
RTVSPost2010Prop52
140
1.0
102
RTVSPost2010PropOp52
 70
     0
102
RTVSPost2010Prop53
 90
        2
102
RTVSPost2010PropOp53
 70
     1
102
RTVSPost2010Prop54
  1
strokes_ogs.tif
102
RTVSPost2010PropOp54
 70
     1
102
RTVSPost2010Prop55
280
     0
102
RTVSPost2010PropOp55
 70
     1
102
RTVSPost2010Prop56
140
1.0
102
RTVSPost2010PropOp56
 70
     1
102
RTVSPost2010Prop57
140
1.0
102
RTVSPost2010PropOp57
 70
     1
  0
XRECORD
  5
211
102
{ACAD_REACTORS
330
210
102
}
330
210
100
AcDbXrecord
280
     1
102
RTVSPost2010Prop28
280
     0
102
RTVSPost2010PropOp28
 70
     0
102
RTVSPost2010Prop29
280
     1
102
RTVSPost2010PropOp29
 70
     0
102
RTVSPost2010Prop30
280
     1
102
RTVSPost2010PropOp30
 70
     0
102
RTVSPost2010Prop31
280
     0
102
RTVSPost2010PropOp31
 70
     0
102
RTVSPost2010Prop32
280
     0
102
RTVSPost2010PropOp32
 70
     0
102
RTVSPost2010Prop33
280
     0
102
RTVSPost2010PropOp33
 70
     0
102
RTVSPost2010Prop34
280
     0
102
RTVSPost2010PropOp34
 70
     0
102
RTVSPost2010Prop35
280
     0
102
RTVSPost2010PropOp35
 70
     0
102
RTVSPost2010Prop36
280
     0
102
RTVSPost2010PropOp36
 70
     0
102
RTVSPost2010Prop37
 90
       50
102
RTVSPost2010PropOp37
 70
     0
102
RTVSPost2010Prop38
140
0.0
102
RTVSPost2010PropOp38
 70
     0
102
RTVSPost2010Prop39
140
1.0
102
RTVSPost2010PropOp39
 70
     0
102
RTVSPost2010Prop40
 90
        0
102
RTVSPost2010PropOp40
 70
     0
102
RTVSPost2010Prop41ColorIndex
 90
       18
102
RTVSPost2010Prop41ColorRGB
 90
        0
102
RTVSPost2010PropOp41
 70
     0
102
RTVSPost2010Prop42
 90
       50
102
RTVSPost2010PropOp42
 70
     0
102
RTVSPost2010Prop43
 90
        3
102
RTVSPost2010PropOp43
 70
     0
102
RTVSPost2010Prop44ColorIndex
 90
        5
102
RTVSPost2010Prop44ColorRGB
 90
      255
102
RTVSPost2010PropOp44
 70
     0
102
RTVSPost2010Prop45
280
     0
102
RTVSPost2010PropOp45
 70
     0
102
RTVSPost2010Prop46
 90
       50
102
RTVSPost2010PropOp46
 70
     0
102
RTVSPost2010Prop47
 90
       50
102
RTVSPost2010PropOp47
 70
     0
102
RTVSPost2010Prop48
 90
       50
102
RTVSPost2010PropOp48
 70
     0
102
RTVSPost2010Prop49
280
     0
102
RTVSPost2010PropOp49
 70
     0
102
RTVSPost2010Prop50
 90
       50
102
RTVSPost2010PropOp50
 70
     0
102
RTVSPost2010Prop51ColorIndex
 90
      256
102
RTVSPost2010Prop51ColorRGB
 90
-16777216
102
RTVSPost2010PropOp51
 70
     0
102
RTVSPost2010Prop52
140
1.0
102
RTVSPost2010PropOp52
 70
     0
102
RTVSPost2010Prop53
 90
        2
102
RTVSPost2010PropOp53
 70
     0
102
RTVSPost2010Prop54
  1
strokes_ogs.tif
102
RTVSPost2010PropOp54
 70
     0
102
RTVSPost2010Prop55
280
     0
102
RTVSPost2010PropOp55
 70
     0
102
RTVSPost2010Prop56
140
1.0
102
RTVSPost2010PropOp56
 70
     0
102
RTVSPost2010Prop57
140
1.0
102
RTVSPost2010PropOp57
 70
     0
  0
XRECORD
  5
1F7
102
{ACAD_REACTORS
330
1F6
102
}
330
1F6
100
AcDbXrecord
280
     1
102
RTVSPost2010Prop28
280
     0
102
RTVSPost2010PropOp28
 70
     1
102
RTVSPost2010Prop29
280
     1
102
RTVSPost2010PropOp29
 70
     1
102
RTVSPost2010Prop30
280
     1
102
RTVSPost2010PropOp30
 70
     1
102
RTVSPost2010Prop31
280
     0
102
RTVSPost2010PropOp31
 70
     1
102
RTVSPost2010Prop32
280
     0
102
RTVSPost2010PropOp32
 70
     1
102
RTVSPost2010Prop33
280
     0
102
RTVSPost2010PropOp33
 70
     1
102
RTVSPost2010Prop34
280
     0
102
RTVSPost2010PropOp34
 70
     1
102
RTVSPost2010Prop35
280
     0
102
RTVSPost2010PropOp35
 70
     1
102
RTVSPost2010Prop36
280
     0
102
RTVSPost2010PropOp36
 70
     1
102
RTVSPost2010Prop37
 90
       50
102
RTVSPost2010PropOp37
 70
     1
102
RTVSPost2010Prop38
140
0.0
102
RTVSPost2010PropOp38
 70
     1
102
RTVSPost2010Prop39
140
1.0
102
RTVSPost2010PropOp39
 70
     1
102
RTVSPost2010Prop40
 90
        0
102
RTVSPost2010PropOp40
 70
     1
102
RTVSPost2010Prop41ColorIndex
 90
       18
102
RTVSPost2010Prop41ColorRGB
 90
        0
102
RTVSPost2010PropOp41
 70
     1
102
RTVSPost2010Prop42
 90
       50
102
RTVSPost2010PropOp42
 70
     1
102
RTVSPost2010Prop43
 90
        3
102
RTVSPost2010PropOp43
 70
     1
102
RTVSPost2010Prop44ColorIndex
 90
        5
102
RTVSPost2010Prop44ColorRGB
 90
      255
102
RTVSPost2010PropOp44
 70
     1
102
RTVSPost2010Prop45
280
     0
102
RTVSPost2010PropOp45
 70
     1
102
RTVSPost2010Prop46
 90
       50
102
RTVSPost2010PropOp46
 70
     1
102
RTVSPost2010Prop47
 90
       50
102
RTVSPost2010PropOp47
 70
     1
102
RTVSPost2010Prop48
 90
       50
102
RTVSPost2010PropOp48
 70
     1
102
RTVSPost2010Prop49
280
     0
102
RTVSPost2010PropOp49
 70
     1
102
RTVSPost2010Prop50
 90
       50
102
RTVSPost2010PropOp50
 70
     1
102
RTVSPost2010Prop51ColorIndex
 90
      256
102
RTVSPost2010Prop51ColorRGB
 90
-16777216
102
RTVSPost2010PropOp51
 70
     0
102
RTVSPost2010Prop52
140
1.0
102
RTVSPost2010PropOp52
 70
     0
102
RTVSPost2010Prop53
 90
        2
102
RTVSPost2010PropOp53
 70
     1
102
RTVSPost2010Prop54
  1
strokes_ogs.tif
102
RTVSPost2010PropOp54
 70
     1
102
RTVSPost2010Prop55
280
     0
102
RTVSPost2010PropOp55
 70
     1
102
RTVSPost2010Prop56
140
1.0
102
RTVSPost2010PropOp56
 70
     1
102
RTVSPost2010Prop57
140
1.0
102
RTVSPost2010PropOp57
 70
     1
  0
XRECORD
  5
20D
102
{ACAD_REACTORS
330
20C
102
}
330
20C
100
AcDbXrecord
280
     1
102
RTVSPost2010Prop28
280
     0
102
RTVSPost2010PropOp28
 70
     1
102
RTVSPost2010Prop29
280
     1
102
RTVSPost2010PropOp29
 70
     1
102
RTVSPost2010Prop30
280
     1
102
RTVSPost2010PropOp30
 70
     1
102
RTVSPost2010Prop31
280
     0
102
RTVSPost2010PropOp31
 70
     1
102
RTVSPost2010Prop32
280
     0
102
RTVSPost2010PropOp32
 70
     1
102
RTVSPost2010Prop33
280
     0
102
RTVSPost2010PropOp33
 70
     1
102
RTVSPost2010Prop34
280
     0
102
RTVSPost2010PropOp34
 70
     1
102
RTVSPost2010Prop35
280
     0
102
RTVSPost2010PropOp35
 70
     1
102
RTVSPost2010Prop36
280
     0
102
RTVSPost2010PropOp36
 70
     1
102
RTVSPost2010Prop37
 90
       50
102
RTVSPost2010PropOp37
 70
     1
102
RTVSPost2010Prop38
140
0.0
102
RTVSPost2010PropOp38
 70
     1
102
RTVSPost2010Prop39
140
1.0
102
RTVSPost2010PropOp39
 70
     1
102
RTVSPost2010Prop40
 90
        0
102
RTVSPost2010PropOp40
 70
     1
102
RTVSPost2010Prop41ColorIndex
 90
       18
102
RTVSPost2010Prop41ColorRGB
 90
        0
102
RTVSPost2010PropOp41
 70
     1
102
RTVSPost2010Prop42
 90
       50
102
RTVSPost2010PropOp42
 70
     1
102
RTVSPost2010Prop43
 90
        3
102
RTVSPost2010PropOp43
 70
     1
102
RTVSPost2010Prop44ColorIndex
 90
        5
102
RTVSPost2010Prop44ColorRGB
 90
      255
102
RTVSPost2010PropOp44
 70
     1
102
RTVSPost2010Prop45
280
     0
102
RTVSPost2010PropOp45
 70
     1
102
RTVSPost2010Prop46
 90
       50
102
RTVSPost2010PropOp46
 70
     1
102
RTVSPost2010Prop47
 90
       50
102
RTVSPost2010PropOp47
 70
     1
102
RTVSPost2010Prop48
 90
       50
102
RTVSPost2010PropOp48
 70
     1
102
RTVSPost2010Prop49
280
     0
102
RTVSPost2010PropOp49
 70
     1
102
RTVSPost2010Prop50
 90
       50
102
RTVSPost2010PropOp50
 70
     1
102
RTVSPost2010Prop51ColorIndex
 90
      256
102
RTVSPost2010Prop51ColorRGB
 90
-16777216
102
RTVSPost2010PropOp51
 70
     0
102
RTVSPost2010Prop52
140
1.0
102
RTVSPost2010PropOp52
 70
     0
102
RTVSPost2010Prop53
 90
        2
102
RTVSPost2010PropOp53
 70
     1
102
RTVSPost2010Prop54
  1
strokes_ogs.tif
102
RTVSPost2010PropOp54
 70
     1
102
RTVSPost2010Prop55
280
     0
102
RTVSPost2010PropOp55
 70
     1
102
RTVSPost2010Prop56
140
1.0
102
RTVSPost2010PropOp56
 70
     1
102
RTVSPost2010Prop57
140
1.0
102
RTVSPost2010PropOp57
 70
     1
  0
XRECORD
  5
20B
102
{ACAD_REACTORS
330
20A
102
}
330
20A
100
AcDbXrecord
280
     1
102
RTVSPost2010Prop28
280
     0
102
RTVSPost2010PropOp28
 70
     1
102
RTVSPost2010Prop29
280
     1
102
RTVSPost2010PropOp29
 70
     1
102
RTVSPost2010Prop30
280
     1
102
RTVSPost2010PropOp30
 70
     1
102
RTVSPost2010Prop31
280
     0
102
RTVSPost2010PropOp31
 70
     1
102
RTVSPost2010Prop32
280
     0
102
RTVSPost2010PropOp32
 70
     1
102
RTVSPost2010Prop33
280
     0
102
RTVSPost2010PropOp33
 70
     1
102
RTVSPost2010Prop34
280
     0
102
RTVSPost2010PropOp34
 70
     1
102
RTVSPost2010Prop35
280
     0
102
RTVSPost2010PropOp35
 70
     1
102
RTVSPost2010Prop36
280
     0
102
RTVSPost2010PropOp36
 70
     1
102
RTVSPost2010Prop37
 90
       50
102
RTVSPost2010PropOp37
 70
     1
102
RTVSPost2010Prop38
140
0.0
102
RTVSPost2010PropOp38
 70
     1
102
RTVSPost2010Prop39
140
1.0
102
RTVSPost2010PropOp39
 70
     1
102
RTVSPost2010Prop40
 90
        0
102
RTVSPost2010PropOp40
 70
     1
102
RTVSPost2010Prop41ColorIndex
 90
       18
102
RTVSPost2010Prop41ColorRGB
 90
        0
102
RTVSPost2010PropOp41
 70
     1
102
RTVSPost2010Prop42
 90
       50
102
RTVSPost2010PropOp42
 70
     1
102
RTVSPost2010Prop43
 90
        3
102
RTVSPost2010PropOp43
 70
     1
102
RTVSPost2010Prop44ColorIndex
 90
        5
102
RTVSPost2010Prop44ColorRGB
 90
      255
102
RTVSPost2010PropOp44
 70
     1
102
RTVSPost2010Prop45
280
     0
102
RTVSPost2010PropOp45
 70
     1
102
RTVSPost2010Prop46
 90
       50
102
RTVSPost2010PropOp46
 70
     1
102
RTVSPost2010Prop47
 90
       50
102
RTVSPost2010PropOp47
 70
     1
102
RTVSPost2010Prop48
 90
       50
102
RTVSPost2010PropOp48
 70
     1
102
RTVSPost2010Prop49
280
     0
102
RTVSPost2010PropOp49
 70
     1
102
RTVSPost2010Prop50
 90
       50
102
RTVSPost2010PropOp50
 70
     1
102
RTVSPost2010Prop51ColorIndex
 90
      256
102
RTVSPost2010Prop51ColorRGB
 90
-16777216
102
RTVSPost2010PropOp51
 70
     0
102
RTVSPost2010Prop52
140
1.0
102
RTVSPost2010PropOp52
 70
     0
102
RTVSPost2010Prop53
 90
        2
102
RTVSPost2010PropOp53
 70
     1
102
RTVSPost2010Prop54
  1
strokes_ogs.tif
102
RTVSPost2010PropOp54
 70
     1
102
RTVSPost2010Prop55
280
     0
102
RTVSPost2010PropOp55
 70
     1
102
RTVSPost2010Prop56
140
1.0
102
RTVSPost2010PropOp56
 70
     1
102
RTVSPost2010Prop57
140
1.0
102
RTVSPost2010PropOp57
 70
     1
  0
XRECORD
  5
205
102
{ACAD_REACTORS
330
204
102
}
330
204
100
AcDbXrecord
280
     1
102
RTVSPost2010Prop28
280
     0
102
RTVSPost2010PropOp28
 70
     1
102
RTVSPost2010Prop29
280
     1
102
RTVSPost2010PropOp29
 70
     1
102
RTVSPost2010Prop30
280
     1
102
RTVSPost2010PropOp30
 70
     1
102
RTVSPost2010Prop31
280
     0
102
RTVSPost2010PropOp31
 70
     1
102
RTVSPost2010Prop32
280
     0
102
RTVSPost2010PropOp32
 70
     1
102
RTVSPost2010Prop33
280
     0
102
RTVSPost2010PropOp33
 70
     1
102
RTVSPost2010Prop34
280
     0
102
RTVSPost2010PropOp34
 70
     1
102
RTVSPost2010Prop35
280
     0
102
RTVSPost2010PropOp35
 70
     1
102
RTVSPost2010Prop36
280
     0
102
RTVSPost2010PropOp36
 70
     1
102
RTVSPost2010Prop37
 90
       50
102
RTVSPost2010PropOp37
 70
     1
102
RTVSPost2010Prop38
140
0.0
102
RTVSPost2010PropOp38
 70
     1
102
RTVSPost2010Prop39
140
1.0
102
RTVSPost2010PropOp39
 70
     1
102
RTVSPost2010Prop40
 90
        0
102
RTVSPost2010PropOp40
 70
     1
102
RTVSPost2010Prop41ColorIndex
 90
       18
102
RTVSPost2010Prop41ColorRGB
 90
        0
102
RTVSPost2010PropOp41
 70
     1
102
RTVSPost2010Prop42
 90
       50
102
RTVSPost2010PropOp42
 70
     1
102
RTVSPost2010Prop43
 90
        3
102
RTVSPost2010PropOp43
 70
     1
102
RTVSPost2010Prop44ColorIndex
 90
        5
102
RTVSPost2010Prop44ColorRGB
 90
      255
102
RTVSPost2010PropOp44
 70
     1
102
RTVSPost2010Prop45
280
     0
102
RTVSPost2010PropOp45
 70
     1
102
RTVSPost2010Prop46
 90
       50
102
RTVSPost2010PropOp46
 70
     1
102
RTVSPost2010Prop47
 90
       50
102
RTVSPost2010PropOp47
 70
     1
102
RTVSPost2010Prop48
 90
       50
102
RTVSPost2010PropOp48
 70
     1
102
RTVSPost2010Prop49
280
     0
102
RTVSPost2010PropOp49
 70
     1
102
RTVSPost2010Prop50
 90
       50
102
RTVSPost2010PropOp50
 70
     1
102
RTVSPost2010Prop51ColorIndex
 90
      256
102
RTVSPost2010Prop51ColorRGB
 90
-16777216
102
RTVSPost2010PropOp51
 70
     0
102
RTVSPost2010Prop52
140
1.0
102
RTVSPost2010PropOp52
 70
     0
102
RTVSPost2010Prop53
 90
        2
102
RTVSPost2010PropOp53
 70
     1
102
RTVSPost2010Prop54
  1
strokes_ogs.tif
102
RTVSPost2010PropOp54
 70
     1
102
RTVSPost2010Prop55
280
     0
102
RTVSPost2010PropOp55
 70
     1
102
RTVSPost2010Prop56
140
1.0
102
RTVSPost2010PropOp56
 70
     1
102
RTVSPost2010Prop57
140
1.0
102
RTVSPost2010PropOp57
 70
     1
  0
XRECORD
  5
207
102
{ACAD_REACTORS
330
206
102
}
330
206
100
AcDbXrecord
280
     1
102
RTVSPost2010Prop28
280
     0
102
RTVSPost2010PropOp28
 70
     1
102
RTVSPost2010Prop29
280
     1
102
RTVSPost2010PropOp29
 70
     1
102
RTVSPost2010Prop30
280
     1
102
RTVSPost2010PropOp30
 70
     1
102
RTVSPost2010Prop31
280
     0
102
RTVSPost2010PropOp31
 70
     1
102
RTVSPost2010Prop32
280
     0
102
RTVSPost2010PropOp32
 70
     1
102
RTVSPost2010Prop33
280
     0
102
RTVSPost2010PropOp33
 70
     1
102
RTVSPost2010Prop34
280
     0
102
RTVSPost2010PropOp34
 70
     1
102
RTVSPost2010Prop35
280
     0
102
RTVSPost2010PropOp35
 70
     1
102
RTVSPost2010Prop36
280
     0
102
RTVSPost2010PropOp36
 70
     1
102
RTVSPost2010Prop37
 90
       50
102
RTVSPost2010PropOp37
 70
     1
102
RTVSPost2010Prop38
140
0.0
102
RTVSPost2010PropOp38
 70
     1
102
RTVSPost2010Prop39
140
1.0
102
RTVSPost2010PropOp39
 70
     1
102
RTVSPost2010Prop40
 90
        0
102
RTVSPost2010PropOp40
 70
     1
102
RTVSPost2010Prop41ColorIndex
 90
       18
102
RTVSPost2010Prop41ColorRGB
 90
        0
102
RTVSPost2010PropOp41
 70
     1
102
RTVSPost2010Prop42
 90
       50
102
RTVSPost2010PropOp42
 70
     1
102
RTVSPost2010Prop43
 90
        3
102
RTVSPost2010PropOp43
 70
     1
102
RTVSPost2010Prop44ColorIndex
 90
        5
102
RTVSPost2010Prop44ColorRGB
 90
      255
102
RTVSPost2010PropOp44
 70
     1
102
RTVSPost2010Prop45
280
     0
102
RTVSPost2010PropOp45
 70
     1
102
RTVSPost2010Prop46
 90
       50
102
RTVSPost2010PropOp46
 70
     1
102
RTVSPost2010Prop47
 90
       50
102
RTVSPost2010PropOp47
 70
     1
102
RTVSPost2010Prop48
 90
       50
102
RTVSPost2010PropOp48
 70
     1
102
RTVSPost2010Prop49
280
     0
102
RTVSPost2010PropOp49
 70
     1
102
RTVSPost2010Prop50
 90
       50
102
RTVSPost2010PropOp50
 70
     1
102
RTVSPost2010Prop51ColorIndex
 90
      256
102
RTVSPost2010Prop51ColorRGB
 90
-16777216
102
RTVSPost2010PropOp51
 70
     0
102
RTVSPost2010Prop52
140
1.0
102
RTVSPost2010PropOp52
 70
     0
102
RTVSPost2010Prop53
 90
        2
102
RTVSPost2010PropOp53
 70
     1
102
RTVSPost2010Prop54
  1
strokes_ogs.tif
102
RTVSPost2010PropOp54
 70
     1
102
RTVSPost2010Prop55
280
     0
102
RTVSPost2010PropOp55
 70
     1
102
RTVSPost2010Prop56
140
1.0
102
RTVSPost2010PropOp56
 70
     1
102
RTVSPost2010Prop57
140
1.0
102
RTVSPost2010PropOp57
 70
     1
  0
XRECORD
  5
1FD
102
{ACAD_REACTORS
330
1FC
102
}
330
1FC
100
AcDbXrecord
280
     1
102
RTVSPost2010Prop28
280
     0
102
RTVSPost2010PropOp28
 70
     1
102
RTVSPost2010Prop29
280
     1
102
RTVSPost2010PropOp29
 70
     1
102
RTVSPost2010Prop30
280
     1
102
RTVSPost2010PropOp30
 70
     1
102
RTVSPost2010Prop31
280
     0
102
RTVSPost2010PropOp31
 70
     1
102
RTVSPost2010Prop32
280
     0
102
RTVSPost2010PropOp32
 70
     1
102
RTVSPost2010Prop33
280
     0
102
RTVSPost2010PropOp33
 70
     1
102
RTVSPost2010Prop34
280
     0
102
RTVSPost2010PropOp34
 70
     1
102
RTVSPost2010Prop35
280
     0
102
RTVSPost2010PropOp35
 70
     1
102
RTVSPost2010Prop36
280
     0
102
RTVSPost2010PropOp36
 70
     1
102
RTVSPost2010Prop37
 90
       50
102
RTVSPost2010PropOp37
 70
     1
102
RTVSPost2010Prop38
140
0.0
102
RTVSPost2010PropOp38
 70
     1
102
RTVSPost2010Prop39
140
1.0
102
RTVSPost2010PropOp39
 70
     1
102
RTVSPost2010Prop40
 90
        0
102
RTVSPost2010PropOp40
 70
     1
102
RTVSPost2010Prop41ColorIndex
 90
       18
102
RTVSPost2010Prop41ColorRGB
 90
        0
102
RTVSPost2010PropOp41
 70
     1
102
RTVSPost2010Prop42
 90
       50
102
RTVSPost2010PropOp42
 70
     1
102
RTVSPost2010Prop43
 90
        3
102
RTVSPost2010PropOp43
 70
     1
102
RTVSPost2010Prop44ColorIndex
 90
        5
102
RTVSPost2010Prop44ColorRGB
 90
      255
102
RTVSPost2010PropOp44
 70
     1
102
RTVSPost2010Prop45
280
     0
102
RTVSPost2010PropOp45
 70
     1
102
RTVSPost2010Prop46
 90
       50
102
RTVSPost2010PropOp46
 70
     1
102
RTVSPost2010Prop47
 90
       50
102
RTVSPost2010PropOp47
 70
     1
102
RTVSPost2010Prop48
 90
       50
102
RTVSPost2010PropOp48
 70
     1
102
RTVSPost2010Prop49
280
     0
102
RTVSPost2010PropOp49
 70
     1
102
RTVSPost2010Prop50
 90
       50
102
RTVSPost2010PropOp50
 70
     1
102
RTVSPost2010Prop51ColorIndex
 90
      256
102
RTVSPost2010Prop51ColorRGB
 90
-16777216
102
RTVSPost2010PropOp51
 70
     0
102
RTVSPost2010Prop52
140
1.0
102
RTVSPost2010PropOp52
 70
     0
102
RTVSPost2010Prop53
 90
        2
102
RTVSPost2010PropOp53
 70
     1
102
RTVSPost2010Prop54
  1
strokes_ogs.tif
102
RTVSPost2010PropOp54
 70
     1
102
RTVSPost2010Prop55
280
     0
102
RTVSPost2010PropOp55
 70
     1
102
RTVSPost2010Prop56
140
1.0
102
RTVSPost2010PropOp56
 70
     1
102
RTVSPost2010Prop57
140
1.0
102
RTVSPost2010PropOp57
 70
     1
  0
XRECORD
  5
1F1
102
{ACAD_REACTORS
330
1F0
102
}
330
1F0
100
AcDbXrecord
280
     1
102
RTVSPost2010Prop28
280
     0
102
RTVSPost2010PropOp28
 70
     1
102
RTVSPost2010Prop29
280
     1
102
RTVSPost2010PropOp29
 70
     1
102
RTVSPost2010Prop30
280
     1
102
RTVSPost2010PropOp30
 70
     1
102
RTVSPost2010Prop31
280
     0
102
RTVSPost2010PropOp31
 70
     1
102
RTVSPost2010Prop32
280
     0
102
RTVSPost2010PropOp32
 70
     1
102
RTVSPost2010Prop33
280
     0
102
RTVSPost2010PropOp33
 70
     1
102
RTVSPost2010Prop34
280
     0
102
RTVSPost2010PropOp34
 70
     1
102
RTVSPost2010Prop35
280
     0
102
RTVSPost2010PropOp35
 70
     1
102
RTVSPost2010Prop36
280
     0
102
RTVSPost2010PropOp36
 70
     1
102
RTVSPost2010Prop37
 90
       50
102
RTVSPost2010PropOp37
 70
     1
102
RTVSPost2010Prop38
140
0.0
102
RTVSPost2010PropOp38
 70
     1
102
RTVSPost2010Prop39
140
1.0
102
RTVSPost2010PropOp39
 70
     1
102
RTVSPost2010Prop40
 90
        0
102
RTVSPost2010PropOp40
 70
     1
102
RTVSPost2010Prop41ColorIndex
 90
       18
102
RTVSPost2010Prop41ColorRGB
 90
        0
102
RTVSPost2010PropOp41
 70
     1
102
RTVSPost2010Prop42
 90
       50
102
RTVSPost2010PropOp42
 70
     1
102
RTVSPost2010Prop43
 90
        3
102
RTVSPost2010PropOp43
 70
     1
102
RTVSPost2010Prop44ColorIndex
 90
        5
102
RTVSPost2010Prop44ColorRGB
 90
      255
102
RTVSPost2010PropOp44
 70
     1
102
RTVSPost2010Prop45
280
     0
102
RTVSPost2010PropOp45
 70
     1
102
RTVSPost2010Prop46
 90
       50
102
RTVSPost2010PropOp46
 70
     1
102
RTVSPost2010Prop47
 90
       50
102
RTVSPost2010PropOp47
 70
     1
102
RTVSPost2010Prop48
 90
       50
102
RTVSPost2010PropOp48
 70
     1
102
RTVSPost2010Prop49
280
     0
102
RTVSPost2010PropOp49
 70
     1
102
RTVSPost2010Prop50
 90
       50
102
RTVSPost2010PropOp50
 70
     1
102
RTVSPost2010Prop51ColorIndex
 90
      256
102
RTVSPost2010Prop51ColorRGB
 90
-16777216
102
RTVSPost2010PropOp51
 70
     0
102
RTVSPost2010Prop52
140
1.0
102
RTVSPost2010PropOp52
 70
     0
102
RTVSPost2010Prop53
 90
        2
102
RTVSPost2010PropOp53
 70
     1
102
RTVSPost2010Prop54
  1
strokes_ogs.tif
102
RTVSPost2010PropOp54
 70
     1
102
RTVSPost2010Prop55
280
     0
102
RTVSPost2010PropOp55
 70
     1
102
RTVSPost2010Prop56
140
1.0
102
RTVSPost2010PropOp56
 70
     1
102
RTVSPost2010Prop57
140
1.0
102
RTVSPost2010PropOp57
 70
     1
  0
XRECORD
  5
209
102
{ACAD_REACTORS
330
208
102
}
330
208
100
AcDbXrecord
280
     1
102
RTVSPost2010Prop28
280
     0
102
RTVSPost2010PropOp28
 70
     1
102
RTVSPost2010Prop29
280
     1
102
RTVSPost2010PropOp29
 70
     1
102
RTVSPost2010Prop30
280
     1
102
RTVSPost2010PropOp30
 70
     1
102
RTVSPost2010Prop31
280
     0
102
RTVSPost2010PropOp31
 70
     1
102
RTVSPost2010Prop32
280
     0
102
RTVSPost2010PropOp32
 70
     1
102
RTVSPost2010Prop33
280
     0
102
RTVSPost2010PropOp33
 70
     1
102
RTVSPost2010Prop34
280
     0
102
RTVSPost2010PropOp34
 70
     1
102
RTVSPost2010Prop35
280
     0
102
RTVSPost2010PropOp35
 70
     1
102
RTVSPost2010Prop36
280
     0
102
RTVSPost2010PropOp36
 70
     1
102
RTVSPost2010Prop37
 90
       50
102
RTVSPost2010PropOp37
 70
     1
102
RTVSPost2010Prop38
140
0.0
102
RTVSPost2010PropOp38
 70
     1
102
RTVSPost2010Prop39
140
1.0
102
RTVSPost2010PropOp39
 70
     1
102
RTVSPost2010Prop40
 90
        0
102
RTVSPost2010PropOp40
 70
     1
102
RTVSPost2010Prop41ColorIndex
 90
       18
102
RTVSPost2010Prop41ColorRGB
 90
        0
102
RTVSPost2010PropOp41
 70
     1
102
RTVSPost2010Prop42
 90
       50
102
RTVSPost2010PropOp42
 70
     1
102
RTVSPost2010Prop43
 90
        3
102
RTVSPost2010PropOp43
 70
     1
102
RTVSPost2010Prop44ColorIndex
 90
        5
102
RTVSPost2010Prop44ColorRGB
 90
      255
102
RTVSPost2010PropOp44
 70
     1
102
RTVSPost2010Prop45
280
     0
102
RTVSPost2010PropOp45
 70
     1
102
RTVSPost2010Prop46
 90
       50
102
RTVSPost2010PropOp46
 70
     1
102
RTVSPost2010Prop47
 90
       50
102
RTVSPost2010PropOp47
 70
     1
102
RTVSPost2010Prop48
 90
       50
102
RTVSPost2010PropOp48
 70
     1
102
RTVSPost2010Prop49
280
     0
102
RTVSPost2010PropOp49
 70
     1
102
RTVSPost2010Prop50
 90
       50
102
RTVSPost2010PropOp50
 70
     1
102
RTVSPost2010Prop51ColorIndex
 90
      256
102
RTVSPost2010Prop51ColorRGB
 90
-16777216
102
RTVSPost2010PropOp51
 70
     0
102
RTVSPost2010Prop52
140
1.0
102
RTVSPost2010PropOp52
 70
     0
102
RTVSPost2010Prop53
 90
        2
102
RTVSPost2010PropOp53
 70
     1
102
RTVSPost2010Prop54
  1
strokes_ogs.tif
102
RTVSPost2010PropOp54
 70
     1
102
RTVSPost2010Prop55
280
     0
102
RTVSPost2010PropOp55
 70
     1
102
RTVSPost2010Prop56
140
1.0
102
RTVSPost2010PropOp56
 70
     1
102
RTVSPost2010Prop57
140
1.0
102
RTVSPost2010PropOp57
 70
     1
  0
ENDSEC
  0
EOF
