  0
SECTION
  2
HEADER
  9
$ACADVER
  1
AC1015
  9
$ACADMAINTVER
 70
     6
  9
$DWGCODEPAGE
  3
ANSI_1252
  9
$INSBASE
 10
0.0
 20
0.0
 30
0.0
  9
$EXTMIN
 10
0.0
 20
0.0
 30
0.0
  9
$EXTMAX
 10
3000.0
 20
4500.0
 30
0.0
  9
$LIMMIN
 10
0.0
 20
0.0
  9
$LIMMAX
 10
3000.0
 20
4500.0
  9
$ORTHOMODE
 70
     0
  9
$REGENMODE
 70
     1
  9
$FILLMODE
 70
     1
  9
$QTEXTMODE
 70
     0
  9
$MIRRTEXT
 70
     1
  9
$LTSCALE
 40
1.0
  9
$ATTMODE
 70
     1
  9
$TEXTSIZE
 40
10.0
  9
$TRACEWID
 40
1.0
  9
$TEXTSTYLE
  7
Standard
  9
$CLAYER
  8
0
  9
$CELTYPE
  6
ByLayer
  9
$CECOLOR
 62
   256
  9
$CELTSCALE
 40
1.0
  9
$DISPSILH
 70
     0
  9
$DIMSCALE
 40
1.0
  9
$DIMASZ
 40
2.5
  9
$DIMEXO
 40
0.625
  9
$DIMDLI
 40
3.75
  9
$DIMRND
 40
0.0
  9
$DIMDLE
 40
0.0
  9
$DIMEXE
 40
1.25
  9
$DIMTP
 40
0.0
  9
$DIMTM
 40
0.0
  9
$DIMTXT
 40
2.5
  9
$DIMCEN
 40
2.5
  9
$DIMTSZ
 40
0.0
  9
$DIMTOL
 70
     0
  9
$DIMLIM
 70
     0
  9
$DIMTIH
 70
     0
  9
$DIMTOH
 70
     0
  9
$DIMSE1
 70
     0
  9
$DIMSE2
 70
     0
  9
$DIMTAD
 70
     1
  9
$DIMZIN
 70
     8
  9
$DIMBLK
  1

  9
$DIMASO
 70
     1
  9
$DIMSHO
 70
     1
  9
$DIMPOST
  1

  9
$DIMAPOST
  1

  9
$DIMALT
 70
     0
  9
$DIMALTD
 70
     3
  9
$DIMALTF
 40
0.0393700787
  9
$DIMLFAC
 40
1.0
  9
$DIMTOFL
 70
     1
  9
$DIMTVP
 40
0.0
  9
$DIMTIX
 70
     0
  9
$DIMSOXD
 70
     0
  9
$DIMSAH
 70
     0
  9
$DIMBLK1
  1

  9
$DIMBLK2
  1

  9
$DIMSTYLE
  2
ISO-25
  9
$DIMCLRD
 70
     0
  9
$DIMCLRE
 70
     0
  9
$DIMCLRT
 70
     0
  9
$DIMTFAC
 40
1.0
  9
$DIMGAP
 40
0.625
  9
$DIMJUST
 70
     0
  9
$DIMSD1
 70
     0
  9
$DIMSD2
 70
     0
  9
$DIMTOLJ
 70
     0
  9
$DIMTZIN
 70
     8
  9
$DIMALTZ
 70
     0
  9
$DIMALTTZ
 70
     0
  9
$DIMUPT
 70
     0
  9
$DIMDEC
 70
     2
  9
$DIMTDEC
 70
     2
  9
$DIMALTU
 70
     2
  9
$DIMALTTD
 70
     3
  9
$DIMTXSTY
  7
Standard
  9
$DIMAUNIT
 70
     0
  9
$DIMADEC
 70
     0
  9
$DIMALTRND
 40
0.0
  9
$DIMAZIN
 70
     0
  9
$DIMDSEP
 70
    44
  9
$DIMATFIT
 70
     3
  9
$DIMFRAC
 70
     0
  9
$DIMLDRBLK
  1

  9
$DIMLUNIT
 70
     2
  9
$DIMLWD
 70
    -2
  9
$DIMLWE
 70
    -2
  9
$DIMTMOVE
 70
     0
  9
$LUNITS
 70
     2
  9
$LUPREC
 70
     4
  9
$SKETCHINC
 40
1.0
  9
$FILLETRAD
 40
10.0
  9
$AUNITS
 70
     0
  9
$AUPREC
 70
     0
  9
$MENU
  1
.
  9
$ELEVATION
 40
0.0
  9
$PELEVATION
 40
0.0
  9
$THICKNESS
 40
0.0
  9
$LIMCHECK
 70
     0
  9
$CHAMFERA
 40
0.0
  9
$CHAMFERB
 40
0.0
  9
$CHAMFERC
 40
0.0
  9
$CHAMFERD
 40
0.0
  9
$SKPOLY
 70
     0
  9
$TDCREATE
 40
2458012.378733322
  9
$TDUCREATE
 40
2458012.295399989
  9
$TDUPDATE
 40
2458012.378738553
  9
$TDUUPDATE
 40
2458012.29540522
  9
$TDINDWG
 40
0.0000000116
  9
$TDUSRTIMER
 40
0.0000000116
  9
$USRTIMER
 70
     1
  9
$ANGBASE
 50
0.0
  9
$ANGDIR
 70
     0
  9
$PDMODE
 70
     0
  9
$PDSIZE
 40
0.0
  9
$PLINEWID
 40
0.0
  9
$SPLFRAME
 70
     0
  9
$SPLINETYPE
 70
     6
  9
$SPLINESEGS
 70
     8
  9
$HANDSEED
  5
3B2
  9
$SURFTAB1
 70
     6
  9
$SURFTAB2
 70
     6
  9
$SURFTYPE
 70
     6
  9
$SURFU
 70
     6
  9
$SURFV
 70
     6
  9
$UCSBASE
  2

  9
$UCSNAME
  2

  9
$UCSORG
 10
0.0
 20
0.0
 30
0.0
  9
$UCSXDIR
 10
1.0
 20
0.0
 30
0.0
  9
$UCSYDIR
 10
0.0
 20
1.0
 30
0.0
  9
$UCSORTHOREF
  2

  9
$UCSORTHOVIEW
 70
     0
  9
$UCSORGTOP
 10
0.0
 20
0.0
 30
0.0
  9
$UCSORGBOTTOM
 10
0.0
 20
0.0
 30
0.0
  9
$UCSORGLEFT
 10
0.0
 20
0.0
 30
0.0
  9
$UCSORGRIGHT
 10
0.0
 20
0.0
 30
0.0
  9
$UCSORGFRONT
 10
0.0
 20
0.0
 30
0.0
  9
$UCSORGBACK
 10
0.0
 20
0.0
 30
0.0
  9
$PUCSBASE
  2

  9
$PUCSNAME
  2

  9
$PUCSORG
 10
0.0
 20
0.0
 30
0.0
  9
$PUCSXDIR
 10
1.0
 20
0.0
 30
0.0
  9
$PUCSYDIR
 10
0.0
 20
1.0
 30
0.0
  9
$PUCSORTHOREF
  2

  9
$PUCSORTHOVIEW
 70
     0
  9
$PUCSORGTOP
 10
0.0
 20
0.0
 30
0.0
  9
$PUCSORGBOTTOM
 10
0.0
 20
0.0
 30
0.0
  9
$PUCSORGLEFT
 10
0.0
 20
0.0
 30
0.0
  9
$PUCSORGRIGHT
 10
0.0
 20
0.0
 30
0.0
  9
$PUCSORGFRONT
 10
0.0
 20
0.0
 30
0.0
  9
$PUCSORGBACK
 10
0.0
 20
0.0
 30
0.0
  9
$USERI1
 70
     0
  9
$USERI2
 70
     0
  9
$USERI3
 70
     0
  9
$USERI4
 70
     0
  9
$USERI5
 70
     0
  9
$USERR1
 40
0.0
  9
$USERR2
 40
0.0
  9
$USERR3
 40
0.0
  9
$USERR4
 40
0.0
  9
$USERR5
 40
0.0
  9
$WORLDVIEW
 70
     1
  9
$SHADEDGE
 70
     3
  9
$SHADEDIF
 70
    70
  9
$TILEMODE
 70
     1
  9
$MAXACTVP
 70
    64
  9
$PINSBASE
 10
0.0
 20
0.0
 30
0.0
  9
$PLIMCHECK
 70
     0
  9
$PEXTMIN
 10
0.0
 20
0.0
 30
0.0
  9
$PEXTMAX
 10
3000.0
 20
4500.0
 30
0.0
  9
$PLIMMIN
 10
0.0
 20
0.0
  9
$PLIMMAX
 10
3000.0
 20
4500.0
  9
$UNITMODE
 70
     0
  9
$VISRETAIN
 70
     1
  9
$PLINEGEN
 70
     0
  9
$PSLTSCALE
 70
     1
  9
$TREEDEPTH
 70
  3020
  9
$CMLSTYLE
  2
Standard
  9
$CMLJUST
 70
     0
  9
$CMLSCALE
 40
20.0
  9
$PROXYGRAPHICS
 70
     1
  9
$MEASUREMENT
 70
     1
  9
$CELWEIGHT
370
    -1
  9
$ENDCAPS
280
     0
  9
$JOINSTYLE
280
     0
  9
$LWDISPLAY
290
     0
  9
$INSUNITS
 70
     4
  9
$HYPERLINKBASE
  1

  9
$STYLESHEET
  1

  9
$XEDIT
290
     1
  9
$CEPSNTYPE
380
     0
  9
$PSTYLEMODE
290
     1
  9
$FINGERPRINTGUID
  2
{C11A6574-C7D5-4152-8C42-075F362374BC}
  9
$VERSIONGUID
  2
{FAEB1C32-E019-11D5-929B-00C0DF256EC4}
  9
$EXTNAMES
290
     1
  9
$PSVPSCALE
 40
0.0
  9
$OLESTARTUP
290
     0
  0
ENDSEC
  0
SECTION
  2
CLASSES
  0
CLASS
  1
ACDBDICTIONARYWDFLT
  2
AcDbDictionaryWithDefault
  3
ObjectDBX Classes
 90
        0
280
     0
281
     0
  0
CLASS
  1
VISUALSTYLE
  2
AcDbVisualStyle
  3
ObjectDBX Classes
 90
     4095
280
     0
281
     0
  0
CLASS
  1
MATERIAL
  2
AcDbMaterial
  3
ObjectDBX Classes
 90
     1153
280
     0
281
     0
  0
CLASS
  1
SCALE
  2
AcDbScale
  3
ObjectDBX Classes
 90
     1153
280
     0
281
     0
  0
CLASS
  1
SUN
  2
AcDbSun
  3
SCENEOE
 90
     1153
280
     0
281
     0
  0
CLASS
  1
DICTIONARYVAR
  2
AcDbDictionaryVar
  3
ObjectDBX Classes
 90
        0
280
     0
281
     0
  0
CLASS
  1
ACDBPLACEHOLDER
  2
AcDbPlaceHolder
  3
ObjectDBX Classes
 90
        0
280
     0
281
     0
  0
CLASS
  1
LAYOUT
  2
AcDbLayout
  3
ObjectDBX Classes
 90
        0
280
     0
281
     0
  0
ENDSEC
  0
SECTION
  2
TABLES
  0
TABLE
  2
VPORT
  5
8
330
0
100
AcDbSymbolTable
 70
     1
  0
VPORT
  5
29
330
8
100
AcDbSymbolTableRecord
100
AcDbViewportTableRecord
  2
*Active
 70
     0
 10
0.0
 20
0.0
 11
1.0
 21
1.0
 12
344.1869158879
 22
148.5
 13
0.0
 23
0.0
 14
10.0
 24
10.0
 15
10.0
 25
10.0
 16
0.0
 26
0.0
 36
1.0
 17
0.0
 27
0.0
 37
0.0
 40
297.0
 41
1.9729729729
 42
50.0
 43
0.0
 44
0.0
 50
0.0
 51
0.0
 71
     0
 72
   100
 73
     1
 74
     3
 75
     0
 76
     0
 77
     0
 78
     0
281
     0
 65
     1
110
0.0
120
0.0
130
0.0
111
1.0
121
0.0
131
0.0
112
0.0
122
1.0
132
0.0
 79
     0
146
0.0
  0
ENDTAB
  0
TABLE
  2
LTYPE
  5
5
330
0
100
AcDbSymbolTable
 70
     2
  0
LTYPE
  5
14
330
5
100
AcDbSymbolTableRecord
100
AcDbLinetypeTableRecord
  2
ByBlock
 70
     0
  3

 72
    65
 73
     0
 40
0.0
  0
LTYPE
  5
15
330
5
100
AcDbSymbolTableRecord
100
AcDbLinetypeTableRecord
  2
ByLayer
 70
     0
  3

 72
    65
 73
     0
 40
0.0
  0
LTYPE
  5
16
330
5
100
AcDbSymbolTableRecord
100
AcDbLinetypeTableRecord
  2
Continuous
 70
     0
  3
Solid line
 72
    65
 73
     0
 40
0.0
  0
LTYPE
  5
6D
330
5
100
AcDbSymbolTableRecord
100
AcDbLinetypeTableRecord
  2
CENTER2
 70
     0
  3
Center (.5x) ___ _ ___ _ ___ _ ___ _ ___ _ ___
 72
    65
 73
     4
 40
28.575
 49
19.05
 74
     4
 75
     0
340
0
 46
0.0
 50
0.0
 44
0.0
 45
0.0
 49
-3.175
 74
     4
 75
     0
340
0
 46
0.0
 50
0.0
 44
0.0
 45
0.0
 49
3.175
 74
     4
 75
     0
340
0
 46
0.0
 50
0.0
 44
0.0
 45
0.0
 49
-3.175
 74
     4
 75
     0
340
0
 46
0.0
 50
0.0
 44
0.0
 45
0.0
  0
ENDTAB
  0
TABLE
  2
LAYER
  5
2
330
0
100
AcDbSymbolTable
 70
     5
  0
LAYER
  5
10
330
2
100
AcDbSymbolTableRecord
100
AcDbLayerTableRecord
  2
0
 70
     0
 62
     7
  6
Continuous
370
    -3
390
F
  0
LAYER
  5
6A
330
2
100
AcDbSymbolTableRecord
100
AcDbLayerTableRecord
  2
Default
 70
     0
 62
     7
  6
Continuous
370
    -3
390
F
  0
LAYER
  5
A4
330
2
100
AcDbSymbolTableRecord
100
AcDbLayerTableRecord
  2
DV1_Default
 70
     0
 62
     7
  6
Continuous
370
    -3
390
F
  0
LAYER
  5
205
330
2
100
AcDbSymbolTableRecord
100
AcDbLayerTableRecord
  2
DV2_Default
 70
     0
 62
     7
  6
Continuous
370
    -3
390
F
  0
LAYER
  5
28B
330
2
100
AcDbSymbolTableRecord
100
AcDbLayerTableRecord
  2
DV3_Default
 70
     0
 62
     7
  6
Continuous
370
    -3
390
F
  0
ENDTAB
  0
TABLE
  2
STYLE
  5
3
330
0
100
AcDbSymbolTable
 70
     1
  0
STYLE
  5
11
330
3
100
AcDbSymbolTableRecord
100
AcDbTextStyleTableRecord
  2
Standard
 70
     0
 40
0.0
 41
1.0
 50
0.0
 71
     0
 42
10.0
  3
txt
  4

  0
ENDTAB
  0
TABLE
  2
VIEW
  5
6
330
0
100
AcDbSymbolTable
 70
     0
  0
ENDTAB
  0
TABLE
  2
UCS
  5
7
330
0
100
AcDbSymbolTable
 70
     0
  0
ENDTAB
  0
TABLE
  2
APPID
  5
9
330
0
100
AcDbSymbolTable
 70
     1
  0
APPID
  5
12
330
9
100
AcDbSymbolTableRecord
100
AcDbRegAppTableRecord
  2
ACAD
 70
     0
  0
ENDTAB
  0
TABLE
  2
DIMSTYLE
  5
A
330
0
100
AcDbSymbolTable
 70
     1
100
AcDbDimStyleTable
  0
DIMSTYLE
105
27
330
A
100
AcDbSymbolTableRecord
100
AcDbDimStyleTableRecord
  2
ISO-25
 70
     0
 41
2.5
 42
0.625
 43
3.75
 44
1.25
 73
     0
 74
     0
 77
     1
 78
     8
140
2.5
141
2.5
143
0.0393700787
147
0.625
171
     3
172
     1
178
     0
271
     2
272
     2
274
     3
278
    44
283
     0
284
     8
340
11
  0
ENDTAB
  0
TABLE
  2
BLOCK_RECORD
  5
1
330
0
100
AcDbSymbolTable
 70
    11
  0
BLOCK_RECORD
  5
1F
330
1
100
AcDbSymbolTableRecord
100
AcDbBlockTableRecord
  2
*Model_Space
340
22
  0
BLOCK_RECORD
  5
1B
330
1
100
AcDbSymbolTableRecord
100
AcDbBlockTableRecord
  2
*Paper_Space
340
1E
  0
BLOCK_RECORD
  5
6B
330
1
100
AcDbSymbolTableRecord
100
AcDbBlockTableRecord
  2
SEANNOT_GROUP
340
0
102
{BLKREFS
331
6C
102
}
  0
BLOCK_RECORD
  5
76
330
1
100
AcDbSymbolTableRecord
100
AcDbBlockTableRecord
  2
SEANNOT_GROUP1
340
0
102
{BLKREFS
331
77
102
}
  0
BLOCK_RECORD
  5
80
330
1
100
AcDbSymbolTableRecord
100
AcDbBlockTableRecord
  2
SEANNOT_GROUP2
340
0
102
{BLKREFS
331
81
102
}
  0
BLOCK_RECORD
  5
8A
330
1
100
AcDbSymbolTableRecord
100
AcDbBlockTableRecord
  2
SEANNOT_GROUP3
340
0
102
{BLKREFS
331
8B
102
}
  0
BLOCK_RECORD
  5
90
330
1
100
AcDbSymbolTableRecord
100
AcDbBlockTableRecord
  2
SEANNOT_GROUP4
340
0
102
{BLKREFS
331
91
102
}
  0
BLOCK_RECORD
  5
96
330
1
100
AcDbSymbolTableRecord
100
AcDbBlockTableRecord
  2
SEANNOT_GROUP5
340
0
102
{BLKREFS
331
97
102
}
  0
BLOCK_RECORD
  5
9C
330
1
100
AcDbSymbolTableRecord
100
AcDbBlockTableRecord
  2
SEANNOT_GROUP6
340
0
102
{BLKREFS
331
9D
102
}
  0
BLOCK_RECORD
  5
A2
330
1
100
AcDbSymbolTableRecord
100
AcDbBlockTableRecord
  2
SE
340
0
102
{BLKREFS
331
A3
102
}
  0
BLOCK_RECORD
  5
203
330
1
100
AcDbSymbolTableRecord
100
AcDbBlockTableRecord
  2
SE1
340
0
102
{BLKREFS
331
204
102
}
  0
BLOCK_RECORD
  5
289
330
1
100
AcDbSymbolTableRecord
100
AcDbBlockTableRecord
  2
SE2
340
0
102
{BLKREFS
331
28A
102
}
  0
ENDTAB
  0
ENDSEC
  0
SECTION
  2
BLOCKS
  0
BLOCK
  5
20
330
1F
100
AcDbEntity
  8
0
100
AcDbBlockBegin
  2
*Model_Space
 70
     0
 10
0.0
 20
0.0
 30
0.0
  3
*Model_Space
  1
*Model_Space
  0
ENDBLK
  5
21
330
1F
100
AcDbEntity
  8
0
100
AcDbBlockEnd
  0
BLOCK
  5
1C
330
1B
100
AcDbEntity
 67
     1
  8
0
100
AcDbBlockBegin
  2
*Paper_Space
 70
     0
 10
0.0
 20
0.0
 30
0.0
  3
*Paper_Space
  1
*Paper_Space
  0
ENDBLK
  5
1D
330
1B
100
AcDbEntity
 67
     1
  8
0
100
AcDbBlockEnd
  0
BLOCK
  5
74
330
6B
100
AcDbEntity
  8
0
100
AcDbBlockBegin
  2
SEANNOT_GROUP
 70
     0
 10
0.0
 20
0.0
 30
0.0
  3
SEANNOT_GROUP
  1
SEANNOT_GROUP
  0
LINE
  5
6E
330
6B
100
AcDbEntity
  8
Default
  6
CENTER2
 62
     7
100
AcDbLine
 10
58.849999553
 20
351.061334221
 30
0.0
 11
18.850000447
 21
351.061334221
 31
0.0
  0
LINE
  5
6F
330
6B
100
AcDbEntity
  8
Default
  6
CENTER2
 62
     7
100
AcDbLine
 10
38.85
 20
371.061333774
 30
0.0
 11
38.85
 21
331.061334668
 31
0.0
  0
LINE
  5
70
330
6B
100
AcDbEntity
  8
Default
  6
CENTER2
 62
     7
100
AcDbLine
 10
63.8499985099
 20
351.061334221
 30
0.0
 11
74.85
 21
351.061334221
 31
0.0
  0
LINE
  5
71
330
6B
100
AcDbEntity
  8
Default
  6
CENTER2
 62
     7
100
AcDbLine
 10
38.85
 20
376.0613327309
 30
0.0
 11
38.85
 21
387.061334221
 31
0.0
  0
LINE
  5
72
330
6B
100
AcDbEntity
  8
Default
  6
CENTER2
 62
     7
100
AcDbLine
 10
13.8500014901
 20
351.061334221
 30
0.0
 11
2.85
 21
351.061334221
 31
0.0
  0
LINE
  5
73
330
6B
100
AcDbEntity
  8
Default
  6
CENTER2
 62
     7
100
AcDbLine
 10
38.85
 20
326.0613357111
 30
0.0
 11
38.85
 21
315.061334221
 31
0.0
  0
ENDBLK
  5
75
330
6B
100
AcDbEntity
  8
0
100
AcDbBlockEnd
  0
BLOCK
  5
7E
330
76
100
AcDbEntity
  8
0
100
AcDbBlockBegin
  2
SEANNOT_GROUP1
 70
     0
 10
0.0
 20
0.0
 30
0.0
  3
SEANNOT_GROUP1
  1
SEANNOT_GROUP1
  0
LINE
  5
78
330
76
100
AcDbEntity
  8
Default
  6
CENTER2
 62
     7
100
AcDbLine
 10
358.849999553
 20
351.061334221
 30
0.0
 11
318.850000447
 21
351.061334221
 31
0.0
  0
LINE
  5
79
330
76
100
AcDbEntity
  8
Default
  6
CENTER2
 62
     7
100
AcDbLine
 10
338.85
 20
371.061333774
 30
0.0
 11
338.85
 21
331.061334668
 31
0.0
  0
LINE
  5
7A
330
76
100
AcDbEntity
  8
Default
  6
CENTER2
 62
     7
100
AcDbLine
 10
363.8499985099
 20
351.061334221
 30
0.0
 11
374.85
 21
351.061334221
 31
0.0
  0
LINE
  5
7B
330
76
100
AcDbEntity
  8
Default
  6
CENTER2
 62
     7
100
AcDbLine
 10
338.85
 20
376.0613327309
 30
0.0
 11
338.85
 21
387.061334221
 31
0.0
  0
LINE
  5
7C
330
76
100
AcDbEntity
  8
Default
  6
CENTER2
 62
     7
100
AcDbLine
 10
313.8500014901
 20
351.061334221
 30
0.0
 11
302.85
 21
351.061334221
 31
0.0
  0
LINE
  5
7D
330
76
100
AcDbEntity
  8
Default
  6
CENTER2
 62
     7
100
AcDbLine
 10
338.85
 20
326.0613357111
 30
0.0
 11
338.85
 21
315.061334221
 31
0.0
  0
ENDBLK
  5
7F
330
76
100
AcDbEntity
  8
0
100
AcDbBlockEnd
  0
BLOCK
  5
88
330
80
100
AcDbEntity
  8
0
100
AcDbBlockBegin
  2
SEANNOT_GROUP2
 70
     0
 10
0.0
 20
0.0
 30
0.0
  3
SEANNOT_GROUP2
  1
SEANNOT_GROUP2
  0
LINE
  5
82
330
80
100
AcDbEntity
  8
Default
  6
CENTER2
 62
     7
100
AcDbLine
 10
208.849999553
 20
351.061334221
 30
0.0
 11
168.850000447
 21
351.061334221
 31
0.0
  0
LINE
  5
83
330
80
100
AcDbEntity
  8
Default
  6
CENTER2
 62
     7
100
AcDbLine
 10
188.85
 20
371.061333774
 30
0.0
 11
188.85
 21
331.061334668
 31
0.0
  0
LINE
  5
84
330
80
100
AcDbEntity
  8
Default
  6
CENTER2
 62
     7
100
AcDbLine
 10
213.8499985099
 20
351.061334221
 30
0.0
 11
224.85
 21
351.061334221
 31
0.0
  0
LINE
  5
85
330
80
100
AcDbEntity
  8
Default
  6
CENTER2
 62
     7
100
AcDbLine
 10
188.85
 20
376.0613327309
 30
0.0
 11
188.85
 21
387.061334221
 31
0.0
  0
LINE
  5
86
330
80
100
AcDbEntity
  8
Default
  6
CENTER2
 62
     7
100
AcDbLine
 10
163.8500014901
 20
351.061334221
 30
0.0
 11
152.85
 21
351.061334221
 31
0.0
  0
LINE
  5
87
330
80
100
AcDbEntity
  8
Default
  6
CENTER2
 62
     7
100
AcDbLine
 10
188.85
 20
326.0613357111
 30
0.0
 11
188.85
 21
315.061334221
 31
0.0
  0
ENDBLK
  5
89
330
80
100
AcDbEntity
  8
0
100
AcDbBlockEnd
  0
BLOCK
  5
8E
330
8A
100
AcDbEntity
  8
0
100
AcDbBlockBegin
  2
SEANNOT_GROUP3
 70
     0
 10
0.0
 20
0.0
 30
0.0
  3
SEANNOT_GROUP3
  1
SEANNOT_GROUP3
  0
LINE
  5
8C
330
8A
100
AcDbEntity
  8
Default
  6
CENTER2
 62
     7
100
AcDbLine
 10
208.849999553
 20
445.9355402295
 30
0.0
 11
168.850000447
 21
445.9355402295
 31
0.0
  0
LINE
  5
8D
330
8A
100
AcDbEntity
  8
Default
  6
CENTER2
 62
     7
100
AcDbLine
 10
188.85
 20
465.9355397824
 30
0.0
 11
188.85
 21
425.9355406765
 31
0.0
  0
ENDBLK
  5
8F
330
8A
100
AcDbEntity
  8
0
100
AcDbBlockEnd
  0
BLOCK
  5
94
330
90
100
AcDbEntity
  8
0
100
AcDbBlockBegin
  2
SEANNOT_GROUP4
 70
     0
 10
0.0
 20
0.0
 30
0.0
  3
SEANNOT_GROUP4
  1
SEANNOT_GROUP4
  0
LINE
  5
92
330
90
100
AcDbEntity
  8
Default
  6
CENTER2
 62
     7
100
AcDbLine
 10
58.849999553
 20
445.9355402295
 30
0.0
 11
18.850000447
 21
445.9355402295
 31
0.0
  0
LINE
  5
93
330
90
100
AcDbEntity
  8
Default
  6
CENTER2
 62
     7
100
AcDbLine
 10
38.85
 20
465.9355397824
 30
0.0
 11
38.85
 21
425.9355406765
 31
0.0
  0
ENDBLK
  5
95
330
90
100
AcDbEntity
  8
0
100
AcDbBlockEnd
  0
BLOCK
  5
9A
330
96
100
AcDbEntity
  8
0
100
AcDbBlockBegin
  2
SEANNOT_GROUP5
 70
     0
 10
0.0
 20
0.0
 30
0.0
  3
SEANNOT_GROUP5
  1
SEANNOT_GROUP5
  0
LINE
  5
98
330
96
100
AcDbEntity
  8
Default
  6
CENTER2
 62
     7
100
AcDbLine
 10
358.849999553
 20
445.9355402295
 30
0.0
 11
318.850000447
 21
445.9355402295
 31
0.0
  0
LINE
  5
99
330
96
100
AcDbEntity
  8
Default
  6
CENTER2
 62
     7
100
AcDbLine
 10
338.85
 20
465.9355397824
 30
0.0
 11
338.85
 21
425.9355406765
 31
0.0
  0
ENDBLK
  5
9B
330
96
100
AcDbEntity
  8
0
100
AcDbBlockEnd
  0
BLOCK
  5
A0
330
9C
100
AcDbEntity
  8
0
100
AcDbBlockBegin
  2
SEANNOT_GROUP6
 70
     0
 10
0.0
 20
0.0
 30
0.0
  3
SEANNOT_GROUP6
  1
SEANNOT_GROUP6
  0
LINE
  5
9E
330
9C
100
AcDbEntity
  8
Default
  6
CENTER2
 62
     7
100
AcDbLine
 10
486.209019476
 20
445.9355402295
 30
0.0
 11
446.2090203701
 21
445.9355402295
 31
0.0
  0
LINE
  5
9F
330
9C
100
AcDbEntity
  8
Default
  6
CENTER2
 62
     7
100
AcDbLine
 10
466.2090199231
 20
465.9355397824
 30
0.0
 11
466.2090199231
 21
425.9355406765
 31
0.0
  0
ENDBLK
  5
A1
330
9C
100
AcDbEntity
  8
0
100
AcDbBlockEnd
  0
BLOCK
  5
201
330
A2
100
AcDbEntity
  8
0
100
AcDbBlockBegin
  2
SE
 70
     0
 10
0.0
 20
0.0
 30
0.0
  3
SE
  1
SE
  0
LINE
  5
A5
330
A2
100
AcDbEntity
  8
DV1_Default
  6
Continuous
 62
     7
100
AcDbLine
 10
48.7367055806
 20
473.0555402295
 30
0.0
 11
48.7367634377
 21
473.0555402295
 31
0.0
  0
LINE
  5
A6
330
A2
100
AcDbEntity
  8
DV1_Default
  6
Continuous
 62
     7
100
AcDbLine
 10
48.7367634377
 20
473.0555402295
 30
0.0
 11
49.4238604655
 21
473.0555402295
 31
0.0
  0
LINE
  5
A7
330
A2
100
AcDbEntity
  8
DV1_Default
  6
Continuous
 62
     7
100
AcDbLine
 10
49.4238604655
 20
473.0555402295
 30
0.0
 11
49.4238968447
 21
473.0555402295
 31
0.0
  0
LINE
  5
A8
330
A2
100
AcDbEntity
  8
DV1_Default
  6
Continuous
 62
     7
100
AcDbLine
 10
49.4238968447
 20
473.0555402295
 30
0.0
 11
49.7897339509
 21
473.0555402295
 31
0.0
  0
LINE
  5
A9
330
A2
100
AcDbEntity
  8
DV1_Default
  6
Continuous
 62
     7
100
AcDbLine
 10
49.7897339509
 20
473.0555402295
 30
0.0
 11
49.7897477468
 21
473.0555402295
 31
0.0
  0
LINE
  5
AA
330
A2
100
AcDbEntity
  8
DV1_Default
  6
Continuous
 62
     7
100
AcDbLine
 10
49.7897477468
 20
473.0555402295
 30
0.0
 11
49.823209156
 21
473.0555402295
 31
0.0
  0
LINE
  5
AB
330
A2
100
AcDbEntity
  8
DV1_Default
  6
Continuous
 62
     7
100
AcDbLine
 10
27.8768000506
 20
473.0555402295
 30
0.0
 11
28.1767310465
 21
473.0555402295
 31
0.0
  0
LINE
  5
AC
330
A2
100
AcDbEntity
  8
DV1_Default
  6
Continuous
 62
     7
100
AcDbLine
 10
28.1767310465
 20
473.0555402295
 30
0.0
 11
28.1767629758
 21
473.0555402295
 31
0.0
  0
LINE
  5
AD
330
A2
100
AcDbEntity
  8
DV1_Default
  6
Continuous
 62
     7
100
AcDbLine
 10
28.1767629758
 20
473.0555402295
 30
0.0
 11
28.8009731251
 21
473.0555402295
 31
0.0
  0
LINE
  5
AE
330
A2
100
AcDbEntity
  8
DV1_Default
  6
Continuous
 62
     7
100
AcDbLine
 10
28.8009731251
 20
473.0555402295
 30
0.0
 11
28.8010268071
 21
473.0555402295
 31
0.0
  0
LINE
  5
AF
330
A2
100
AcDbEntity
  8
DV1_Default
  6
Continuous
 62
     7
100
AcDbLine
 10
28.8010268071
 20
473.0555402295
 30
0.0
 11
29.7305498004
 21
473.0555402295
 31
0.0
  0
LINE
  5
B0
330
A2
100
AcDbEntity
  8
DV1_Default
  6
Continuous
 62
     7
100
AcDbLine
 10
29.7305498004
 20
473.0555402295
 30
0.0
 11
29.7306236038
 21
473.0555402295
 31
0.0
  0
LINE
  5
B1
330
A2
100
AcDbEntity
  8
DV1_Default
  6
Continuous
 62
     7
100
AcDbLine
 10
29.7306236038
 20
473.0555402295
 30
0.0
 11
30.9372163552
 21
473.0555402295
 31
0.0
  0
LINE
  5
B2
330
A2
100
AcDbEntity
  8
DV1_Default
  6
Continuous
 62
     7
100
AcDbLine
 10
30.9372163552
 20
473.0555402295
 30
0.0
 11
30.9373080376
 21
473.0555402295
 31
0.0
  0
LINE
  5
B3
330
A2
100
AcDbEntity
  8
DV1_Default
  6
Continuous
 62
     7
100
AcDbLine
 10
30.9373080376
 20
473.0555402295
 30
0.0
 11
32.2897377396
 21
473.0555402295
 31
0.0
  0
LINE
  5
B4
330
A2
100
AcDbEntity
  8
DV1_Default
  6
Continuous
 62
     7
100
AcDbLine
 10
32.2897377396
 20
473.0555402295
 30
0.0
 11
32.384308837
 21
473.0555402295
 31
0.0
  0
LINE
  5
B5
330
A2
100
AcDbEntity
  8
DV1_Default
  6
Continuous
 62
     7
100
AcDbLine
 10
32.384308837
 20
473.0555402295
 30
0.0
 11
32.3844156128
 21
473.0555402295
 31
0.0
  0
LINE
  5
B6
330
A2
100
AcDbEntity
  8
DV1_Default
  6
Continuous
 62
     7
100
AcDbLine
 10
32.3844156128
 20
473.0555402295
 30
0.0
 11
33.6998767699
 21
473.0555402295
 31
0.0
  0
LINE
  5
B7
330
A2
100
AcDbEntity
  8
DV1_Default
  6
Continuous
 62
     7
100
AcDbLine
 10
33.6998767699
 20
473.0555402295
 30
0.0
 11
34.0278580731
 21
473.0555402295
 31
0.0
  0
LINE
  5
B8
330
A2
100
AcDbEntity
  8
DV1_Default
  6
Continuous
 62
     7
100
AcDbLine
 10
34.0278580731
 20
473.0555402295
 30
0.0
 11
34.0279766977
 21
473.0555402295
 31
0.0
  0
LINE
  5
B9
330
A2
100
AcDbEntity
  8
DV1_Default
  6
Continuous
 62
     7
100
AcDbLine
 10
34.0279766977
 20
473.0555402295
 30
0.0
 11
35.2664996885
 21
473.0555402295
 31
0.0
  0
LINE
  5
BA
330
A2
100
AcDbEntity
  8
DV1_Default
  6
Continuous
 62
     7
100
AcDbLine
 10
35.2664996885
 20
473.0555402295
 30
0.0
 11
35.8179256514
 21
473.0555402295
 31
0.0
  0
LINE
  5
BB
330
A2
100
AcDbEntity
  8
DV1_Default
  6
Continuous
 62
     7
100
AcDbLine
 10
35.8179256514
 20
473.0555402295
 30
0.0
 11
35.8180525207
 21
473.0555402295
 31
0.0
  0
LINE
  5
BC
330
A2
100
AcDbEntity
  8
DV1_Default
  6
Continuous
 62
     7
100
AcDbLine
 10
35.8180525207
 20
473.0555402295
 30
0.0
 11
36.9420054507
 21
473.0555402295
 31
0.0
  0
LINE
  5
BD
330
A2
100
AcDbEntity
  8
DV1_Default
  6
Continuous
 62
     7
100
AcDbLine
 10
36.9420054507
 20
473.0555402295
 30
0.0
 11
37.7001212746
 21
473.0555402295
 31
0.0
  0
LINE
  5
BE
330
A2
100
AcDbEntity
  8
DV1_Default
  6
Continuous
 62
     7
100
AcDbLine
 10
37.7001212746
 20
473.0555402295
 30
0.0
 11
37.7002525336
 21
473.0555402295
 31
0.0
  0
LINE
  5
BF
330
A2
100
AcDbEntity
  8
DV1_Default
  6
Continuous
 62
     7
100
AcDbLine
 10
37.7002525336
 20
473.0555402295
 30
0.0
 11
38.7978691615
 21
473.0555402295
 31
0.0
  0
LINE
  5
C0
330
A2
100
AcDbEntity
  8
DV1_Default
  6
Continuous
 62
     7
100
AcDbLine
 10
41.9526029067
 20
473.0555402295
 30
0.0
 11
43.324042788
 21
473.0555402295
 31
0.0
  0
LINE
  5
C1
330
A2
100
AcDbEntity
  8
DV1_Default
  6
Continuous
 62
     7
100
AcDbLine
 10
43.324042788
 20
473.0555402295
 30
0.0
 11
43.3241633595
 21
473.0555402295
 31
0.0
  0
LINE
  5
C2
330
A2
100
AcDbEntity
  8
DV1_Default
  6
Continuous
 62
     7
100
AcDbLine
 10
43.3241633595
 20
473.0555402295
 30
0.0
 11
43.6978537977
 21
473.0555402295
 31
0.0
  0
LINE
  5
C3
330
A2
100
AcDbEntity
  8
DV1_Default
  6
Continuous
 62
     7
100
AcDbLine
 10
43.6978537977
 20
473.0555402295
 30
0.0
 11
45.001067229
 21
473.0555402295
 31
0.0
  0
LINE
  5
C4
330
A2
100
AcDbEntity
  8
DV1_Default
  6
Continuous
 62
     7
100
AcDbLine
 10
45.001067229
 20
473.0555402295
 30
0.0
 11
45.0011766471
 21
473.0555402295
 31
0.0
  0
LINE
  5
C5
330
A2
100
AcDbEntity
  8
DV1_Default
  6
Continuous
 62
     7
100
AcDbLine
 10
45.0011766471
 20
473.0555402295
 30
0.0
 11
45.1428892503
 21
473.0555402295
 31
0.0
  0
LINE
  5
C6
330
A2
100
AcDbEntity
  8
DV1_Default
  6
Continuous
 62
     7
100
AcDbLine
 10
45.1428892503
 20
473.0555402295
 30
0.0
 11
46.4911946049
 21
473.0555402295
 31
0.0
  0
LINE
  5
C7
330
A2
100
AcDbEntity
  8
DV1_Default
  6
Continuous
 62
     7
100
AcDbLine
 10
46.4911946049
 20
473.0555402295
 30
0.0
 11
46.4912895449
 21
473.0555402295
 31
0.0
  0
LINE
  5
C8
330
A2
100
AcDbEntity
  8
DV1_Default
  6
Continuous
 62
     7
100
AcDbLine
 10
46.4912895449
 20
473.0555402295
 30
0.0
 11
47.7491481494
 21
473.0555402295
 31
0.0
  0
LINE
  5
C9
330
A2
100
AcDbEntity
  8
DV1_Default
  6
Continuous
 62
     7
100
AcDbLine
 10
47.7491481494
 20
473.0555402295
 30
0.0
 11
47.7492257265
 21
473.0555402295
 31
0.0
  0
LINE
  5
CA
330
A2
100
AcDbEntity
  8
DV1_Default
  6
Continuous
 62
     7
100
AcDbLine
 10
47.7492257265
 20
473.0555402295
 30
0.0
 11
48.7367055806
 21
473.0555402295
 31
0.0
  0
LINE
  5
CB
330
A2
100
AcDbEntity
  8
DV1_Default
  6
Continuous
 62
     7
100
AcDbLine
 10
41.9526029067
 20
473.0555402295
 30
0.0
 11
38.7978691615
 21
473.0555402295
 31
0.0
  0
LINE
  5
CC
330
A2
100
AcDbEntity
  8
DV1_Default
  6
Continuous
 62
     7
100
AcDbLine
 10
41.9526029067
 20
462.6355402295
 30
0.0
 11
41.9526029067
 21
473.0555402295
 31
0.0
  0
LINE
  5
CD
330
A2
100
AcDbEntity
  8
DV1_Default
  6
Continuous
 62
     7
100
AcDbLine
 10
38.7978691615
 20
462.6355402295
 30
0.0
 11
38.7978691615
 21
473.0555402295
 31
0.0
  0
LINE
  5
CE
330
A2
100
AcDbEntity
  8
DV1_Default
  6
Continuous
 62
     7
100
AcDbLine
 10
27.876790844
 20
462.6355402295
 30
0.0
 11
27.876790844
 21
473.0555402295
 31
0.0
  0
LINE
  5
CF
330
A2
100
AcDbEntity
  8
DV1_Default
  6
Continuous
 62
     7
100
AcDbLine
 10
49.7897477468
 20
462.6355402295
 30
0.0
 11
49.7897477468
 21
473.0555402295
 31
0.0
  0
LINE
  5
D0
330
A2
100
AcDbEntity
  8
DV1_Default
  6
Continuous
 62
     7
100
AcDbLine
 10
49.823209156
 20
462.6355402295
 30
0.0
 11
49.823209156
 21
473.0555402295
 31
0.0
  0
LINE
  5
D1
330
A2
100
AcDbEntity
  8
DV1_Default
  6
Continuous
 62
     7
100
AcDbLine
 10
49.4238968447
 20
462.6355402295
 30
0.0
 11
49.4238968447
 21
473.0555402295
 31
0.0
  0
LINE
  5
D2
330
A2
100
AcDbEntity
  8
DV1_Default
  6
Continuous
 62
     7
100
AcDbLine
 10
49.7897339509
 20
462.6355402295
 30
0.0
 11
49.7897339509
 21
473.0555402295
 31
0.0
  0
LINE
  5
D3
330
A2
100
AcDbEntity
  8
DV1_Default
  6
Continuous
 62
     7
100
AcDbLine
 10
48.7367634377
 20
462.6355402295
 30
0.0
 11
48.7367634377
 21
473.0555402295
 31
0.0
  0
LINE
  5
D4
330
A2
100
AcDbEntity
  8
DV1_Default
  6
Continuous
 62
     7
100
AcDbLine
 10
49.4238604655
 20
462.6355402295
 30
0.0
 11
49.4238604655
 21
473.0555402295
 31
0.0
  0
LINE
  5
D5
330
A2
100
AcDbEntity
  8
DV1_Default
  6
Continuous
 62
     7
100
AcDbLine
 10
47.7492257265
 20
462.6355402295
 30
0.0
 11
47.7492257265
 21
473.0555402295
 31
0.0
  0
LINE
  5
D6
330
A2
100
AcDbEntity
  8
DV1_Default
  6
Continuous
 62
     7
100
AcDbLine
 10
48.7367055806
 20
462.6355402295
 30
0.0
 11
48.7367055806
 21
473.0555402295
 31
0.0
  0
LINE
  5
D7
330
A2
100
AcDbEntity
  8
DV1_Default
  6
Continuous
 62
     7
100
AcDbLine
 10
46.4912895449
 20
462.6355402295
 30
0.0
 11
46.4912895449
 21
473.0555402295
 31
0.0
  0
LINE
  5
D8
330
A2
100
AcDbEntity
  8
DV1_Default
  6
Continuous
 62
     7
100
AcDbLine
 10
47.7491481494
 20
462.6355402295
 30
0.0
 11
47.7491481494
 21
473.0555402295
 31
0.0
  0
LINE
  5
D9
330
A2
100
AcDbEntity
  8
DV1_Default
  6
Continuous
 62
     7
100
AcDbLine
 10
45.0011766471
 20
462.6355402295
 30
0.0
 11
45.0011766471
 21
473.0555402295
 31
0.0
  0
LINE
  5
DA
330
A2
100
AcDbEntity
  8
DV1_Default
  6
Continuous
 62
     7
100
AcDbLine
 10
45.1428892503
 20
462.6355402295
 30
0.0
 11
45.1428892503
 21
473.0555402295
 31
0.0
  0
LINE
  5
DB
330
A2
100
AcDbEntity
  8
DV1_Default
  6
Continuous
 62
     7
100
AcDbLine
 10
46.4911946049
 20
462.6355402295
 30
0.0
 11
46.4911946049
 21
473.0555402295
 31
0.0
  0
LINE
  5
DC
330
A2
100
AcDbEntity
  8
DV1_Default
  6
Continuous
 62
     7
100
AcDbLine
 10
43.3241633595
 20
462.6355402295
 30
0.0
 11
43.3241633595
 21
473.0555402295
 31
0.0
  0
LINE
  5
DD
330
A2
100
AcDbEntity
  8
DV1_Default
  6
Continuous
 62
     7
100
AcDbLine
 10
43.6978537977
 20
462.6355402295
 30
0.0
 11
43.6978537977
 21
473.0555402295
 31
0.0
  0
LINE
  5
DE
330
A2
100
AcDbEntity
  8
DV1_Default
  6
Continuous
 62
     7
100
AcDbLine
 10
45.001067229
 20
462.6355402295
 30
0.0
 11
45.001067229
 21
473.0555402295
 31
0.0
  0
LINE
  5
DF
330
A2
100
AcDbEntity
  8
DV1_Default
  6
Continuous
 62
     7
100
AcDbLine
 10
43.324042788
 20
462.6355402295
 30
0.0
 11
43.324042788
 21
473.0555402295
 31
0.0
  0
LINE
  5
E0
330
A2
100
AcDbEntity
  8
DV1_Default
  6
Continuous
 62
     7
100
AcDbLine
 10
37.7002525336
 20
462.6355402295
 30
0.0
 11
37.7002525336
 21
473.0555402295
 31
0.0
  0
LINE
  5
E1
330
A2
100
AcDbEntity
  8
DV1_Default
  6
Continuous
 62
     7
100
AcDbLine
 10
35.8180525207
 20
462.6355402295
 30
0.0
 11
35.8180525207
 21
473.0555402295
 31
0.0
  0
LINE
  5
E2
330
A2
100
AcDbEntity
  8
DV1_Default
  6
Continuous
 62
     7
100
AcDbLine
 10
36.9420054507
 20
462.6355402295
 30
0.0
 11
36.9420054507
 21
473.0555402295
 31
0.0
  0
LINE
  5
E3
330
A2
100
AcDbEntity
  8
DV1_Default
  6
Continuous
 62
     7
100
AcDbLine
 10
37.7001212746
 20
462.6355402295
 30
0.0
 11
37.7001212746
 21
473.0555402295
 31
0.0
  0
LINE
  5
E4
330
A2
100
AcDbEntity
  8
DV1_Default
  6
Continuous
 62
     7
100
AcDbLine
 10
34.0279766977
 20
462.6355402295
 30
0.0
 11
34.0279766977
 21
473.0555402295
 31
0.0
  0
LINE
  5
E5
330
A2
100
AcDbEntity
  8
DV1_Default
  6
Continuous
 62
     7
100
AcDbLine
 10
35.2664996885
 20
462.6355402295
 30
0.0
 11
35.2664996885
 21
473.0555402295
 31
0.0
  0
LINE
  5
E6
330
A2
100
AcDbEntity
  8
DV1_Default
  6
Continuous
 62
     7
100
AcDbLine
 10
35.8179256514
 20
462.6355402295
 30
0.0
 11
35.8179256514
 21
473.0555402295
 31
0.0
  0
LINE
  5
E7
330
A2
100
AcDbEntity
  8
DV1_Default
  6
Continuous
 62
     7
100
AcDbLine
 10
32.3844156128
 20
462.6355402295
 30
0.0
 11
32.3844156128
 21
473.0555402295
 31
0.0
  0
LINE
  5
E8
330
A2
100
AcDbEntity
  8
DV1_Default
  6
Continuous
 62
     7
100
AcDbLine
 10
33.6998767699
 20
462.6355402295
 30
0.0
 11
33.6998767699
 21
473.0555402295
 31
0.0
  0
LINE
  5
E9
330
A2
100
AcDbEntity
  8
DV1_Default
  6
Continuous
 62
     7
100
AcDbLine
 10
34.0278580731
 20
462.6355402295
 30
0.0
 11
34.0278580731
 21
473.0555402295
 31
0.0
  0
LINE
  5
EA
330
A2
100
AcDbEntity
  8
DV1_Default
  6
Continuous
 62
     7
100
AcDbLine
 10
30.9373080376
 20
462.6355402295
 30
0.0
 11
30.9373080376
 21
473.0555402295
 31
0.0
  0
LINE
  5
EB
330
A2
100
AcDbEntity
  8
DV1_Default
  6
Continuous
 62
     7
100
AcDbLine
 10
32.2897377396
 20
462.6355402295
 30
0.0
 11
32.2897377396
 21
473.0555402295
 31
0.0
  0
LINE
  5
EC
330
A2
100
AcDbEntity
  8
DV1_Default
  6
Continuous
 62
     7
100
AcDbLine
 10
32.384308837
 20
462.6355402295
 30
0.0
 11
32.384308837
 21
473.0555402295
 31
0.0
  0
LINE
  5
ED
330
A2
100
AcDbEntity
  8
DV1_Default
  6
Continuous
 62
     7
100
AcDbLine
 10
29.7306236038
 20
462.6355402295
 30
0.0
 11
29.7306236038
 21
473.0555402295
 31
0.0
  0
LINE
  5
EE
330
A2
100
AcDbEntity
  8
DV1_Default
  6
Continuous
 62
     7
100
AcDbLine
 10
30.9372163552
 20
462.6355402295
 30
0.0
 11
30.9372163552
 21
473.0555402295
 31
0.0
  0
LINE
  5
EF
330
A2
100
AcDbEntity
  8
DV1_Default
  6
Continuous
 62
     7
100
AcDbLine
 10
28.8010268071
 20
462.6355402295
 30
0.0
 11
28.8010268071
 21
473.0555402295
 31
0.0
  0
LINE
  5
F0
330
A2
100
AcDbEntity
  8
DV1_Default
  6
Continuous
 62
     7
100
AcDbLine
 10
29.7305498004
 20
462.6355402295
 30
0.0
 11
29.7305498004
 21
473.0555402295
 31
0.0
  0
LINE
  5
F1
330
A2
100
AcDbEntity
  8
DV1_Default
  6
Continuous
 62
     7
100
AcDbLine
 10
28.1767629758
 20
462.6355402295
 30
0.0
 11
28.1767629758
 21
473.0555402295
 31
0.0
  0
LINE
  5
F2
330
A2
100
AcDbEntity
  8
DV1_Default
  6
Continuous
 62
     7
100
AcDbLine
 10
28.8009731251
 20
462.6355402295
 30
0.0
 11
28.8009731251
 21
473.0555402295
 31
0.0
  0
LINE
  5
F3
330
A2
100
AcDbEntity
  8
DV1_Default
  6
Continuous
 62
     7
100
AcDbLine
 10
27.8768000506
 20
462.6355402295
 30
0.0
 11
27.8768000506
 21
473.0555402295
 31
0.0
  0
LINE
  5
F4
330
A2
100
AcDbEntity
  8
DV1_Default
  6
Continuous
 62
     7
100
AcDbLine
 10
28.1767310465
 20
462.6355402295
 30
0.0
 11
28.1767310465
 21
473.0555402295
 31
0.0
  0
LINE
  5
F5
330
A2
100
AcDbEntity
  8
DV1_Default
  6
Continuous
 62
     7
100
AcDbLine
 10
348.7367055806
 20
473.0555402295
 30
0.0
 11
348.7367634377
 21
473.0555402295
 31
0.0
  0
LINE
  5
F6
330
A2
100
AcDbEntity
  8
DV1_Default
  6
Continuous
 62
     7
100
AcDbLine
 10
348.7367634377
 20
473.0555402295
 30
0.0
 11
349.4238604655
 21
473.0555402295
 31
0.0
  0
LINE
  5
F7
330
A2
100
AcDbEntity
  8
DV1_Default
  6
Continuous
 62
     7
100
AcDbLine
 10
349.4238604655
 20
473.0555402295
 30
0.0
 11
349.4238968447
 21
473.0555402295
 31
0.0
  0
LINE
  5
F8
330
A2
100
AcDbEntity
  8
DV1_Default
  6
Continuous
 62
     7
100
AcDbLine
 10
349.4238968447
 20
473.0555402295
 30
0.0
 11
349.7897339509
 21
473.0555402295
 31
0.0
  0
LINE
  5
F9
330
A2
100
AcDbEntity
  8
DV1_Default
  6
Continuous
 62
     7
100
AcDbLine
 10
349.7897339509
 20
473.0555402295
 30
0.0
 11
349.7897477468
 21
473.0555402295
 31
0.0
  0
LINE
  5
FA
330
A2
100
AcDbEntity
  8
DV1_Default
  6
Continuous
 62
     7
100
AcDbLine
 10
349.7897477468
 20
473.0555402295
 30
0.0
 11
349.823209156
 21
473.0555402295
 31
0.0
  0
LINE
  5
FB
330
A2
100
AcDbEntity
  8
DV1_Default
  6
Continuous
 62
     7
100
AcDbLine
 10
327.8768000506
 20
473.0555402295
 30
0.0
 11
328.1767310465
 21
473.0555402295
 31
0.0
  0
LINE
  5
FC
330
A2
100
AcDbEntity
  8
DV1_Default
  6
Continuous
 62
     7
100
AcDbLine
 10
328.1767310465
 20
473.0555402295
 30
0.0
 11
328.1767629758
 21
473.0555402295
 31
0.0
  0
LINE
  5
FD
330
A2
100
AcDbEntity
  8
DV1_Default
  6
Continuous
 62
     7
100
AcDbLine
 10
328.1767629758
 20
473.0555402295
 30
0.0
 11
328.8009731251
 21
473.0555402295
 31
0.0
  0
LINE
  5
FE
330
A2
100
AcDbEntity
  8
DV1_Default
  6
Continuous
 62
     7
100
AcDbLine
 10
328.8009731251
 20
473.0555402295
 30
0.0
 11
328.8010268071
 21
473.0555402295
 31
0.0
  0
LINE
  5
FF
330
A2
100
AcDbEntity
  8
DV1_Default
  6
Continuous
 62
     7
100
AcDbLine
 10
328.8010268071
 20
473.0555402295
 30
0.0
 11
329.7305498004
 21
473.0555402295
 31
0.0
  0
LINE
  5
100
330
A2
100
AcDbEntity
  8
DV1_Default
  6
Continuous
 62
     7
100
AcDbLine
 10
329.7305498004
 20
473.0555402295
 30
0.0
 11
329.7306236038
 21
473.0555402295
 31
0.0
  0
LINE
  5
101
330
A2
100
AcDbEntity
  8
DV1_Default
  6
Continuous
 62
     7
100
AcDbLine
 10
329.7306236038
 20
473.0555402295
 30
0.0
 11
330.9372163552
 21
473.0555402295
 31
0.0
  0
LINE
  5
102
330
A2
100
AcDbEntity
  8
DV1_Default
  6
Continuous
 62
     7
100
AcDbLine
 10
330.9372163552
 20
473.0555402295
 30
0.0
 11
330.9373080376
 21
473.0555402295
 31
0.0
  0
LINE
  5
103
330
A2
100
AcDbEntity
  8
DV1_Default
  6
Continuous
 62
     7
100
AcDbLine
 10
330.9373080376
 20
473.0555402295
 30
0.0
 11
332.2897377396
 21
473.0555402295
 31
0.0
  0
LINE
  5
104
330
A2
100
AcDbEntity
  8
DV1_Default
  6
Continuous
 62
     7
100
AcDbLine
 10
332.2897377396
 20
473.0555402295
 30
0.0
 11
332.384308837
 21
473.0555402295
 31
0.0
  0
LINE
  5
105
330
A2
100
AcDbEntity
  8
DV1_Default
  6
Continuous
 62
     7
100
AcDbLine
 10
332.384308837
 20
473.0555402295
 30
0.0
 11
332.3844156128
 21
473.0555402295
 31
0.0
  0
LINE
  5
106
330
A2
100
AcDbEntity
  8
DV1_Default
  6
Continuous
 62
     7
100
AcDbLine
 10
332.3844156128
 20
473.0555402295
 30
0.0
 11
333.6998767699
 21
473.0555402295
 31
0.0
  0
LINE
  5
107
330
A2
100
AcDbEntity
  8
DV1_Default
  6
Continuous
 62
     7
100
AcDbLine
 10
333.6998767699
 20
473.0555402295
 30
0.0
 11
334.0278580731
 21
473.0555402295
 31
0.0
  0
LINE
  5
108
330
A2
100
AcDbEntity
  8
DV1_Default
  6
Continuous
 62
     7
100
AcDbLine
 10
334.0278580731
 20
473.0555402295
 30
0.0
 11
334.0279766977
 21
473.0555402295
 31
0.0
  0
LINE
  5
109
330
A2
100
AcDbEntity
  8
DV1_Default
  6
Continuous
 62
     7
100
AcDbLine
 10
334.0279766977
 20
473.0555402295
 30
0.0
 11
335.2664996885
 21
473.0555402295
 31
0.0
  0
LINE
  5
10A
330
A2
100
AcDbEntity
  8
DV1_Default
  6
Continuous
 62
     7
100
AcDbLine
 10
335.2664996885
 20
473.0555402295
 30
0.0
 11
335.8179256514
 21
473.0555402295
 31
0.0
  0
LINE
  5
10B
330
A2
100
AcDbEntity
  8
DV1_Default
  6
Continuous
 62
     7
100
AcDbLine
 10
335.8179256514
 20
473.0555402295
 30
0.0
 11
335.8180525207
 21
473.0555402295
 31
0.0
  0
LINE
  5
10C
330
A2
100
AcDbEntity
  8
DV1_Default
  6
Continuous
 62
     7
100
AcDbLine
 10
335.8180525207
 20
473.0555402295
 30
0.0
 11
336.9420054507
 21
473.0555402295
 31
0.0
  0
LINE
  5
10D
330
A2
100
AcDbEntity
  8
DV1_Default
  6
Continuous
 62
     7
100
AcDbLine
 10
336.9420054507
 20
473.0555402295
 30
0.0
 11
337.7001212746
 21
473.0555402295
 31
0.0
  0
LINE
  5
10E
330
A2
100
AcDbEntity
  8
DV1_Default
  6
Continuous
 62
     7
100
AcDbLine
 10
337.7001212746
 20
473.0555402295
 30
0.0
 11
337.7002525336
 21
473.0555402295
 31
0.0
  0
LINE
  5
10F
330
A2
100
AcDbEntity
  8
DV1_Default
  6
Continuous
 62
     7
100
AcDbLine
 10
337.7002525336
 20
473.0555402295
 30
0.0
 11
338.7978691615
 21
473.0555402295
 31
0.0
  0
LINE
  5
110
330
A2
100
AcDbEntity
  8
DV1_Default
  6
Continuous
 62
     7
100
AcDbLine
 10
341.9526029067
 20
473.0555402295
 30
0.0
 11
343.324042788
 21
473.0555402295
 31
0.0
  0
LINE
  5
111
330
A2
100
AcDbEntity
  8
DV1_Default
  6
Continuous
 62
     7
100
AcDbLine
 10
343.324042788
 20
473.0555402295
 30
0.0
 11
343.3241633595
 21
473.0555402295
 31
0.0
  0
LINE
  5
112
330
A2
100
AcDbEntity
  8
DV1_Default
  6
Continuous
 62
     7
100
AcDbLine
 10
343.3241633595
 20
473.0555402295
 30
0.0
 11
343.6978537977
 21
473.0555402295
 31
0.0
  0
LINE
  5
113
330
A2
100
AcDbEntity
  8
DV1_Default
  6
Continuous
 62
     7
100
AcDbLine
 10
343.6978537977
 20
473.0555402295
 30
0.0
 11
345.001067229
 21
473.0555402295
 31
0.0
  0
LINE
  5
114
330
A2
100
AcDbEntity
  8
DV1_Default
  6
Continuous
 62
     7
100
AcDbLine
 10
345.001067229
 20
473.0555402295
 30
0.0
 11
345.0011766471
 21
473.0555402295
 31
0.0
  0
LINE
  5
115
330
A2
100
AcDbEntity
  8
DV1_Default
  6
Continuous
 62
     7
100
AcDbLine
 10
345.0011766471
 20
473.0555402295
 30
0.0
 11
345.1428892503
 21
473.0555402295
 31
0.0
  0
LINE
  5
116
330
A2
100
AcDbEntity
  8
DV1_Default
  6
Continuous
 62
     7
100
AcDbLine
 10
345.1428892503
 20
473.0555402295
 30
0.0
 11
346.4911946049
 21
473.0555402295
 31
0.0
  0
LINE
  5
117
330
A2
100
AcDbEntity
  8
DV1_Default
  6
Continuous
 62
     7
100
AcDbLine
 10
346.4911946049
 20
473.0555402295
 30
0.0
 11
346.4912895449
 21
473.0555402295
 31
0.0
  0
LINE
  5
118
330
A2
100
AcDbEntity
  8
DV1_Default
  6
Continuous
 62
     7
100
AcDbLine
 10
346.4912895449
 20
473.0555402295
 30
0.0
 11
347.7491481494
 21
473.0555402295
 31
0.0
  0
LINE
  5
119
330
A2
100
AcDbEntity
  8
DV1_Default
  6
Continuous
 62
     7
100
AcDbLine
 10
347.7491481494
 20
473.0555402295
 30
0.0
 11
347.7492257265
 21
473.0555402295
 31
0.0
  0
LINE
  5
11A
330
A2
100
AcDbEntity
  8
DV1_Default
  6
Continuous
 62
     7
100
AcDbLine
 10
347.7492257265
 20
473.0555402295
 30
0.0
 11
348.7367055806
 21
473.0555402295
 31
0.0
  0
LINE
  5
11B
330
A2
100
AcDbEntity
  8
DV1_Default
  6
Continuous
 62
     7
100
AcDbLine
 10
341.9526029067
 20
473.0555402295
 30
0.0
 11
338.7978691615
 21
473.0555402295
 31
0.0
  0
LINE
  5
11C
330
A2
100
AcDbEntity
  8
DV1_Default
  6
Continuous
 62
     7
100
AcDbLine
 10
341.9526029067
 20
462.6355402295
 30
0.0
 11
341.9526029067
 21
473.0555402295
 31
0.0
  0
LINE
  5
11D
330
A2
100
AcDbEntity
  8
DV1_Default
  6
Continuous
 62
     7
100
AcDbLine
 10
338.7978691615
 20
462.6355402295
 30
0.0
 11
338.7978691615
 21
473.0555402295
 31
0.0
  0
LINE
  5
11E
330
A2
100
AcDbEntity
  8
DV1_Default
  6
Continuous
 62
     7
100
AcDbLine
 10
327.876790844
 20
462.6355402295
 30
0.0
 11
327.876790844
 21
473.0555402295
 31
0.0
  0
LINE
  5
11F
330
A2
100
AcDbEntity
  8
DV1_Default
  6
Continuous
 62
     7
100
AcDbLine
 10
349.7897477468
 20
462.6355402295
 30
0.0
 11
349.7897477468
 21
473.0555402295
 31
0.0
  0
LINE
  5
120
330
A2
100
AcDbEntity
  8
DV1_Default
  6
Continuous
 62
     7
100
AcDbLine
 10
349.823209156
 20
462.6355402295
 30
0.0
 11
349.823209156
 21
473.0555402295
 31
0.0
  0
LINE
  5
121
330
A2
100
AcDbEntity
  8
DV1_Default
  6
Continuous
 62
     7
100
AcDbLine
 10
349.4238968447
 20
462.6355402295
 30
0.0
 11
349.4238968447
 21
473.0555402295
 31
0.0
  0
LINE
  5
122
330
A2
100
AcDbEntity
  8
DV1_Default
  6
Continuous
 62
     7
100
AcDbLine
 10
349.7897339509
 20
462.6355402295
 30
0.0
 11
349.7897339509
 21
473.0555402295
 31
0.0
  0
LINE
  5
123
330
A2
100
AcDbEntity
  8
DV1_Default
  6
Continuous
 62
     7
100
AcDbLine
 10
348.7367634377
 20
462.6355402295
 30
0.0
 11
348.7367634377
 21
473.0555402295
 31
0.0
  0
LINE
  5
124
330
A2
100
AcDbEntity
  8
DV1_Default
  6
Continuous
 62
     7
100
AcDbLine
 10
349.4238604655
 20
462.6355402295
 30
0.0
 11
349.4238604655
 21
473.0555402295
 31
0.0
  0
LINE
  5
125
330
A2
100
AcDbEntity
  8
DV1_Default
  6
Continuous
 62
     7
100
AcDbLine
 10
347.7492257265
 20
462.6355402295
 30
0.0
 11
347.7492257265
 21
473.0555402295
 31
0.0
  0
LINE
  5
126
330
A2
100
AcDbEntity
  8
DV1_Default
  6
Continuous
 62
     7
100
AcDbLine
 10
348.7367055806
 20
462.6355402295
 30
0.0
 11
348.7367055806
 21
473.0555402295
 31
0.0
  0
LINE
  5
127
330
A2
100
AcDbEntity
  8
DV1_Default
  6
Continuous
 62
     7
100
AcDbLine
 10
346.4912895449
 20
462.6355402295
 30
0.0
 11
346.4912895449
 21
473.0555402295
 31
0.0
  0
LINE
  5
128
330
A2
100
AcDbEntity
  8
DV1_Default
  6
Continuous
 62
     7
100
AcDbLine
 10
347.7491481494
 20
462.6355402295
 30
0.0
 11
347.7491481494
 21
473.0555402295
 31
0.0
  0
LINE
  5
129
330
A2
100
AcDbEntity
  8
DV1_Default
  6
Continuous
 62
     7
100
AcDbLine
 10
345.0011766471
 20
462.6355402295
 30
0.0
 11
345.0011766471
 21
473.0555402295
 31
0.0
  0
LINE
  5
12A
330
A2
100
AcDbEntity
  8
DV1_Default
  6
Continuous
 62
     7
100
AcDbLine
 10
345.1428892503
 20
462.6355402295
 30
0.0
 11
345.1428892503
 21
473.0555402295
 31
0.0
  0
LINE
  5
12B
330
A2
100
AcDbEntity
  8
DV1_Default
  6
Continuous
 62
     7
100
AcDbLine
 10
346.4911946049
 20
462.6355402295
 30
0.0
 11
346.4911946049
 21
473.0555402295
 31
0.0
  0
LINE
  5
12C
330
A2
100
AcDbEntity
  8
DV1_Default
  6
Continuous
 62
     7
100
AcDbLine
 10
343.3241633595
 20
462.6355402295
 30
0.0
 11
343.3241633595
 21
473.0555402295
 31
0.0
  0
LINE
  5
12D
330
A2
100
AcDbEntity
  8
DV1_Default
  6
Continuous
 62
     7
100
AcDbLine
 10
343.6978537977
 20
462.6355402295
 30
0.0
 11
343.6978537977
 21
473.0555402295
 31
0.0
  0
LINE
  5
12E
330
A2
100
AcDbEntity
  8
DV1_Default
  6
Continuous
 62
     7
100
AcDbLine
 10
345.001067229
 20
462.6355402295
 30
0.0
 11
345.001067229
 21
473.0555402295
 31
0.0
  0
LINE
  5
12F
330
A2
100
AcDbEntity
  8
DV1_Default
  6
Continuous
 62
     7
100
AcDbLine
 10
343.324042788
 20
462.6355402295
 30
0.0
 11
343.324042788
 21
473.0555402295
 31
0.0
  0
LINE
  5
130
330
A2
100
AcDbEntity
  8
DV1_Default
  6
Continuous
 62
     7
100
AcDbLine
 10
337.7002525336
 20
462.6355402295
 30
0.0
 11
337.7002525336
 21
473.0555402295
 31
0.0
  0
LINE
  5
131
330
A2
100
AcDbEntity
  8
DV1_Default
  6
Continuous
 62
     7
100
AcDbLine
 10
335.8180525207
 20
462.6355402295
 30
0.0
 11
335.8180525207
 21
473.0555402295
 31
0.0
  0
LINE
  5
132
330
A2
100
AcDbEntity
  8
DV1_Default
  6
Continuous
 62
     7
100
AcDbLine
 10
336.9420054507
 20
462.6355402295
 30
0.0
 11
336.9420054507
 21
473.0555402295
 31
0.0
  0
LINE
  5
133
330
A2
100
AcDbEntity
  8
DV1_Default
  6
Continuous
 62
     7
100
AcDbLine
 10
337.7001212746
 20
462.6355402295
 30
0.0
 11
337.7001212746
 21
473.0555402295
 31
0.0
  0
LINE
  5
134
330
A2
100
AcDbEntity
  8
DV1_Default
  6
Continuous
 62
     7
100
AcDbLine
 10
334.0279766977
 20
462.6355402295
 30
0.0
 11
334.0279766977
 21
473.0555402295
 31
0.0
  0
LINE
  5
135
330
A2
100
AcDbEntity
  8
DV1_Default
  6
Continuous
 62
     7
100
AcDbLine
 10
335.2664996885
 20
462.6355402295
 30
0.0
 11
335.2664996885
 21
473.0555402295
 31
0.0
  0
LINE
  5
136
330
A2
100
AcDbEntity
  8
DV1_Default
  6
Continuous
 62
     7
100
AcDbLine
 10
335.8179256514
 20
462.6355402295
 30
0.0
 11
335.8179256514
 21
473.0555402295
 31
0.0
  0
LINE
  5
137
330
A2
100
AcDbEntity
  8
DV1_Default
  6
Continuous
 62
     7
100
AcDbLine
 10
332.3844156128
 20
462.6355402295
 30
0.0
 11
332.3844156128
 21
473.0555402295
 31
0.0
  0
LINE
  5
138
330
A2
100
AcDbEntity
  8
DV1_Default
  6
Continuous
 62
     7
100
AcDbLine
 10
333.6998767699
 20
462.6355402295
 30
0.0
 11
333.6998767699
 21
473.0555402295
 31
0.0
  0
LINE
  5
139
330
A2
100
AcDbEntity
  8
DV1_Default
  6
Continuous
 62
     7
100
AcDbLine
 10
334.0278580731
 20
462.6355402295
 30
0.0
 11
334.0278580731
 21
473.0555402295
 31
0.0
  0
LINE
  5
13A
330
A2
100
AcDbEntity
  8
DV1_Default
  6
Continuous
 62
     7
100
AcDbLine
 10
330.9373080376
 20
462.6355402295
 30
0.0
 11
330.9373080376
 21
473.0555402295
 31
0.0
  0
LINE
  5
13B
330
A2
100
AcDbEntity
  8
DV1_Default
  6
Continuous
 62
     7
100
AcDbLine
 10
332.2897377396
 20
462.6355402295
 30
0.0
 11
332.2897377396
 21
473.0555402295
 31
0.0
  0
LINE
  5
13C
330
A2
100
AcDbEntity
  8
DV1_Default
  6
Continuous
 62
     7
100
AcDbLine
 10
332.384308837
 20
462.6355402295
 30
0.0
 11
332.384308837
 21
473.0555402295
 31
0.0
  0
LINE
  5
13D
330
A2
100
AcDbEntity
  8
DV1_Default
  6
Continuous
 62
     7
100
AcDbLine
 10
329.7306236038
 20
462.6355402295
 30
0.0
 11
329.7306236038
 21
473.0555402295
 31
0.0
  0
LINE
  5
13E
330
A2
100
AcDbEntity
  8
DV1_Default
  6
Continuous
 62
     7
100
AcDbLine
 10
330.9372163552
 20
462.6355402295
 30
0.0
 11
330.9372163552
 21
473.0555402295
 31
0.0
  0
LINE
  5
13F
330
A2
100
AcDbEntity
  8
DV1_Default
  6
Continuous
 62
     7
100
AcDbLine
 10
328.8010268071
 20
462.6355402295
 30
0.0
 11
328.8010268071
 21
473.0555402295
 31
0.0
  0
LINE
  5
140
330
A2
100
AcDbEntity
  8
DV1_Default
  6
Continuous
 62
     7
100
AcDbLine
 10
329.7305498004
 20
462.6355402295
 30
0.0
 11
329.7305498004
 21
473.0555402295
 31
0.0
  0
LINE
  5
141
330
A2
100
AcDbEntity
  8
DV1_Default
  6
Continuous
 62
     7
100
AcDbLine
 10
328.1767629758
 20
462.6355402295
 30
0.0
 11
328.1767629758
 21
473.0555402295
 31
0.0
  0
LINE
  5
142
330
A2
100
AcDbEntity
  8
DV1_Default
  6
Continuous
 62
     7
100
AcDbLine
 10
328.8009731251
 20
462.6355402295
 30
0.0
 11
328.8009731251
 21
473.0555402295
 31
0.0
  0
LINE
  5
143
330
A2
100
AcDbEntity
  8
DV1_Default
  6
Continuous
 62
     7
100
AcDbLine
 10
327.8768000506
 20
462.6355402295
 30
0.0
 11
327.8768000506
 21
473.0555402295
 31
0.0
  0
LINE
  5
144
330
A2
100
AcDbEntity
  8
DV1_Default
  6
Continuous
 62
     7
100
AcDbLine
 10
328.1767310465
 20
462.6355402295
 30
0.0
 11
328.1767310465
 21
473.0555402295
 31
0.0
  0
LINE
  5
145
330
A2
100
AcDbEntity
  8
DV1_Default
  6
Continuous
 62
     7
100
AcDbLine
 10
200.2778418338
 20
599.5919162213
 30
0.0
 11
200.2778418338
 21
598.8102354708
 31
0.0
  0
ELLIPSE
  5
146
330
A2
100
AcDbEntity
  8
DV1_Default
  6
Continuous
 62
     7
100
AcDbEllipse
 10
188.85
 20
600.5263376828
 30
0.0
 11
11.95000000000036
 21
-1.110223024625157E-13
 31
0.0
210
0.0
220
0.0
230
1.0
 40
0.1218693434
 41
-1.104489811884598
 42
-0.9063776801281991
  0
LINE
  5
147
330
A2
100
AcDbEntity
  8
DV1_Default
  6
Continuous
 62
     7
100
AcDbLine
 10
191.5381650994
 20
599.0363331197
 30
0.0
 11
191.5381650994
 21
597.8170148971
 31
0.0
  0
LINE
  5
148
330
A2
100
AcDbEntity
  8
DV1_Default
  6
Continuous
 62
     7
100
AcDbLine
 10
186.1618349006
 20
599.0363331197
 30
0.0
 11
186.1618349006
 21
597.8170148971
 31
0.0
  0
ELLIPSE
  5
149
330
A2
100
AcDbEntity
  8
DV1_Default
  6
Continuous
 62
     7
100
AcDbEllipse
 10
188.85
 20
600.5263376828
 30
0.0
 11
-11.95000000000005
 21
-8.326672684688674E-14
 31
0.0
210
0.0
220
0.0
230
1.0
 40
0.1218693434
 41
0.9063776801281938
 42
1.104489811884606
  0
LINE
  5
14A
330
A2
100
AcDbEntity
  8
DV1_Default
  6
Continuous
 62
     7
100
AcDbLine
 10
177.4221581662
 20
599.5919162213
 30
0.0
 11
177.4221581662
 21
598.8102354708
 31
0.0
  0
ELLIPSE
  5
14B
330
A2
100
AcDbEntity
  8
DV1_Default
  6
Continuous
 62
     7
100
AcDbEllipse
 10
200.0865808826
 20
599.6546936711
 30
0.0
 11
0.07405652895304225
 21
0.1857838273893186
 31
0.0
210
0.0
220
0.0
230
1.0
 40
0.9491766053
 41
3.539187049084893
 42
4.770197903882677
  0
LINE
  5
14C
330
A2
100
AcDbEntity
  8
DV1_Default
  6
Continuous
 62
     7
100
AcDbLine
 10
200.0865808826
 20
599.4561844407
 30
0.0
 11
198.6760313675
 21
599.4036284979
 31
0.0
  0
ELLIPSE
  5
14D
330
A2
100
AcDbEntity
  8
DV1_Default
  6
Continuous
 62
     7
100
AcDbEllipse
 10
191.4931748885
 20
600.6312913063
 30
0.0
 11
0.005624925011040936
 21
0.1999208848985357
 31
0.0
210
0.0
220
0.0
230
1.0
 40
0.2232743033
 41
3.266946217791205
 42
4.006691680758843
  0
LINE
  5
14E
330
A2
100
AcDbEntity
  8
DV1_Default
  6
Continuous
 62
     7
100
AcDbLine
 10
191.4931748885
 20
600.432782076
 30
0.0
 11
191.1613720834
 21
600.2576319619
 31
0.0
  0
ELLIPSE
  5
14F
330
A2
100
AcDbEntity
  8
DV1_Default
  6
Continuous
 62
     7
100
AcDbEllipse
 10
180.256594006
 20
600.2126253209
 30
0.0
 11
-0.02591738217405139
 21
0.1983136135045582
 31
0.0
210
0.0
220
0.0
230
1.0
 40
0.725902302
 41
2.098128477141958
 42
2.963464413370621
  0
ELLIPSE
  5
150
330
A2
100
AcDbEntity
  8
DV1_Default
  6
Continuous
 62
     7
100
AcDbEllipse
 10
177.6134191174
 20
599.6546936711
 30
0.0
 11
0.07405652895317062
 21
-0.1857838273892909
 31
0.0
210
0.0
220
0.0
230
1.0
 40
0.9491766053
 41
4.65458005686817
 42
5.885590911683477
  0
ELLIPSE
  5
151
330
A2
100
AcDbEntity
  8
DV1_Default
  6
Continuous
 62
     7
100
AcDbEllipse
 10
188.85
 20
599.0375184554
 30
0.0
 11
-11.75000000000177
 21
1.387778780781446E-13
 31
0.0
210
0.0
220
0.0
230
1.0
 40
0.1218693434
 41
-0.7504915783575186
 42
-0.296705972839046
  0
ELLIPSE
  5
152
330
A2
100
AcDbEntity
  8
DV1_Default
  6
Continuous
 62
     7
100
AcDbEllipse
 10
181.3353407159
 20
600.0900311497
 30
0.0
 11
-0.02591738217405659
 21
0.1983136135046137
 31
0.0
210
0.0
220
0.0
230
1.0
 40
0.725902302
 41
2.963464413368251
 42
4.534260740166992
  0
LINE
  5
153
330
A2
100
AcDbEntity
  8
DV1_Default
  6
Continuous
 62
     7
100
AcDbLine
 10
181.4816114562
 20
600.2377731272
 30
0.0
 11
181.4816114562
 21
600.0734082112
 31
0.0
  0
LINE
  5
154
330
A2
100
AcDbEntity
  8
DV1_Default
  6
Continuous
 62
     7
100
AcDbLine
 10
180.256594006
 20
600.0141160906
 30
0.0
 11
181.3353407159
 21
599.8915219194
 31
0.0
  0
ELLIPSE
  5
155
330
A2
100
AcDbEntity
  8
DV1_Default
  6
Continuous
 62
     7
100
AcDbEllipse
 10
197.443405994
 20
600.2126253209
 30
0.0
 11
-0.02591738217403057
 21
-0.198313613504586
 31
0.0
210
0.0
220
0.0
230
1.0
 40
0.725902302
 41
0.178128240220186
 42
1.043464176486506
  0
ELLIPSE
  5
156
330
A2
100
AcDbEntity
  8
DV1_Default
  6
Continuous
 62
     7
100
AcDbEllipse
 10
188.85
 20
599.0375184554
 30
0.0
 11
11.7500000000011
 21
1.387778780781446E-13
 31
0.0
210
0.0
220
0.0
230
1.0
 40
0.1218693434
 41
0.2967059728390158
 42
0.7504915783575212
  0
LINE
  5
157
330
A2
100
AcDbEntity
  8
DV1_Default
  6
Continuous
 62
     7
100
AcDbLine
 10
186.5386279166
 20
600.2576319619
 30
0.0
 11
186.2068251115
 21
600.432782076
 31
0.0
  0
ELLIPSE
  5
158
330
A2
100
AcDbEntity
  8
DV1_Default
  6
Continuous
 62
     7
100
AcDbEllipse
 10
186.2068251115
 20
600.6312913063
 30
0.0
 11
0.005624925011043971
 21
-0.1999208848985634
 31
0.0
210
0.0
220
0.0
230
1.0
 40
0.2232743033
 41
5.418086280349174
 42
6.157831742977002
  0
LINE
  5
159
330
A2
100
AcDbEntity
  8
DV1_Default
  6
Continuous
 62
     7
100
AcDbLine
 10
179.0239686325
 20
599.4036284979
 30
0.0
 11
177.6134191174
 21
599.4561844407
 31
0.0
  0
ELLIPSE
  5
15A
330
A2
100
AcDbEntity
  8
DV1_Default
  6
Continuous
 62
     7
100
AcDbEllipse
 10
196.3646592841
 20
600.0900311497
 30
0.0
 11
0.02591738217404446
 21
0.198313613504586
 31
0.0
210
0.0
220
0.0
230
1.0
 40
0.725902302
 41
1.748924567012589
 42
3.319720893809976
  0
LINE
  5
15B
330
A2
100
AcDbEntity
  8
DV1_Default
  6
Continuous
 62
     7
100
AcDbLine
 10
196.3646592841
 20
599.8915219194
 30
0.0
 11
197.443405994
 21
600.0141160906
 31
0.0
  0
LINE
  5
15C
330
A2
100
AcDbEntity
  8
DV1_Default
  6
Continuous
 62
     7
100
AcDbLine
 10
196.2183885438
 20
600.2377731272
 30
0.0
 11
196.2183885438
 21
600.0734082112
 31
0.0
  0
ELLIPSE
  5
15D
330
A2
100
AcDbEntity
  8
DV1_Default
  6
Continuous
 62
     7
100
AcDbEllipse
 10
188.85
 20
599.0375184554
 30
0.0
 11
11.74999999999969
 21
0.0
 31
0.0
210
0.0
220
0.0
230
1.0
 40
0.1218693434
 41
1.343903524035625
 42
1.797689129554151
  0
ELLIPSE
  5
15E
330
A2
100
AcDbEntity
  8
DV1_Default
  6
Continuous
 62
     7
100
AcDbEllipse
 10
186.5386279166
 20
598.0159141792
 30
0.0
 11
-0.005624925011045273
 21
-0.1999208848985357
 31
0.0
210
0.0
220
0.0
230
1.0
 40
0.2232743033
 41
0.1253535642059687
 42
1.696149890999062
  0
LINE
  5
15F
330
A2
100
AcDbEntity
  8
DV1_Default
  6
Continuous
 62
     7
100
AcDbLine
 10
186.5836181275
 20
599.0200364049
 30
0.0
 11
186.5836181275
 21
598.0396633472
 31
0.0
  0
ELLIPSE
  5
160
330
A2
100
AcDbEntity
  8
DV1_Default
  6
Continuous
 62
     7
100
AcDbEllipse
 10
186.2068251115
 20
597.8407640651
 30
0.0
 11
0.005624925011042237
 21
0.1999208848985634
 31
0.0
210
0.0
220
0.0
230
1.0
 40
0.2232743033
 41
1.696149890999041
 42
3.266946217796917
  0
LINE
  5
161
330
A2
100
AcDbEntity
  8
DV1_Default
  6
Continuous
 62
     7
100
AcDbLine
 10
186.2068251115
 20
597.6422548348
 30
0.0
 11
186.5386279166
 21
597.8174049488
 31
0.0
  0
ELLIPSE
  5
162
330
A2
100
AcDbEntity
  8
DV1_Default
  6
Continuous
 62
     7
100
AcDbEllipse
 10
200.0865808826
 20
598.8173617003
 30
0.0
 11
-0.07405652895317062
 21
0.1857838273892631
 31
0.0
210
0.0
220
0.0
230
1.0
 40
0.9491766053
 41
2.74399825809285
 42
4.314794584888419
  0
ELLIPSE
  5
163
330
A2
100
AcDbEntity
  8
DV1_Default
  6
Continuous
 62
     7
100
AcDbEllipse
 10
188.85
 20
599.0375184554
 30
0.0
 11
11.75000000000024
 21
-5.551115123125783E-14
 31
0.0
210
0.0
220
0.0
230
1.0
 40
0.1218693434
 41
-0.750491578357547
 42
-0.2967059728390344
  0
ELLIPSE
  5
164
330
A2
100
AcDbEntity
  8
DV1_Default
  6
Continuous
 62
     7
100
AcDbEllipse
 10
177.6134191174
 20
598.8173617003
 30
0.0
 11
0.07405652895316542
 21
0.1857838273892631
 31
0.0
210
0.0
220
0.0
230
1.0
 40
0.9491766053
 41
1.968390722291779
 42
3.53918704908669
  0
ELLIPSE
  5
165
330
A2
100
AcDbEntity
  8
DV1_Default
  6
Continuous
 62
     7
100
AcDbEllipse
 10
188.85
 20
599.0375184554
 30
0.0
 11
-11.7500000000001
 21
-5.551115123125783E-14
 31
0.0
210
0.0
220
0.0
230
1.0
 40
0.1218693434
 41
0.2967059728390176
 42
0.7504915783575404
  0
ELLIPSE
  5
166
330
A2
100
AcDbEntity
  8
DV1_Default
  6
Continuous
 62
     7
100
AcDbEllipse
 10
196.3646592841
 20
598.3820242217
 30
0.0
 11
0.02591738217400975
 21
-0.1983136135046137
 31
0.0
210
0.0
220
0.0
230
1.0
 40
0.725902302
 41
4.534260740166564
 42
6.105057066961666
  0
LINE
  5
167
330
A2
100
AcDbEntity
  8
DV1_Default
  6
Continuous
 62
     7
100
AcDbLine
 10
196.2183885438
 20
599.5419302959
 30
0.0
 11
196.2183885438
 21
598.3986471602
 31
0.0
  0
LINE
  5
168
330
A2
100
AcDbEntity
  8
DV1_Default
  6
Continuous
 62
     7
100
AcDbLine
 10
197.443405994
 20
598.0609208201
 30
0.0
 11
196.3646592841
 21
598.1835149914
 31
0.0
  0
ELLIPSE
  5
169
330
A2
100
AcDbEntity
  8
DV1_Default
  6
Continuous
 62
     7
100
AcDbEllipse
 10
198.6760313675
 20
598.8699176432
 30
0.0
 11
-0.07405652895300929
 21
0.1857838273893464
 31
0.0
210
0.0
220
0.0
230
1.0
 40
0.9491766053
 41
1.17320193129952
 42
2.743998258093362
  0
LINE
  5
16A
330
A2
100
AcDbEntity
  8
DV1_Default
  6
Continuous
 62
     7
100
AcDbLine
 10
198.6760313675
 20
598.6714084128
 30
0.0
 11
200.0865808826
 21
598.61885247
 31
0.0
  0
LINE
  5
16B
330
A2
100
AcDbEntity
  8
DV1_Default
  6
Continuous
 62
     7
100
AcDbLine
 10
198.4847704163
 20
599.4726248504
 30
0.0
 11
198.4847704163
 21
598.8770438727
 31
0.0
  0
ELLIPSE
  5
16C
330
A2
100
AcDbEntity
  8
DV1_Default
  6
Continuous
 62
     7
100
AcDbEllipse
 10
179.0239686325
 20
598.8699176432
 30
0.0
 11
-0.0740565289534343
 21
-0.1857838273891521
 31
0.0
210
0.0
220
0.0
230
1.0
 40
0.9491766053
 41
0.3975943954979639
 42
1.968390722292537
  0
LINE
  5
16D
330
A2
100
AcDbEntity
  8
DV1_Default
  6
Continuous
 62
     7
100
AcDbLine
 10
179.2152295837
 20
599.4726248504
 30
0.0
 11
179.2152295837
 21
598.8770438727
 31
0.0
  0
LINE
  5
16E
330
A2
100
AcDbEntity
  8
DV1_Default
  6
Continuous
 62
     7
100
AcDbLine
 10
177.6134191174
 20
598.61885247
 30
0.0
 11
179.0239686325
 21
598.6714084128
 31
0.0
  0
ELLIPSE
  5
16F
330
A2
100
AcDbEntity
  8
DV1_Default
  6
Continuous
 62
     7
100
AcDbEllipse
 10
191.1613720834
 20
598.0159141792
 30
0.0
 11
-0.005624925011039634
 21
0.1999208848985357
 31
0.0
210
0.0
220
0.0
230
1.0
 40
0.2232743033
 41
1.445442762590164
 42
3.016239089383837
  0
LINE
  5
170
330
A2
100
AcDbEntity
  8
DV1_Default
  6
Continuous
 62
     7
100
AcDbLine
 10
191.1613720834
 20
597.8174049488
 30
0.0
 11
191.4931748885
 21
597.6422548348
 31
0.0
  0
ELLIPSE
  5
171
330
A2
100
AcDbEntity
  8
DV1_Default
  6
Continuous
 62
     7
100
AcDbEllipse
 10
191.4931748885
 20
597.8407640651
 30
0.0
 11
-0.005624925011038766
 21
0.1999208848985357
 31
0.0
210
0.0
220
0.0
230
1.0
 40
0.2232743033
 41
3.016239089383808
 42
4.587035416180531
  0
LINE
  5
172
330
A2
100
AcDbEntity
  8
DV1_Default
  6
Continuous
 62
     7
100
AcDbLine
 10
191.1163818725
 20
599.0200364049
 30
0.0
 11
191.1163818725
 21
598.0396633472
 31
0.0
  0
ELLIPSE
  5
173
330
A2
100
AcDbEntity
  8
DV1_Default
  6
Continuous
 62
     7
100
AcDbEllipse
 10
188.85
 20
599.0375184554
 30
0.0
 11
-11.74999999999981
 21
0.0
 31
0.0
210
0.0
220
0.0
230
1.0
 40
0.1218693434
 41
1.343903524035625
 42
1.797689129554158
  0
ELLIPSE
  5
174
330
A2
100
AcDbEntity
  8
DV1_Default
  6
Continuous
 62
     7
100
AcDbEllipse
 10
181.3353407159
 20
598.3820242217
 30
0.0
 11
0.02591738217404618
 21
0.1983136135046137
 31
0.0
210
0.0
220
0.0
230
1.0
 40
0.725902302
 41
3.319720893803339
 42
4.890517220602923
  0
LINE
  5
175
330
A2
100
AcDbEntity
  8
DV1_Default
  6
Continuous
 62
     7
100
AcDbLine
 10
181.3353407159
 20
598.1835149914
 30
0.0
 11
180.256594006
 21
598.0609208201
 31
0.0
  0
LINE
  5
176
330
A2
100
AcDbEntity
  8
DV1_Default
  6
Continuous
 62
     7
100
AcDbLine
 10
181.4816114562
 20
599.5419302959
 30
0.0
 11
181.4816114562
 21
598.3986471602
 31
0.0
  0
ELLIPSE
  5
177
330
A2
100
AcDbEntity
  8
DV1_Default
  6
Continuous
 62
     7
100
AcDbEllipse
 10
188.85
 20
599.0375184554
 30
0.0
 11
10.27499999999705
 21
-1.665334536937735E-13
 31
0.0
210
0.0
220
0.0
230
1.0
 40
0.1218693434
 41
0.2967059728390726
 42
0.7504915783576662
  0
ELLIPSE
  5
178
330
A2
100
AcDbEntity
  8
DV1_Default
  6
Continuous
 62
     7
100
AcDbEllipse
 10
188.85
 20
599.0375184554
 30
0.0
 11
-10.27500000000012
 21
-2.775557561562891E-14
 31
0.0
210
0.0
220
0.0
230
1.0
 40
0.1218693434
 41
4.485496177625418
 42
4.939281783143936
  0
ELLIPSE
  5
179
330
A2
100
AcDbEntity
  8
DV1_Default
  6
Continuous
 62
     7
100
AcDbEllipse
 10
188.85
 20
599.0375184554
 30
0.0
 11
-10.27500000000148
 21
-1.942890293094024E-13
 31
0.0
210
0.0
220
0.0
230
1.0
 40
0.1218693434
 41
-0.7504915783575257
 42
-0.2967059728390282
  0
ELLIPSE
  5
17A
330
A2
100
AcDbEntity
  8
DV1_Default
  6
Continuous
 62
     7
100
AcDbEllipse
 10
188.85
 20
599.0375184554
 30
0.0
 11
10.27500000000031
 21
0.0
 31
0.0
210
0.0
220
0.0
230
1.0
 40
0.1218693434
 41
4.485496177625436
 42
4.93928178314394
  0
ELLIPSE
  5
17B
330
A2
100
AcDbEntity
  8
DV1_Default
  6
Continuous
 62
     7
100
AcDbEllipse
 10
188.85
 20
599.0375184554
 30
0.0
 11
10.27499999999931
 21
3.330669073875470E-13
 31
0.0
210
0.0
220
0.0
230
1.0
 40
0.1218693434
 41
-0.7504915783576003
 42
-0.2967059728390575
  0
ELLIPSE
  5
17C
330
A2
100
AcDbEntity
  8
DV1_Default
  6
Continuous
 62
     7
100
AcDbEllipse
 10
188.85
 20
599.0375184554
 30
0.0
 11
-10.2750000000001
 21
-1.942890293094024E-13
 31
0.0
210
0.0
220
0.0
230
1.0
 40
0.1218693434
 41
0.2967059728390371
 42
0.7504915783575583
  0
ELLIPSE
  5
17D
330
A2
100
AcDbEntity
  8
DV1_Default
  6
Continuous
 62
     7
100
AcDbEllipse
 10
188.85
 20
599.9804372994
 30
0.0
 11
-8.199999999999999
 21
0.0
 31
0.0
210
0.0
220
0.0
230
1.0
 40
0.1218693434
 41
0.1704812032483263
 42
0.2795529718581843
  0
ELLIPSE
  5
17E
330
A2
100
AcDbEntity
  8
DV1_Default
  6
Continuous
 62
     7
100
AcDbEllipse
 10
188.85
 20
599.9804372994
 30
0.0
 11
-8.199999999999999
 21
0.0
 31
0.0
210
0.0
220
0.0
230
1.0
 40
0.1218693434
 41
0.279552971858184
 42
2.970458620819024
  0
ELLIPSE
  5
17F
330
A2
100
AcDbEntity
  8
DV1_Default
  6
Continuous
 62
     7
100
AcDbEllipse
 10
188.85
 20
599.9804372994
 30
0.0
 11
-8.024999999999993
 21
0.0
 31
0.0
210
0.0
220
0.0
230
1.0
 40
0.1218693434
 41
0.1510653634450598
 42
2.990527290144709
  0
ELLIPSE
  5
180
330
A2
100
AcDbEntity
  8
DV1_Default
  6
Continuous
 62
     7
100
AcDbEllipse
 10
188.85
 20
600.3180939359
 30
0.0
 11
-8.024999999999993
 21
0.0
 31
0.0
210
0.0
220
0.0
230
1.0
 40
0.1218693434
 41
-3.886679772172211
 42
-3.536276414365335
  0
ELLIPSE
  5
181
330
A2
100
AcDbEntity
  8
DV1_Default
  6
Continuous
 62
     7
100
AcDbEllipse
 10
188.85
 20
600.3180939359
 30
0.0
 11
-8.024999999999993
 21
0.0
 31
0.0
210
0.0
220
0.0
230
1.0
 40
0.1218693434
 41
0.3946837607757265
 42
0.7450871185824237
  0
LINE
  5
182
330
A2
100
AcDbEntity
  8
DV1_Default
  6
Continuous
 62
     7
100
AcDbLine
 10
196.0275688631
 20
600.2231547153
 30
0.0
 11
196.0276386422
 21
600.2320575065
 31
0.0
  0
SPLINE
  5
183
330
A2
100
AcDbEntity
  8
DV1_Default
  6
Continuous
 62
     7
100
AcDbSpline
210
0.0
220
0.0
230
1.0
 70
     8
 71
     3
 72
    20
 73
    16
 74
     0
 42
0.000000001
 43
0.0000000001
 40
0.0
 40
0.0
 40
0.0
 40
0.0
 40
0.211690999740161
 40
0.211690999740161
 40
0.211690999740161
 40
0.4231387791299948
 40
0.4231387791299948
 40
0.4231387791299948
 40
0.6382112052309014
 40
0.6382112052309014
 40
0.6382112052309014
 40
0.8554668264661254
 40
0.8554668264661254
 40
0.8554668264661254
 40
1.0
 40
1.0
 40
1.0
 40
1.0
 10
196.0275688631154
 20
600.2231547152788
 30
0.0
 10
196.0273537426697
 20
600.2094402834095
 30
0.0
 10
196.0254803793095
 20
600.1953313986025
 30
0.0
 10
196.0221889079174
 20
600.1820005974567
 30
0.0
 10
196.0188996144354
 20
600.168678617073
 30
0.0
 10
196.0141152396286
 20
600.1557678853235
 30
0.0
 10
196.0084062619898
 20
600.1442584344434
 30
0.0
 10
196.0026011469402
 20
600.1325551679844
 30
0.0
 10
195.9956895457514
 20
600.1219762822013
 30
0.0
 10
195.9884537197907
 20
600.1133479764043
 30
0.0
 10
195.9811499683424
 20
600.1046386733743
 30
0.0
 10
195.9733173142259
 20
600.0976747308846
 30
0.0
 10
195.9658125102434
 20
600.093068350245
 30
0.0
 10
195.9607787083201
 20
600.0899786482648
 30
0.0
 10
195.9558082172645
 20
600.0878846663118
 30
0.0
 10
195.9511251008399
 20
600.0868748041212
 30
0.0
  0
SPLINE
  5
184
330
A2
100
AcDbEntity
  8
DV1_Default
  6
Continuous
 62
     7
100
AcDbSpline
210
0.0
220
0.0
230
1.0
 70
    12
 71
     2
 72
     6
 73
     3
 74
     0
 42
0.000000001
 43
0.0000000001
 40
0.0
 40
0.0
 40
0.0
 40
1.0
 40
1.0
 40
1.0
 10
195.8761251008399
 20
600.0710435120186
 30
0.0
 41
1.0
 10
195.914222350827
 20
600.0789171347855
 30
0.0
 41
1.0
 10
195.95112510084
 20
600.0868748041212
 30
0.0
 41
1.0
  0
SPLINE
  5
185
330
A2
100
AcDbEntity
  8
DV1_Default
  6
Continuous
 62
     7
100
AcDbSpline
210
0.0
220
0.0
230
1.0
 70
    12
 71
     2
 72
     6
 73
     3
 74
     0
 42
0.000000001
 43
0.0000000001
 40
0.0
 40
0.0
 40
0.0
 40
1.0
 40
1.0
 40
1.0
 10
181.7488748991601
 20
600.0868748041212
 30
0.0
 41
1.0
 10
181.7857776491731
 20
600.0789171347853
 30
0.0
 41
1.0
 10
181.8238748991601
 20
600.0710435120186
 30
0.0
 41
1.0
  0
SPLINE
  5
186
330
A2
100
AcDbEntity
  8
DV1_Default
  6
Continuous
 62
     7
100
AcDbSpline
210
0.0
220
0.0
230
1.0
 70
     8
 71
     3
 72
    20
 73
    16
 74
     0
 42
0.000000001
 43
0.0000000001
 40
0.0
 40
0.0
 40
0.0
 40
0.0
 40
0.2098122845909539
 40
0.2098122845909539
 40
0.2098122845909539
 40
0.4193516318465694
 40
0.4193516318465694
 40
0.4193516318465694
 40
0.6330014409271217
 40
0.6330014409271217
 40
0.6330014409271217
 40
0.8504108339596562
 40
0.8504108339596562
 40
0.8504108339596562
 40
1.0
 40
1.0
 40
1.0
 40
1.0
 10
181.7488748991601
 20
600.0868748041212
 30
0.0
 10
181.7421283282883
 20
600.0883296274102
 30
0.0
 10
181.7347443172433
 20
600.0920738393382
 30
0.0
 10
181.7274234903919
 20
600.0977833686978
 30
0.0
 10
181.7201080502753
 20
600.1034886969306
 30
0.0
 10
181.7126654469786
 20
600.1113035846332
 30
0.0
 10
181.7058681410748
 20
600.1206073761981
 30
0.0
 10
181.6989390655718
 20
600.1300915269969
 30
0.0
 10
181.6925005718808
 20
600.1413811579304
 30
0.0
 10
181.6872854402013
 20
600.1536136398637
 30
0.0
 10
181.6819828353812
 20
600.1660512965997
 30
0.0
 10
181.6778086748439
 20
600.1798195509127
 30
0.0
 10
181.6753010073676
 20
600.1937812203975
 30
0.0
 10
181.6735624322609
 20
600.2034608973255
 30
0.0
 10
181.6725842370933
 20
600.2133942185412
 30
0.0
 10
181.6724311368835
 20
600.2231547152785
 30
0.0
  0
LINE
  5
187
330
A2
100
AcDbEntity
  8
DV1_Default
  6
Continuous
 62
     7
100
AcDbLine
 10
181.6723613578
 20
600.2320575065
 30
0.0
 11
181.6724311369
 21
600.2231547153
 31
0.0
  0
LINE
  5
188
330
A2
100
AcDbEntity
  8
DV1_Default
  6
Continuous
 62
     7
100
AcDbLine
 10
181.6723613578
 20
600.2548190831
 30
0.0
 11
181.6723613578
 21
600.2320575065
 31
0.0
  0
LINE
  5
189
330
A2
100
AcDbEntity
  8
DV1_Default
  6
Continuous
 62
     7
100
AcDbLine
 10
182.25
 20
600.1221346168
 30
0.0
 11
181.7488748992
 21
600.0868748041
 31
0.0
  0
LINE
  5
18A
330
A2
100
AcDbEntity
  8
DV1_Default
  6
Continuous
 62
     7
100
AcDbLine
 10
196.0276386422
 20
600.2320575065
 30
0.0
 11
196.0276386422
 21
600.2548190831
 31
0.0
  0
LINE
  5
18B
330
A2
100
AcDbEntity
  8
DV1_Default
  6
Continuous
 62
     7
100
AcDbLine
 10
195.9511251008
 20
600.0868748041
 30
0.0
 11
195.45
 21
600.1221346168
 31
0.0
  0
ELLIPSE
  5
18C
330
A2
100
AcDbEntity
  8
DV1_Default
  6
Continuous
 62
     7
100
AcDbEllipse
 10
188.85
 20
600.1045055684
 30
0.0
 11
6.599999999999999
 21
0.0
 31
0.0
210
0.0
220
0.0
230
1.0
 40
0.1218693434
 41
2.869335553437531
 42
3.192562464603973
  0
ELLIPSE
  5
18D
330
A2
100
AcDbEntity
  8
DV1_Default
  6
Continuous
 62
     7
100
AcDbEllipse
 10
188.85
 20
600.1045055684
 30
0.0
 11
6.599999999999999
 21
0.0
 31
0.0
210
0.0
220
0.0
230
1.0
 40
0.1218693434
 41
0.0
 42
0.2722571001522462
  0
ELLIPSE
  5
18E
330
A2
100
AcDbEntity
  8
DV1_Default
  6
Continuous
 62
     7
100
AcDbEllipse
 10
188.85
 20
599.9804372994
 30
0.0
 11
6.475
 21
0.0
 31
0.0
210
0.0
220
0.0
230
1.0
 40
0.1218693434
 41
0.0
 42
0.5167363257329199
  0
ELLIPSE
  5
18F
330
A2
100
AcDbEntity
  8
DV1_Default
  6
Continuous
 62
     7
100
AcDbEllipse
 10
188.85
 20
599.9804372994
 30
0.0
 11
6.475
 21
0.0
 31
0.0
210
0.0
220
0.0
230
1.0
 40
0.1218693434
 41
2.624856327856874
 42
6.283185307179586
  0
LINE
  5
190
330
A2
100
AcDbEntity
  8
DV1_Default
  6
Continuous
 62
     7
100
AcDbLine
 10
194.316563146
 20
600.3435432988
 30
0.0
 11
194.316563146
 21
600.3681717043
 31
0.0
  0
ELLIPSE
  5
191
330
A2
100
AcDbEntity
  8
DV1_Default
  6
Continuous
 62
     7
100
AcDbEllipse
 10
188.85
 20
600.1045055684
 30
0.0
 11
-4.462499999999999
 21
0.0
 31
0.0
210
0.0
220
0.0
230
1.0
 40
0.1218693434
 41
0.0
 42
3.141592653589793
  0
ELLIPSE
  5
192
330
A2
100
AcDbEntity
  8
DV1_Default
  6
Continuous
 62
     7
100
AcDbEllipse
 10
188.85
 20
600.1045055684
 30
0.0
 11
3.087499999999999
 21
0.0
 31
0.0
210
0.0
220
0.0
230
1.0
 40
0.1218693434
 41
2.48944442316718
 42
3.43077055352463
  0
ELLIPSE
  5
193
330
A2
100
AcDbEntity
  8
DV1_Default
  6
Continuous
 62
     7
100
AcDbEllipse
 10
188.85
 20
600.1045055684
 30
0.0
 11
3.087499999999999
 21
0.0
 31
0.0
210
0.0
220
0.0
230
1.0
 40
0.1218693434
 41
0.0
 42
0.6521482304224918
  0
ELLIPSE
  5
194
330
A2
100
AcDbEntity
  8
DV1_Default
  6
Continuous
 62
     7
100
AcDbEllipse
 10
188.85
 20
600.1045055684
 30
0.0
 11
4.8625
 21
0.0
 31
0.0
210
0.0
220
0.0
230
1.0
 40
0.1218693434
 41
2.502458741144259
 42
3.215312578923401
  0
ELLIPSE
  5
195
330
A2
100
AcDbEntity
  8
DV1_Default
  6
Continuous
 62
     7
100
AcDbEllipse
 10
188.85
 20
600.1045055684
 30
0.0
 11
4.8625
 21
0.0
 31
0.0
210
0.0
220
0.0
230
1.0
 40
0.1218693434
 41
0.0
 42
0.6231965554537205
  0
ELLIPSE
  5
196
330
A2
100
AcDbEntity
  8
DV1_Default
  6
Continuous
 62
     7
100
AcDbEllipse
 10
188.85
 20
600.1045055684
 30
0.0
 11
-6.199999999999998
 21
0.0
 31
0.0
210
0.0
220
0.0
230
1.0
 40
0.1218693434
 41
0.0
 42
3.141592653589793
  0
LINE
  5
197
330
A2
100
AcDbEntity
  8
DV1_Default
  6
Continuous
 62
     7
100
AcDbLine
 10
183.383436854
 20
600.3681717043
 30
0.0
 11
183.383436854
 21
600.3435432988
 31
0.0
  0
SPLINE
  5
198
330
A2
100
AcDbEntity
  8
DV1_Default
  6
Continuous
 62
     7
100
AcDbSpline
210
0.0
220
0.0
230
1.0
 70
     8
 71
     3
 72
    20
 73
    16
 74
     0
 42
0.000000001
 43
0.0000000001
 40
0.0
 40
0.0
 40
0.0
 40
0.0
 40
0.2148465279305046
 40
0.2148465279305046
 40
0.2148465279305046
 40
0.4296887908516291
 40
0.4296887908516291
 40
0.4296887908516291
 40
0.6445966468009131
 40
0.6445966468009131
 40
0.6445966468009131
 40
0.859584643736163
 40
0.859584643736163
 40
0.859584643736163
 40
1.0
 40
1.0
 40
1.0
 40
1.0
 10
194.3165631459995
 20
600.3435432988205
 30
0.0
 10
194.3165631459995
 20
600.329661608401
 30
0.0
 10
194.3154247205895
 20
600.3153288934891
 30
0.0
 10
194.3132356799905
 20
600.3017327043641
 30
0.0
 10
194.3110466638964
 20
600.2881366674395
 30
0.0
 10
194.3077461592365
 20
600.2749022690497
 30
0.0
 10
194.303590505843
 20
600.2631254572156
 30
0.0
 10
194.2994335910018
 20
600.2513450705328
 30
0.0
 10
194.2943054777872
 20
600.2406983638925
 30
0.0
 10
194.2886105006121
 20
600.232067289973
 30
0.0
 10
194.2829134659856
 20
600.2234330978648
 30
0.0
 10
194.2764911171068
 20
600.2165779464963
 30
0.0
 10
194.2698609985321
 20
600.2120707661321
 30
0.0
 10
194.2654952401984
 20
600.2091029066565
 30
0.0
 10
194.2609754526794
 20
600.2070926467184
 30
0.0
 10
194.2564646348249
 20
600.2061133145753
 30
0.0
  0
ELLIPSE
  5
199
330
A2
100
AcDbEntity
  8
DV1_Default
  6
Continuous
 62
     7
100
AcDbEllipse
 10
188.8499999957
 20
600.5759649908
 30
0.0
 11
6.200000004380974
 21
-3.500533196643119E-10
 31
0.0
210
0.0
220
0.0
230
1.0
 40
0.1218693434
 41
-0.5356958446460371
 42
-0.511501706181571
  0
ELLIPSE
  5
19A
330
A2
100
AcDbEntity
  8
DV1_Default
  6
Continuous
 62
     7
100
AcDbEllipse
 10
188.8499998963
 20
600.5759649832
 30
0.0
 11
-6.199999895186187
 21
6.335987290384538E-9
 31
0.0
210
0.0
220
0.0
230
1.0
 40
0.121869344
 41
0.5115017105528974
 42
0.535695849260764
  0
SPLINE
  5
19B
330
A2
100
AcDbEntity
  8
DV1_Default
  6
Continuous
 62
     7
100
AcDbSpline
210
0.0
220
0.0
230
1.0
 70
     8
 71
     3
 72
    20
 73
    16
 74
     0
 42
0.000000001
 43
0.0000000001
 40
0.0
 40
0.0
 40
0.0
 40
0.0
 40
0.2149525561875709
 40
0.2149525561875709
 40
0.2149525561875709
 40
0.429902163651306
 40
0.429902163651306
 40
0.429902163651306
 40
0.6448919663985848
 40
0.6448919663985848
 40
0.6448919663985848
 40
0.8598657489484439
 40
0.8598657489484439
 40
0.8598657489484439
 40
1.0
 40
1.0
 40
1.0
 40
1.0
 10
183.4435353651751
 20
600.2061133145753
 30
0.0
 10
183.4366860479309
 20
600.2076003523488
 30
0.0
 10
183.4297858685285
 20
600.2115087981549
 30
0.0
 10
183.4233995687603
 20
600.2175139549471
 30
0.0
 10
183.4170133222839
 20
600.223519061628
 30
0.0
 10
183.4109641826703
 20
600.2317863410484
 30
0.0
 10
183.4057356681267
 20
600.2416302704712
 30
0.0
 10
183.4005062124736
 20
600.2514759717575
 30
0.0
 10
183.3959524744267
 20
600.2631704889451
 30
0.0
 10
183.3924316775219
 20
600.2757444111753
 30
0.0
 10
183.3889111653451
 20
600.2883173165479
 30
0.0
 10
183.3863254543285
 20
600.3021164654738
 30
0.0
 10
183.3848749593242
 20
600.315997522894
 30
0.0
 10
183.3839216667584
 20
600.3251204145992
 30
0.0
 10
183.383436854
 20
600.3344146616081
 30
0.0
 10
183.3834368540005
 20
600.3435432988204
 30
0.0
  0
ELLIPSE
  5
19C
330
A2
100
AcDbEntity
  8
DV1_Default
  6
Continuous
 62
     7
100
AcDbEllipse
 10
188.85
 20
600.1045055684
 30
0.0
 11
2.6875
 21
0.0
 31
0.0
210
0.0
220
0.0
230
1.0
 40
0.1218693434
 41
3.205399330921933
 42
6.219378629847611
  0
ELLIPSE
  5
19D
330
A2
100
AcDbEntity
  8
DV1_Default
  6
Continuous
 62
     7
100
AcDbEllipse
 10
188.8500000005
 20
600.5759649902
 30
0.0
 11
2.687499999005599
 21
5.903610933444270E-11
 31
0.0
210
0.0
220
0.0
230
1.0
 40
0.1218693434
 41
-1.336907539432091
 42
-1.281086338739016
  0
ARC
  5
19E
330
A2
100
AcDbEntity
  8
DV1_Default
  6
Continuous
 62
     7
100
AcDbCircle
 10
189.4700267269
 20
600.3768972
 30
0.0
 40
0.1195719991678852
100
AcDbArc
 50
245.6478939701
 51
271.358158664
  0
ELLIPSE
  5
19F
330
A2
100
AcDbEntity
  8
DV1_Default
  6
Continuous
 62
     7
100
AcDbEllipse
 10
188.85
 20
599.9804372994
 30
0.0
 11
6.324999999999998
 21
0.0
 31
0.0
210
0.0
220
0.0
230
1.0
 40
0.1218693434
 41
2.578604975575098
 42
6.283185307179586
  0
ELLIPSE
  5
1A0
330
A2
100
AcDbEntity
  8
DV1_Default
  6
Continuous
 62
     7
100
AcDbEllipse
 10
188.85
 20
599.9804372994
 30
0.0
 11
6.324999999999998
 21
0.0
 31
0.0
210
0.0
220
0.0
230
1.0
 40
0.1218693434
 41
0.0
 42
0.5611462403833574
  0
LINE
  5
1A1
330
A2
100
AcDbEntity
  8
DV1_Default
  6
Continuous
 62
     7
100
AcDbLine
 10
194.2564646348
 20
600.2061133146
 30
0.0
 11
193.7125
 21
600.2443873725
 31
0.0
  0
LINE
  5
1A2
330
A2
100
AcDbEntity
  8
DV1_Default
  6
Continuous
 62
     7
100
AcDbLine
 10
192.3715477023
 20
600.338738517
 30
0.0
 11
191.9375
 21
600.3692786768
 31
0.0
  0
ELLIPSE
  5
1A3
330
A2
100
AcDbEntity
  8
DV1_Default
  6
Continuous
 62
     7
100
AcDbEllipse
 10
188.85
 20
599.9804372994
 30
0.0
 11
4.5875
 21
0.0
 31
0.0
210
0.0
220
0.0
230
1.0
 40
0.1218693434
 41
2.200485725203887
 42
6.283185307179586
  0
ELLIPSE
  5
1A4
330
A2
100
AcDbEntity
  8
DV1_Default
  6
Continuous
 62
     7
100
AcDbEllipse
 10
188.85
 20
599.9804372994
 30
0.0
 11
4.5875
 21
0.0
 31
0.0
210
0.0
220
0.0
230
1.0
 40
0.1218693434
 41
0.0
 42
0.9553558286360807
  0
ELLIPSE
  5
1A5
330
A2
100
AcDbEntity
  8
DV1_Default
  6
Continuous
 62
     7
100
AcDbEllipse
 10
188.85
 20
599.9804372994
 30
0.0
 11
2.962500000000001
 21
0.0
 31
0.0
210
0.0
220
0.0
230
1.0
 40
0.1218693434
 41
0.0
 42
0.9368842149061379
  0
ELLIPSE
  5
1A6
330
A2
100
AcDbEntity
  8
DV1_Default
  6
Continuous
 62
     7
100
AcDbEllipse
 10
188.85
 20
599.9804372994
 30
0.0
 11
2.962500000000001
 21
0.0
 31
0.0
210
0.0
220
0.0
230
1.0
 40
0.1218693434
 41
2.204708438683643
 42
6.283185307179586
  0
LINE
  5
1A7
330
A2
100
AcDbEntity
  8
DV1_Default
  6
Continuous
 62
     7
100
AcDbLine
 10
183.9875
 20
600.2443873725
 30
0.0
 11
183.4435353652
 21
600.2061133146
 31
0.0
  0
ELLIPSE
  5
1A8
330
A2
100
AcDbEntity
  8
DV1_Default
  6
Continuous
 62
     7
100
AcDbEllipse
 10
188.85
 20
599.9804372994
 30
0.0
 11
-4.737499999999999
 21
0.0
 31
0.0
210
0.0
220
0.0
230
1.0
 40
0.1218693434
 41
0.0
 42
4.116462970267261
  0
ELLIPSE
  5
1A9
330
A2
100
AcDbEntity
  8
DV1_Default
  6
Continuous
 62
     7
100
AcDbEllipse
 10
188.85
 20
599.9804372994
 30
0.0
 11
-4.737499999999999
 21
0.0
 31
0.0
210
0.0
220
0.0
230
1.0
 40
0.1218693434
 41
5.296306794132849
 42
6.283185307179586
  0
ELLIPSE
  5
1AA
330
A2
100
AcDbEntity
  8
DV1_Default
  6
Continuous
 62
     7
100
AcDbEllipse
 10
188.85
 20
599.9804372994
 30
0.0
 11
2.812499999999999
 21
0.0
 31
0.0
210
0.0
220
0.0
230
1.0
 40
0.1218693434
 41
2.089238655332267
 42
6.283185307179586
  0
ELLIPSE
  5
1AB
330
A2
100
AcDbEntity
  8
DV1_Default
  6
Continuous
 62
     7
100
AcDbEllipse
 10
188.85
 20
599.9804372994
 30
0.0
 11
2.812499999999999
 21
0.0
 31
0.0
210
0.0
220
0.0
230
1.0
 40
0.1218693434
 41
0.0
 42
1.052353998257515
  0
LINE
  5
1AC
330
A2
100
AcDbEntity
  8
DV1_Default
  6
Continuous
 62
     7
100
AcDbLine
 10
181.8323366207
 20
600.0703981212
 30
0.0
 11
182.2501132602
 21
600.0997934279
 31
0.0
  0
LINE
  5
1AD
330
A2
100
AcDbEntity
  8
DV1_Default
  6
Continuous
 62
     7
100
AcDbLine
 10
195.4498867398
 20
600.0997934279
 30
0.0
 11
195.8678518094
 21
600.070384863
 31
0.0
  0
LINE
  5
1AE
330
A2
100
AcDbEntity
  8
DV1_Default
  6
Continuous
 62
     7
100
AcDbLine
 10
182.25
 20
600.3024380292
 30
0.0
 11
182.25
 21
600.1045055684
 31
0.0
  0
LINE
  5
1AF
330
A2
100
AcDbEntity
  8
DV1_Default
  6
Continuous
 62
     7
100
AcDbLine
 10
195.45
 20
600.1045055684
 30
0.0
 11
195.45
 21
600.3024380292
 31
0.0
  0
LINE
  5
1B0
330
A2
100
AcDbEntity
  8
DV1_Default
  6
Continuous
 62
     7
100
AcDbLine
 10
185.7625
 20
600.3939408976
 30
0.0
 11
185.7625
 21
600.1045055684
 31
0.0
  0
LINE
  5
1B1
330
A2
100
AcDbEntity
  8
DV1_Default
  6
Continuous
 62
     7
100
AcDbLine
 10
191.9375
 20
600.1045055684
 30
0.0
 11
191.9375
 21
600.3939408976
 31
0.0
  0
LINE
  5
1B2
330
A2
100
AcDbEntity
  8
DV1_Default
  6
Continuous
 62
     7
100
AcDbLine
 10
183.9875
 20
600.414405579
 30
0.0
 11
183.9875
 21
600.1045055684
 31
0.0
  0
LINE
  5
1B3
330
A2
100
AcDbEntity
  8
DV1_Default
  6
Continuous
 62
     7
100
AcDbLine
 10
193.7125
 20
600.1045055684
 30
0.0
 11
193.7125
 21
600.414405579
 31
0.0
  0
LINE
  5
1B4
330
A2
100
AcDbEntity
  8
DV1_Default
  6
Continuous
 62
     7
100
AcDbLine
 10
191.9375
 20
600.3469295188
 30
0.0
 11
192.6207451288
 21
600.2988555045
 31
0.0
  0
LINE
  5
1B5
330
A2
100
AcDbEntity
  8
DV1_Default
  6
Continuous
 62
     7
100
AcDbLine
 10
193.7125
 20
600.2220382145
 30
0.0
 11
194.1724604755
 21
600.1896747983
 31
0.0
  0
LINE
  5
1B6
330
A2
100
AcDbEntity
  8
DV1_Default
  6
Continuous
 62
     7
100
AcDbLine
 10
183.6390152055
 20
600.3953403736
 30
0.0
 11
183.9875
 21
600.4067200722
 31
0.0
  0
LINE
  5
1B7
330
A2
100
AcDbEntity
  8
DV1_Default
  6
Continuous
 62
     7
100
AcDbLine
 10
193.7125
 20
600.4067200722
 30
0.0
 11
194.0609847945
 21
600.3953403736
 31
0.0
  0
LINE
  5
1B8
330
A2
100
AcDbEntity
  8
DV1_Default
  6
Continuous
 62
     7
100
AcDbLine
 10
183.5275253791
 20
600.189673803
 30
0.0
 11
183.9875
 21
600.2220382145
 31
0.0
  0
LINE
  5
1B9
330
A2
100
AcDbEntity
  8
DV1_Default
  6
Continuous
 62
     7
100
AcDbLine
 10
189.3761689584
 20
600.2880830328
 30
0.0
 11
189.4205788919
 21
600.2678843922
 31
0.0
  0
LINE
  5
1BA
330
A2
100
AcDbEntity
  8
DV1_Default
  6
Continuous
 62
     7
100
AcDbLine
 10
71.35
 20
445.9355402295
 30
0.0
 11
6.35
 21
445.9355402295
 31
0.0
  0
LINE
  5
1BB
330
A2
100
AcDbEntity
  8
DV1_Default
  6
Continuous
 62
     7
100
AcDbLine
 10
6.85
 20
453.6355402295
 30
0.0
 11
70.85
 21
453.6355402295
 31
0.0
  0
LINE
  5
1BC
330
A2
100
AcDbEntity
  8
DV1_Default
  6
Continuous
 62
     7
100
AcDbLine
 10
25.35
 20
455.2128904987
 30
0.0
 11
52.35
 21
455.2128904987
 31
0.0
  0
LINE
  5
1BD
330
A2
100
AcDbEntity
  8
DV1_Default
  6
Continuous
 62
     7
100
AcDbLine
 10
26.35
 20
462.6355402295
 30
0.0
 11
51.35
 21
462.6355402295
 31
0.0
  0
LINE
  5
1BE
330
A2
100
AcDbEntity
  8
DV1_Default
  6
Continuous
 62
     7
100
AcDbLine
 10
52.35
 20
461.6355402295
 30
0.0
 11
25.35
 21
461.6355402295
 31
0.0
  0
ARC
  5
1BF
330
A2
100
AcDbEntity
  8
DV1_Default
  6
Continuous
 62
     7
100
AcDbCircle
 10
70.85
 20
453.1355402295
 30
0.0
 40
0.5000000000000004
100
AcDbArc
 50
0.0
 51
90.0
  0
ARC
  5
1C0
330
A2
100
AcDbEntity
  8
DV1_Default
  6
Continuous
 62
     7
100
AcDbCircle
 10
6.85
 20
453.1355402295
 30
0.0
 40
0.5000000000000004
100
AcDbArc
 50
90.0
 51
180.0
  0
LINE
  5
1C1
330
A2
100
AcDbEntity
  8
DV1_Default
  6
Continuous
 62
     7
100
AcDbLine
 10
25.35
 20
461.6355402295
 30
0.0
 11
25.35
 21
455.2128904987
 31
0.0
  0
LINE
  5
1C2
330
A2
100
AcDbEntity
  8
DV1_Default
  6
Continuous
 62
     7
100
AcDbLine
 10
52.35
 20
455.2128904987
 30
0.0
 11
52.35
 21
461.6355402295
 31
0.0
  0
LINE
  5
1C3
330
A2
100
AcDbEntity
  8
DV1_Default
  6
Continuous
 62
     7
100
AcDbLine
 10
25.35
 20
455.2128904987
 30
0.0
 11
26.25
 21
454.6932752564
 31
0.0
  0
LINE
  5
1C4
330
A2
100
AcDbEntity
  8
DV1_Default
  6
Continuous
 62
     7
100
AcDbLine
 10
51.45
 20
454.6932752564
 30
0.0
 11
52.35
 21
455.2128904987
 31
0.0
  0
LINE
  5
1C5
330
A2
100
AcDbEntity
  8
DV1_Default
  6
Continuous
 62
     7
100
AcDbLine
 10
26.35
 20
454.5200701756
 30
0.0
 11
26.35
 21
453.8355402295
 31
0.0
  0
LINE
  5
1C6
330
A2
100
AcDbEntity
  8
DV1_Default
  6
Continuous
 62
     7
100
AcDbLine
 10
51.35
 20
453.8355402295
 30
0.0
 11
51.35
 21
454.5200701756
 31
0.0
  0
ARC
  5
1C7
330
A2
100
AcDbEntity
  8
DV1_Default
  6
Continuous
 62
     7
100
AcDbCircle
 10
26.15
 20
454.5200701756
 30
0.0
 40
0.1999999999999964
100
AcDbArc
 50
0.0
 51
60.0
  0
ARC
  5
1C8
330
A2
100
AcDbEntity
  8
DV1_Default
  6
Continuous
 62
     7
100
AcDbCircle
 10
51.55
 20
454.5200701756
 30
0.0
 40
0.199999999999978
100
AcDbArc
 50
120.0
 51
180.0
  0
ARC
  5
1C9
330
A2
100
AcDbEntity
  8
DV1_Default
  6
Continuous
 62
     7
100
AcDbCircle
 10
51.55
 20
453.8355402295
 30
0.0
 40
0.1999999999999997
100
AcDbArc
 50
180.0
 51
270.0
  0
ARC
  5
1CA
330
A2
100
AcDbEntity
  8
DV1_Default
  6
Continuous
 62
     7
100
AcDbCircle
 10
26.15
 20
453.8355402295
 30
0.0
 40
0.199999999999978
100
AcDbArc
 50
270.0
 51
0.0
  0
LINE
  5
1CB
330
A2
100
AcDbEntity
  8
DV1_Default
  6
Continuous
 62
     7
100
AcDbLine
 10
52.35
 20
461.6355402295
 30
0.0
 11
51.35
 21
462.6355402295
 31
0.0
  0
LINE
  5
1CC
330
A2
100
AcDbEntity
  8
DV1_Default
  6
Continuous
 62
     7
100
AcDbLine
 10
26.35
 20
462.6355402295
 30
0.0
 11
25.35
 21
461.6355402295
 31
0.0
  0
LINE
  5
1CD
330
A2
100
AcDbEntity
  8
DV1_Default
  6
Continuous
 62
     7
100
AcDbLine
 10
71.35
 20
445.9355402295
 30
0.0
 11
71.35
 21
453.1355402295
 31
0.0
  0
LINE
  5
1CE
330
A2
100
AcDbEntity
  8
DV1_Default
  6
Continuous
 62
     7
100
AcDbLine
 10
6.35
 20
453.1355402295
 30
0.0
 11
6.35
 21
445.9355402295
 31
0.0
  0
LINE
  5
1CF
330
A2
100
AcDbEntity
  8
DV1_Default
  6
Continuous
 62
     7
100
AcDbLine
 10
51.43
 20
462.5555402295
 30
0.0
 11
51.43
 21
455.2128904987
 31
0.0
  0
LINE
  5
1D0
330
A2
100
AcDbEntity
  8
DV1_Default
  6
Continuous
 62
     7
100
AcDbLine
 10
26.27
 20
462.5555402295
 30
0.0
 11
26.27
 21
455.2128904987
 31
0.0
  0
LINE
  5
1D1
330
A2
100
AcDbEntity
  8
DV1_Default
  6
Continuous
 62
     7
100
AcDbLine
 10
221.35
 20
445.9355402295
 30
0.0
 11
156.35
 21
445.9355402295
 31
0.0
  0
LINE
  5
1D2
330
A2
100
AcDbEntity
  8
DV1_Default
  6
Continuous
 62
     7
100
AcDbLine
 10
156.85
 20
453.6355402295
 30
0.0
 11
220.85
 21
453.6355402295
 31
0.0
  0
LINE
  5
1D3
330
A2
100
AcDbEntity
  8
DV1_Default
  6
Continuous
 62
     7
100
AcDbLine
 10
221.35
 20
445.9355402295
 30
0.0
 11
221.35
 21
453.1355402295
 31
0.0
  0
LINE
  5
1D4
330
A2
100
AcDbEntity
  8
DV1_Default
  6
Continuous
 62
     7
100
AcDbLine
 10
156.35
 20
453.1355402295
 30
0.0
 11
156.35
 21
445.9355402295
 31
0.0
  0
ARC
  5
1D5
330
A2
100
AcDbEntity
  8
DV1_Default
  6
Continuous
 62
     7
100
AcDbCircle
 10
220.85
 20
453.1355402295
 30
0.0
 40
0.5000000000000073
100
AcDbArc
 50
0.0
 51
90.0
  0
ARC
  5
1D6
330
A2
100
AcDbEntity
  8
DV1_Default
  6
Continuous
 62
     7
100
AcDbCircle
 10
156.85
 20
453.1355402295
 30
0.0
 40
0.5000000000000004
100
AcDbArc
 50
90.0
 51
180.0
  0
LINE
  5
1D7
330
A2
100
AcDbEntity
  8
DV1_Default
  6
Continuous
 62
     7
100
AcDbLine
 10
371.35
 20
445.9355402295
 30
0.0
 11
306.35
 21
445.9355402295
 31
0.0
  0
LINE
  5
1D8
330
A2
100
AcDbEntity
  8
DV1_Default
  6
Continuous
 62
     7
100
AcDbLine
 10
306.85
 20
453.6355402295
 30
0.0
 11
370.85
 21
453.6355402295
 31
0.0
  0
LINE
  5
1D9
330
A2
100
AcDbEntity
  8
DV1_Default
  6
Continuous
 62
     7
100
AcDbLine
 10
325.35
 20
455.2128904987
 30
0.0
 11
352.35
 21
455.2128904987
 31
0.0
  0
LINE
  5
1DA
330
A2
100
AcDbEntity
  8
DV1_Default
  6
Continuous
 62
     7
100
AcDbLine
 10
326.35
 20
462.6355402295
 30
0.0
 11
351.35
 21
462.6355402295
 31
0.0
  0
LINE
  5
1DB
330
A2
100
AcDbEntity
  8
DV1_Default
  6
Continuous
 62
     7
100
AcDbLine
 10
352.35
 20
461.6355402295
 30
0.0
 11
325.35
 21
461.6355402295
 31
0.0
  0
ARC
  5
1DC
330
A2
100
AcDbEntity
  8
DV1_Default
  6
Continuous
 62
     7
100
AcDbCircle
 10
370.85
 20
453.1355402295
 30
0.0
 40
0.5000000000000004
100
AcDbArc
 50
0.0
 51
90.0
  0
ARC
  5
1DD
330
A2
100
AcDbEntity
  8
DV1_Default
  6
Continuous
 62
     7
100
AcDbCircle
 10
306.85
 20
453.1355402295
 30
0.0
 40
0.4999999999999996
100
AcDbArc
 50
90.0
 51
180.0
  0
LINE
  5
1DE
330
A2
100
AcDbEntity
  8
DV1_Default
  6
Continuous
 62
     7
100
AcDbLine
 10
325.35
 20
461.6355402295
 30
0.0
 11
325.35
 21
455.2128904987
 31
0.0
  0
LINE
  5
1DF
330
A2
100
AcDbEntity
  8
DV1_Default
  6
Continuous
 62
     7
100
AcDbLine
 10
352.35
 20
455.2128904987
 30
0.0
 11
352.35
 21
461.6355402295
 31
0.0
  0
LINE
  5
1E0
330
A2
100
AcDbEntity
  8
DV1_Default
  6
Continuous
 62
     7
100
AcDbLine
 10
325.35
 20
455.2128904987
 30
0.0
 11
326.25
 21
454.6932752564
 31
0.0
  0
LINE
  5
1E1
330
A2
100
AcDbEntity
  8
DV1_Default
  6
Continuous
 62
     7
100
AcDbLine
 10
351.45
 20
454.6932752564
 30
0.0
 11
352.35
 21
455.2128904987
 31
0.0
  0
LINE
  5
1E2
330
A2
100
AcDbEntity
  8
DV1_Default
  6
Continuous
 62
     7
100
AcDbLine
 10
326.35
 20
454.5200701756
 30
0.0
 11
326.35
 21
453.8355402295
 31
0.0
  0
LINE
  5
1E3
330
A2
100
AcDbEntity
  8
DV1_Default
  6
Continuous
 62
     7
100
AcDbLine
 10
351.35
 20
453.8355402295
 30
0.0
 11
351.35
 21
454.5200701756
 31
0.0
  0
ARC
  5
1E4
330
A2
100
AcDbEntity
  8
DV1_Default
  6
Continuous
 62
     7
100
AcDbCircle
 10
326.15
 20
454.5200701756
 30
0.0
 40
0.1999999999999964
100
AcDbArc
 50
0.0
 51
60.0
  0
ARC
  5
1E5
330
A2
100
AcDbEntity
  8
DV1_Default
  6
Continuous
 62
     7
100
AcDbCircle
 10
351.55
 20
454.5200701756
 30
0.0
 40
0.199999999999978
100
AcDbArc
 50
120.0
 51
180.0
  0
ARC
  5
1E6
330
A2
100
AcDbEntity
  8
DV1_Default
  6
Continuous
 62
     7
100
AcDbCircle
 10
351.55
 20
453.8355402295
 30
0.0
 40
0.1999999999999988
100
AcDbArc
 50
180.0
 51
270.0
  0
ARC
  5
1E7
330
A2
100
AcDbEntity
  8
DV1_Default
  6
Continuous
 62
     7
100
AcDbCircle
 10
326.15
 20
453.8355402295
 30
0.0
 40
0.199999999999978
100
AcDbArc
 50
270.0
 51
0.0
  0
LINE
  5
1E8
330
A2
100
AcDbEntity
  8
DV1_Default
  6
Continuous
 62
     7
100
AcDbLine
 10
352.35
 20
461.6355402295
 30
0.0
 11
351.35
 21
462.6355402295
 31
0.0
  0
LINE
  5
1E9
330
A2
100
AcDbEntity
  8
DV1_Default
  6
Continuous
 62
     7
100
AcDbLine
 10
326.35
 20
462.6355402295
 30
0.0
 11
325.35
 21
461.6355402295
 31
0.0
  0
LINE
  5
1EA
330
A2
100
AcDbEntity
  8
DV1_Default
  6
Continuous
 62
     7
100
AcDbLine
 10
371.35
 20
445.9355402295
 30
0.0
 11
371.35
 21
453.1355402295
 31
0.0
  0
LINE
  5
1EB
330
A2
100
AcDbEntity
  8
DV1_Default
  6
Continuous
 62
     7
100
AcDbLine
 10
306.35
 20
453.1355402295
 30
0.0
 11
306.35
 21
445.9355402295
 31
0.0
  0
LINE
  5
1EC
330
A2
100
AcDbEntity
  8
DV1_Default
  6
Continuous
 62
     7
100
AcDbLine
 10
351.43
 20
462.5555402295
 30
0.0
 11
351.43
 21
455.2128904987
 31
0.0
  0
LINE
  5
1ED
330
A2
100
AcDbEntity
  8
DV1_Default
  6
Continuous
 62
     7
100
AcDbLine
 10
326.27
 20
462.5555402295
 30
0.0
 11
326.27
 21
455.2128904987
 31
0.0
  0
LINE
  5
1EE
330
A2
100
AcDbEntity
  8
DV1_Default
  6
Continuous
 62
     7
100
AcDbLine
 10
203.3499188237
 20
603.9266769216
 30
0.0
 11
203.3499416517
 21
608.9524170167
 31
0.0
  0
LINE
  5
1EF
330
A2
100
AcDbEntity
  8
DV1_Default
  6
Continuous
 62
     7
100
AcDbLine
 10
174.349941652
 20
608.9525487409
 30
0.0
 11
174.3499195182
 21
604.0796541601
 31
0.0
  0
SPLINE
  5
1F0
330
A2
100
AcDbEntity
  8
DV1_Default
  6
Continuous
 62
     7
100
AcDbSpline
210
0.0
220
0.0
230
1.0
 70
     8
 71
     3
 72
     8
 73
     4
 74
     0
 42
0.000000001
 43
0.0000000001
 40
0.0
 40
0.0
 40
0.0
 40
0.0
 40
1.0
 40
1.0
 40
1.0
 40
1.0
 10
203.3499415435022
 20
594.9363985640769
 30
0.0
 10
203.3499490392443
 20
596.5995685523351
 30
0.0
 10
203.349955402542
 20
598.0124486735278
 30
0.0
 10
203.3499619718346
 20
599.47302116708
 30
0.0
  0
SPLINE
  5
1F1
330
A2
100
AcDbEntity
  8
DV1_Default
  6
Continuous
 62
     7
100
AcDbSpline
210
0.0
220
0.0
230
1.0
 70
     8
 71
     3
 72
    90
 73
    86
 74
     0
 42
0.000000001
 43
0.0000000001
 40
0.0
 40
0.0
 40
0.0
 40
0.0
 40
0.0067234752912276
 40
0.0249319684751899
 40
0.0431404616826947
 40
0.0613489549140414
 40
0.079557448177151
 40
0.0977659414819719
 40
0.1159744348435097
 40
0.1341829282703923
 40
0.1523914217934065
 40
0.1705999154182295
 40
0.1888084092037993
 40
0.207016903161623
 40
0.2252253973829464
 40
0.2434338919219115
 40
0.2616423869242471
 40
0.2798508825674445
 40
0.2980593791168574
 40
0.3162678771478583
 40
0.3344763772570346
 40
0.3526848816099007
 40
0.3708933924131971
 40
0.3891019202801996
 40
0.407310484250152
 40
0.4255192078397934
 40
0.4437290842451733
 40
0.4469919055961891
 40
0.4470902405258761
 40
0.447140422656877
 40
0.4472375413450403
 40
0.4481348479003135
 40
0.4508329287754998
 40
0.4564980122926682
 40
0.4616100807893616
 40
0.4668725951008701
 40
0.4723967536720319
 40
0.4782066191902586
 40
0.4841632663199744
 40
0.4902040019199557
 40
0.4962882481363969
 40
0.5026273313870919
 40
0.5092230775303624
 40
0.5155264383759101
 40
0.5216168820585234
 40
0.5274684939682874
 40
0.5331095126028794
 40
0.53851049544831
 40
0.5436562618614403
 40
0.5485105062607374
 40
0.5529942371035195
 40
0.5570580121051502
 40
0.5604890322049473
 40
0.5632260446416739
 40
0.5648937601055993
 40
0.5656418653692823
 40
0.565740476318926
 40
0.5657778804964883
 40
0.5658389170051819
 40
0.566062978634023
 40
0.5682014834090691
 40
0.580690341696266
 40
0.5989540208399902
 40
0.6171631229547687
 40
0.6353717785887193
 40
0.653580326768708
 40
0.6717888479916332
 40
0.6899973563923424
 40
0.7082058589816199
 40
0.7264143583094208
 40
0.744622855656516
 40
0.7628313518318125
 40
0.781039847139638
 40
0.7992483419333009
 40
0.8174568362827713
 40
0.8356653303686091
 40
0.8538738242169008
 40
0.8720823179091421
 40
0.8902908114681886
 40
0.9084993049289859
 40
0.9267077983125129
 40
0.9449162916334491
 40
0.9631247849098794
 40
0.9813332781480457
 40
1.0
 40
1.0
 40
1.0
 40
1.0
 10
203.3499823960425
 20
604.0197534326215
 30
0.0
 10
203.3499862920452
 20
604.8881121783876
 30
0.0
 10
203.3500007615813
 20
608.11533642337
 30
0.0
 10
203.3500248743251
 20
613.5077898233828
 30
0.0
 10
203.3500556606204
 20
620.4183480362519
 30
0.0
 10
203.350085553775
 20
627.1557756225662
 30
0.0
 10
203.3501149885269
 20
633.816556063561
 30
0.0
 10
203.3501435654566
 20
640.3113691598373
 30
0.0
 10
203.3501713350224
 20
646.6509583165798
 30
0.0
 10
203.3501981113392
 20
652.7933612966059
 30
0.0
 10
203.3502238404257
 20
658.7258907651942
 30
0.0
 10
203.3502484033973
 20
664.4213262119947
 30
0.0
 10
203.3502717225818
 20
669.8615394598161
 30
0.0
 10
203.3502937050373
 20
675.0249173058065
 30
0.0
 10
203.3503142734363
 20
679.8932622038701
 30
0.0
 10
203.3503333499767
 20
684.448162758259
 30
0.0
 10
203.3503508652188
 20
688.6730710107945
 30
0.0
 10
203.3503667543886
 20
692.5522771686167
 30
0.0
 10
203.3503809584267
 20
696.0715391943471
 30
0.0
 10
203.3503934262415
 20
699.2178545141911
 30
0.0
 10
203.3504041092893
 20
701.9796306799631
 30
0.0
 10
203.3504129729884
 20
704.346668003147
 30
0.0
 10
203.3504199757178
 20
706.3102899739007
 30
0.0
 10
203.350425108549
 20
707.8631197514603
 30
0.0
 10
203.3504283183206
 20
708.9997647987408
 30
0.0
 10
203.3504296802124
 20
709.7151598732277
 30
0.0
 10
203.3504290257958
 20
709.9298805110909
 30
0.0
 10
203.3504297097175
 20
709.9336646745085
 30
0.0
 10
203.3504274043091
 20
709.9528792753048
 30
0.0
 10
203.3504084409502
 20
709.9718962824755
 30
0.0
 10
203.3500589088206
 20
710.106596854537
 30
0.0
 10
203.3424940962553
 20
710.5779084493895
 30
0.0
 10
203.2674766830335
 20
711.7607688954853
 30
0.0
 10
202.9678159702297
 20
713.4635626665932
 30
0.0
 10
202.3273769808016
 20
715.4174523480978
 30
0.0
 10
201.4332488615519
 20
717.2495179878282
 30
0.0
 10
200.237090016235
 20
719.0101943816112
 30
0.0
 10
198.7302050266337
 20
720.6383388955877
 30
0.0
 10
196.9367950053822
 20
722.0543180807978
 30
0.0
 10
194.9110617057676
 20
723.1863352613648
 30
0.0
 10
192.6843471699002
 20
723.9968463557325
 30
0.0
 10
190.2841489997842
 20
724.4454108861266
 30
0.0
 10
187.8135647203407
 20
724.4786860419979
 30
0.0
 10
185.4058455806757
 20
724.0970773871778
 30
0.0
 10
183.183941232928
 20
723.3576557747745
 30
0.0
 10
181.1821065521563
 20
722.3173851326601
 30
0.0
 10
179.4328229281849
 20
721.0383003033145
 30
0.0
 10
177.9533306958978
 20
719.5821057111953
 30
0.0
 10
176.7524647723102
 20
718.014762951791
 30
0.0
 10
175.8277547495509
 20
716.4051438454095
 30
0.0
 10
175.1623932895165
 20
714.8222138464208
 30
0.0
 10
174.7313378528041
 20
713.349887215453
 30
0.0
 10
174.4895317967856
 20
712.0625223899535
 30
0.0
 10
174.3853814946955
 20
711.0653993415107
 30
0.0
 10
174.3551994834188
 20
710.4068518924364
 30
0.0
 10
174.3507464097409
 20
710.0857723348331
 30
0.0
 10
174.3504467935372
 20
709.9719258110217
 30
0.0
 10
174.350432880887
 20
709.9566092360907
 30
0.0
 10
174.3504286855493
 20
709.9492368184685
 30
0.0
 10
174.3504283074267
 20
709.9452657846452
 30
0.0
 10
174.3504277114956
 20
709.9358913773551
 30
0.0
 10
174.350426013754
 20
709.8130027479376
 30
0.0
 10
174.3504220186964
 20
709.309510361664
 30
0.0
 10
174.3504156736324
 20
708.3243236041914
 30
0.0
 10
174.3504074653158
 20
706.9220137578487
 30
0.0
 10
174.3503974245709
 20
705.1067645928118
 30
0.0
 10
174.3503855847767
 20
702.8852593474053
 30
0.0
 10
174.3503719914617
 20
700.2656839775867
 30
0.0
 10
174.3503566938652
 20
697.2577266265208
 30
0.0
 10
174.3503397485782
 20
693.8723998725872
 30
0.0
 10
174.3503212185525
 20
690.122353288203
 30
0.0
 10
174.3503011708235
 20
686.0210970425707
 30
0.0
 10
174.3502796819257
 20
681.584344705246
 30
0.0
 10
174.3502568261869
 20
676.8273710737374
 30
0.0
 10
174.3502326970226
 20
671.7697217572204
 30
0.0
 10
174.3502073664367
 20
666.4263321300155
 30
0.0
 10
174.3501809594446
 20
660.8238177081997
 30
0.0
 10
174.3501535144596
 20
654.9699495729506
 30
0.0
 10
174.3501252426996
 20
648.9103571808632
 30
0.0
 10
174.3500960430525
 20
642.6225067087323
 30
0.0
 10
174.3500664063562
 20
636.2133158625471
 30
0.0
 10
174.3500357255353
 20
629.5498764911847
 30
0.0
 10
174.3500054605708
 20
622.9510778539664
 30
0.0
 10
174.3499728487734
 20
615.8130548648652
 30
0.0
 10
174.349953477493
 20
611.5542859319681
 30
0.0
 10
174.349941651956
 20
608.9525487409478
 30
0.0
  0
SPLINE
  5
1F2
330
A2
100
AcDbEntity
  8
DV1_Default
  6
Continuous
 62
     7
100
AcDbSpline
210
0.0
220
0.0
230
1.0
 70
     8
 71
     3
 72
    25
 73
    21
 74
     0
 42
0.000000001
 43
0.0000000001
 40
0.0
 40
0.0
 40
0.0
 40
0.0
 40
0.0441535988274827
 40
0.1020172704584854
 40
0.1598809421715184
 40
0.2177446136799832
 40
0.2756082849005562
 40
0.3334719557201328
 40
0.391335625978313
 40
0.4491992954373644
 40
0.5070629637282319
 40
0.5649266302472218
 40
0.6227902939436476
 40
0.6806539528426558
 40
0.7385176028432179
 40
0.7963812341851574
 40
0.8542448184862801
 40
0.9121082408295058
 40
0.9699705686587782
 40
1.0
 40
1.0
 40
1.0
 40
1.0
 10
203.3499416516573
 20
608.9524170167292
 30
0.0
 10
203.3499537780237
 20
611.6212169809188
 30
0.0
 10
203.3499774033075
 20
616.8129784185002
 30
0.0
 10
203.3500179567513
 20
625.6830988130941
 30
0.0
 10
203.350059561647
 20
634.732623915351
 30
0.0
 10
203.3501009074223
 20
643.6763824068004
 30
0.0
 10
203.3501405114754
 20
652.1907137331182
 30
0.0
 10
203.3501787196346
 20
660.3514570757885
 30
0.0
 10
203.3502149291745
 20
668.0302383056795
 30
0.0
 10
203.3502490786511
 20
675.2111029765213
 30
0.0
 10
203.3502808011536
 20
681.8238875559979
 30
0.0
 10
203.3503099932038
 20
687.8329192311685
 30
0.0
 10
203.3503362929202
 20
693.1906346864914
 30
0.0
 10
203.3503597797461
 20
697.862458939579
 30
0.0
 10
203.3503798104955
 20
701.8143277647106
 30
0.0
 10
203.3503971416407
 20
705.0191311838717
 30
0.0
 10
203.3504099496882
 20
707.4546234807267
 30
0.0
 10
203.3504214769518
 20
709.1028252338456
 30
0.0
 10
203.3504238918485
 20
709.8180938669636
 30
0.0
 10
203.3504310720836
 20
709.9376369008581
 30
0.0
 10
203.3504274159658
 20
709.943532744811
 30
0.0
  0
SPLINE
  5
1F3
330
A2
100
AcDbEntity
  8
DV1_Default
  6
Continuous
 62
     7
100
AcDbSpline
210
0.0
220
0.0
230
1.0
 70
     8
 71
     3
 72
    11
 73
     7
 74
     0
 42
0.000000001
 43
0.0000000001
 40
0.0
 40
0.0
 40
0.0
 40
0.0
 40
0.2753326478382341
 40
0.2753326478382341
 40
0.2753326478382341
 40
1.0
 40
1.0
 40
1.0
 40
1.0
 10
174.3499826732337
 20
604.0816054812867
 30
0.0
 10
174.3499804341223
 20
603.5825085517541
 30
0.0
 10
174.3499782088689
 20
603.0867044485602
 30
0.0
 10
174.3499760020603
 20
602.5952149613764
 30
0.0
 10
174.3499648746498
 20
600.116973135738
 30
0.0
 10
174.3499542161972
 20
597.7484299011688
 30
0.0
 10
174.3499415437965
 20
594.9365293081113
 30
0.0
  0
LINE
  5
1F4
330
A2
100
AcDbEntity
  8
DV1_Default
  6
Continuous
 62
     7
100
AcDbLine
 10
174.3499415438
 20
594.9365293081
 30
0.0
 11
174.3493045003
 21
453.6355402295
 31
0.0
  0
LINE
  5
1F5
330
A2
100
AcDbEntity
  8
DV1_Default
  6
Continuous
 62
     7
100
AcDbLine
 10
203.3493045006
 20
453.6355402295
 30
0.0
 11
203.3499415435
 21
594.9363985641
 31
0.0
  0
ELLIPSE
  5
1F6
330
A2
100
AcDbEntity
  8
DV1_Default
  6
Continuous
 62
     7
100
AcDbEllipse
 10
188.85
 20
599.3383699784
 30
0.0
 11
-12.12499912484766
 21
0.0
 31
0.0
210
0.0
220
0.0
230
1.0
 40
0.1218693434
 41
2.800837274192044
 42
3.111189735668988
  0
ELLIPSE
  5
1F7
330
A2
100
AcDbEntity
  8
DV1_Default
  6
Continuous
 62
     7
100
AcDbEllipse
 10
188.85
 20
599.3383699784
 30
0.0
 11
-12.12499912484766
 21
0.0
 31
0.0
210
0.0
220
0.0
230
1.0
 40
0.1218693434
 41
-4.488827004911747
 42
-4.041543059384323
  0
ELLIPSE
  5
1F8
330
A2
100
AcDbEntity
  8
DV1_Default
  6
Continuous
 62
     7
100
AcDbEllipse
 10
188.85
 20
599.3383699784
 30
0.0
 11
-12.12499912484766
 21
0.0
 31
0.0
210
0.0
220
0.0
230
1.0
 40
0.1218693434
 41
0.8999504057945327
 42
1.347234351321949
  0
ELLIPSE
  5
1F9
330
A2
100
AcDbEntity
  8
DV1_Default
  6
Continuous
 62
     7
100
AcDbEllipse
 10
188.85
 20
599.3383699784
 30
0.0
 11
-12.12499912484766
 21
0.0
 31
0.0
210
0.0
220
0.0
230
1.0
 40
0.1218693434
 41
0.0304029179208776
 42
0.3407553793977423
  0
ELLIPSE
  5
1FA
330
A2
100
AcDbEntity
  8
DV1_Default
  6
Continuous
 62
     7
100
AcDbEllipse
 10
188.85
 20
599.0375187809
 30
0.0
 11
12.3
 21
0.0
 31
0.0
210
0.0
220
0.0
230
1.0
 40
0.1218693434
 41
0.0
 42
6.283185307179586
  0
SPLINE
  5
1FB
330
A2
100
AcDbEntity
  8
DV1_Default
  6
Continuous
 62
     7
100
AcDbSpline
210
0.0
220
0.0
230
1.0
 70
     8
 71
     3
 72
    34
 73
    30
 74
     0
 42
0.000000001
 43
0.0000000001
 40
0.0
 40
0.0
 40
0.0
 40
0.0
 40
0.0623488148324971
 40
0.0623488148324971
 40
0.1248360348151817
 40
0.1248360348151817
 40
0.1873232547978662
 40
0.1873232547978662
 40
0.2498104747805508
 40
0.2498104747805508
 40
0.3747849147459201
 40
0.3747849147459201
 40
0.4372721347286047
 40
0.4372721347286047
 40
0.4997593547112891
 40
0.4997593547112891
 40
0.6247337946766583
 40
0.6247337946766583
 40
0.7497082346420275
 40
0.7497082346420275
 40
0.8121954546247121
 40
0.8121954546247121
 40
0.8746826746073963
 40
0.8746826746073963
 40
0.9371698945900809
 40
0.9371698945900809
 40
0.9996571145727653
 40
0.9996571145727653
 40
1.0
 40
1.0
 40
1.0
 40
1.0
 10
203.3499999004219
 20
603.9206729234961
 30
0.0
 10
203.3500828483112
 20
604.0356686148375
 30
0.0
 10
203.2560080615192
 20
604.1524532850632
 30
0.0
 10
202.8865822108332
 20
604.37884000208
 30
0.0
 10
202.6129347688184
 20
604.4889939155096
 30
0.0
 10
201.8871923086946
 20
604.7029366124373
 30
0.0
 10
201.4332084500306
 20
604.8064393667694
 30
0.0
 10
200.383750021155
 20
604.9979621474296
 30
0.0
 10
199.7846603279796
 20
605.0872251001377
 30
0.0
 10
197.7556088384129
 20
605.3347582584721
 30
0.0
 10
196.1594567376371
 20
605.4645022871669
 30
0.0
 10
193.5237110624884
 20
605.597649612847
 30
0.0
 10
192.6198775815678
 20
605.6310813156957
 30
0.0
 10
190.7623322016103
 20
605.676314180189
 30
0.0
 10
189.8013927060361
 20
605.687910035851
 30
0.0
 10
186.9625910488061
 20
605.688032327463
 30
0.0
 10
185.0552373953413
 20
605.6418252167838
 30
0.0
 10
181.5643266164349
 20
605.4659275285335
 30
0.0
 10
179.9451389057816
 20
605.3343629789227
 30
0.0
 10
177.9377904857987
 20
605.0902030979994
 30
0.0
 10
177.3250759536779
 20
604.9994124173377
 30
0.0
 10
176.2703136522749
 20
604.8072407126368
 30
0.0
 10
175.8244065252299
 20
604.7057912695456
 30
0.0
 10
175.0958840594611
 20
604.4921425727534
 30
0.0
 10
174.8156408317933
 20
604.3797594334984
 30
0.0
 10
174.4455854527334
 20
604.1538676275658
 30
0.0
 10
174.3509836027627
 20
604.0391669592738
 30
0.0
 10
174.3500022001404
 20
603.9220100631743
 30
0.0
 10
174.3499996780136
 20
603.9213707249162
 30
0.0
 10
174.3499999891195
 20
603.9207314139869
 30
0.0
  0
ELLIPSE
  5
1FC
330
A2
100
AcDbEntity
  8
DV1_Default
  6
Continuous
 62
     7
100
AcDbEllipse
 10
188.8500000001
 20
599.0375211725
 30
0.0
 11
-14.06
 21
2.775557561562891E-14
 31
0.0
210
0.0
220
0.0
230
1.0
 40
0.1218695284
 41
0.0
 42
6.283185307179586
  0
LINE
  5
1FD
330
A2
100
AcDbEntity
  8
DV1_Default
  6
Continuous
 62
     7
100
AcDbLine
 10
203.3500000001
 20
599.4742414692
 30
0.0
 11
203.3500000001
 21
603.9208454307
 31
0.0
  0
LINE
  5
1FE
330
A2
100
AcDbEntity
  8
DV1_Default
  6
Continuous
 62
     7
100
AcDbLine
 10
174.3500000001
 20
603.9208454306
 30
0.0
 11
174.3500000001
 21
599.4742414692
 31
0.0
  0
SPLINE
  5
1FF
330
A2
100
AcDbEntity
  8
DV1_Default
  6
Continuous
 62
     7
100
AcDbSpline
210
0.0
220
0.0
230
1.0
 70
     8
 71
     3
 72
    11
 73
     7
 74
     0
 42
0.000000001
 43
0.0000000001
 40
0.0
 40
0.0
 40
0.0
 40
0.0
 40
0.0063581180816508
 40
0.4523003666866952
 40
0.8111522391961621
 40
1.0
 40
1.0
 40
1.0
 40
1.0
 10
202.60718864807
 20
598.6841216244102
 30
0.0
 10
202.6098428208772
 20
598.685209392662
 30
0.0
 10
202.7728464044417
 20
598.7520919227696
 30
0.0
 10
202.9889319631
 20
598.9125327313228
 30
0.0
 10
203.2897719232424
 20
599.210268761457
 30
0.0
 10
203.3326950657303
 20
599.3979760894299
 30
0.0
 10
203.3503387391777
 20
599.4746587023776
 30
0.0
  0
SPLINE
  5
200
330
A2
100
AcDbEntity
  8
DV1_Default
  6
Continuous
 62
     7
100
AcDbSpline
210
0.0
220
0.0
230
1.0
 70
     8
 71
     3
 72
    12
 73
     8
 74
     0
 42
0.000000001
 43
0.0000000001
 40
0.0
 40
0.0
 40
0.0
 40
0.0
 40
0.1049134686276108
 40
0.302112612147564
 40
0.5206427255055804
 40
0.8285363714560351
 40
1.0
 40
1.0
 40
1.0
 40
1.0
 10
174.3508887275666
 20
599.4603535604571
 30
0.0
 10
174.3502026447682
 20
599.3892881724751
 30
0.0
 10
174.3488908128891
 20
599.2169064202996
 30
0.0
 10
174.5371210713687
 20
598.9715455289075
 30
0.0
 10
174.8125583552622
 20
598.7620532663368
 30
0.0
 10
175.1548284089398
 20
598.5955707275473
 30
0.0
 10
175.4581020141241
 20
598.5057356761612
 30
0.0
 10
175.5867665964747
 20
598.4686027386188
 30
0.0
  0
ENDBLK
  5
202
330
A2
100
AcDbEntity
  8
0
100
AcDbBlockEnd
  0
BLOCK
  5
287
330
203
100
AcDbEntity
  8
0
100
AcDbBlockBegin
  2
SE1
 70
     0
 10
0.0
 20
0.0
 30
0.0
  3
SE1
  1
SE1
  0
LINE
  5
206
330
203
100
AcDbEntity
  8
DV2_Default
  6
Continuous
 62
     7
100
AcDbLine
 10
455.2692721763
 20
473.0555402295
 30
0.0
 11
456.1599930482
 21
473.0555402295
 31
0.0
  0
LINE
  5
207
330
203
100
AcDbEntity
  8
DV2_Default
  6
Continuous
 62
     7
100
AcDbLine
 10
456.1599930482
 20
473.0555402295
 30
0.0
 11
456.1600467301
 21
473.0555402295
 31
0.0
  0
LINE
  5
208
330
203
100
AcDbEntity
  8
DV2_Default
  6
Continuous
 62
     7
100
AcDbLine
 10
456.1600467301
 20
473.0555402295
 30
0.0
 11
457.0895697234
 21
473.0555402295
 31
0.0
  0
LINE
  5
209
330
203
100
AcDbEntity
  8
DV2_Default
  6
Continuous
 62
     7
100
AcDbLine
 10
457.0895697234
 20
473.0555402295
 30
0.0
 11
457.0896435268
 21
473.0555402295
 31
0.0
  0
LINE
  5
20A
330
203
100
AcDbEntity
  8
DV2_Default
  6
Continuous
 62
     7
100
AcDbLine
 10
457.0896435268
 20
473.0555402295
 30
0.0
 11
458.2962362783
 21
473.0555402295
 31
0.0
  0
LINE
  5
20B
330
203
100
AcDbEntity
  8
DV2_Default
  6
Continuous
 62
     7
100
AcDbLine
 10
458.2962362783
 20
473.0555402295
 30
0.0
 11
458.2963279607
 21
473.0555402295
 31
0.0
  0
LINE
  5
20C
330
203
100
AcDbEntity
  8
DV2_Default
  6
Continuous
 62
     7
100
AcDbLine
 10
458.2963279607
 20
473.0555402295
 30
0.0
 11
459.6487576627
 21
473.0555402295
 31
0.0
  0
LINE
  5
20D
330
203
100
AcDbEntity
  8
DV2_Default
  6
Continuous
 62
     7
100
AcDbLine
 10
459.6487576627
 20
473.0555402295
 30
0.0
 11
459.7433287601
 21
473.0555402295
 31
0.0
  0
LINE
  5
20E
330
203
100
AcDbEntity
  8
DV2_Default
  6
Continuous
 62
     7
100
AcDbLine
 10
459.7433287601
 20
473.0555402295
 30
0.0
 11
459.7434355358
 21
473.0555402295
 31
0.0
  0
LINE
  5
20F
330
203
100
AcDbEntity
  8
DV2_Default
  6
Continuous
 62
     7
100
AcDbLine
 10
459.7434355358
 20
473.0555402295
 30
0.0
 11
461.058896693
 21
473.0555402295
 31
0.0
  0
LINE
  5
210
330
203
100
AcDbEntity
  8
DV2_Default
  6
Continuous
 62
     7
100
AcDbLine
 10
461.058896693
 20
473.0555402295
 30
0.0
 11
461.3868779961
 21
473.0555402295
 31
0.0
  0
LINE
  5
211
330
203
100
AcDbEntity
  8
DV2_Default
  6
Continuous
 62
     7
100
AcDbLine
 10
461.3868779961
 20
473.0555402295
 30
0.0
 11
461.3869966208
 21
473.0555402295
 31
0.0
  0
LINE
  5
212
330
203
100
AcDbEntity
  8
DV2_Default
  6
Continuous
 62
     7
100
AcDbLine
 10
461.3869966208
 20
473.0555402295
 30
0.0
 11
462.6255196116
 21
473.0555402295
 31
0.0
  0
LINE
  5
213
330
203
100
AcDbEntity
  8
DV2_Default
  6
Continuous
 62
     7
100
AcDbLine
 10
462.6255196116
 20
473.0555402295
 30
0.0
 11
463.1769455745
 21
473.0555402295
 31
0.0
  0
LINE
  5
214
330
203
100
AcDbEntity
  8
DV2_Default
  6
Continuous
 62
     7
100
AcDbLine
 10
463.1769455745
 20
473.0555402295
 30
0.0
 11
463.1770724438
 21
473.0555402295
 31
0.0
  0
LINE
  5
215
330
203
100
AcDbEntity
  8
DV2_Default
  6
Continuous
 62
     7
100
AcDbLine
 10
463.1770724438
 20
473.0555402295
 30
0.0
 11
464.3010253738
 21
473.0555402295
 31
0.0
  0
LINE
  5
216
330
203
100
AcDbEntity
  8
DV2_Default
  6
Continuous
 62
     7
100
AcDbLine
 10
464.3010253738
 20
473.0555402295
 30
0.0
 11
465.0591411976
 21
473.0555402295
 31
0.0
  0
LINE
  5
217
330
203
100
AcDbEntity
  8
DV2_Default
  6
Continuous
 62
     7
100
AcDbLine
 10
465.0591411976
 20
473.0555402295
 30
0.0
 11
465.0592724566
 21
473.0555402295
 31
0.0
  0
LINE
  5
218
330
203
100
AcDbEntity
  8
DV2_Default
  6
Continuous
 62
     7
100
AcDbLine
 10
465.0592724566
 20
473.0555402295
 30
0.0
 11
466.0345045849
 21
473.0555402295
 31
0.0
  0
LINE
  5
219
330
203
100
AcDbEntity
  8
DV2_Default
  6
Continuous
 62
     7
100
AcDbLine
 10
466.0345045849
 20
473.0555402295
 30
0.0
 11
466.976275304
 21
473.0555402295
 31
0.0
  0
LINE
  5
21A
330
203
100
AcDbEntity
  8
DV2_Default
  6
Continuous
 62
     7
100
AcDbLine
 10
466.976275304
 20
473.0555402295
 30
0.0
 11
466.9764069645
 21
473.0555402295
 31
0.0
  0
LINE
  5
21B
330
203
100
AcDbEntity
  8
DV2_Default
  6
Continuous
 62
     7
100
AcDbLine
 10
466.9764069645
 20
473.0555402295
 30
0.0
 11
467.7732863562
 21
473.0555402295
 31
0.0
  0
LINE
  5
21C
330
203
100
AcDbEntity
  8
DV2_Default
  6
Continuous
 62
     7
100
AcDbLine
 10
467.7732863562
 20
473.0555402295
 30
0.0
 11
468.8700967438
 21
473.0555402295
 31
0.0
  0
LINE
  5
21D
330
203
100
AcDbEntity
  8
DV2_Default
  6
Continuous
 62
     7
100
AcDbLine
 10
468.8700967438
 20
473.0555402295
 30
0.0
 11
468.8702248054
 21
473.0555402295
 31
0.0
  0
LINE
  5
21E
330
203
100
AcDbEntity
  8
DV2_Default
  6
Continuous
 62
     7
100
AcDbLine
 10
468.8702248054
 20
473.0555402295
 30
0.0
 11
469.4645386835
 21
473.0555402295
 31
0.0
  0
LINE
  5
21F
330
203
100
AcDbEntity
  8
DV2_Default
  6
Continuous
 62
     7
100
AcDbLine
 10
469.4645386835
 20
473.0555402295
 30
0.0
 11
470.683062711
 21
473.0555402295
 31
0.0
  0
LINE
  5
220
330
203
100
AcDbEntity
  8
DV2_Default
  6
Continuous
 62
     7
100
AcDbLine
 10
470.683062711
 20
473.0555402295
 30
0.0
 11
470.6831832826
 21
473.0555402295
 31
0.0
  0
LINE
  5
221
330
203
100
AcDbEntity
  8
DV2_Default
  6
Continuous
 62
     7
100
AcDbLine
 10
470.6831832826
 20
473.0555402295
 30
0.0
 11
471.0568737207
 21
473.0555402295
 31
0.0
  0
LINE
  5
222
330
203
100
AcDbEntity
  8
DV2_Default
  6
Continuous
 62
     7
100
AcDbLine
 10
471.0568737207
 20
473.0555402295
 30
0.0
 11
472.3600871521
 21
473.0555402295
 31
0.0
  0
LINE
  5
223
330
203
100
AcDbEntity
  8
DV2_Default
  6
Continuous
 62
     7
100
AcDbLine
 10
472.3600871521
 20
473.0555402295
 30
0.0
 11
472.3601965701
 21
473.0555402295
 31
0.0
  0
LINE
  5
224
330
203
100
AcDbEntity
  8
DV2_Default
  6
Continuous
 62
     7
100
AcDbLine
 10
472.3601965701
 20
473.0555402295
 30
0.0
 11
472.5019091734
 21
473.0555402295
 31
0.0
  0
LINE
  5
225
330
203
100
AcDbEntity
  8
DV2_Default
  6
Continuous
 62
     7
100
AcDbLine
 10
472.5019091734
 20
473.0555402295
 30
0.0
 11
473.850214528
 21
473.0555402295
 31
0.0
  0
LINE
  5
226
330
203
100
AcDbEntity
  8
DV2_Default
  6
Continuous
 62
     7
100
AcDbLine
 10
473.850214528
 20
473.0555402295
 30
0.0
 11
473.8503094679
 21
473.0555402295
 31
0.0
  0
LINE
  5
227
330
203
100
AcDbEntity
  8
DV2_Default
  6
Continuous
 62
     7
100
AcDbLine
 10
473.8503094679
 20
473.0555402295
 30
0.0
 11
475.1081680725
 21
473.0555402295
 31
0.0
  0
LINE
  5
228
330
203
100
AcDbEntity
  8
DV2_Default
  6
Continuous
 62
     7
100
AcDbLine
 10
475.1081680725
 20
473.0555402295
 30
0.0
 11
475.1082456496
 21
473.0555402295
 31
0.0
  0
LINE
  5
229
330
203
100
AcDbEntity
  8
DV2_Default
  6
Continuous
 62
     7
100
AcDbLine
 10
475.1082456496
 20
473.0555402295
 30
0.0
 11
476.0957255036
 21
473.0555402295
 31
0.0
  0
LINE
  5
22A
330
203
100
AcDbEntity
  8
DV2_Default
  6
Continuous
 62
     7
100
AcDbLine
 10
476.0957255036
 20
473.0555402295
 30
0.0
 11
476.0957833607
 21
473.0555402295
 31
0.0
  0
LINE
  5
22B
330
203
100
AcDbEntity
  8
DV2_Default
  6
Continuous
 62
     7
100
AcDbLine
 10
476.0957833607
 20
473.0555402295
 30
0.0
 11
476.7828803886
 21
473.0555402295
 31
0.0
  0
LINE
  5
22C
330
203
100
AcDbEntity
  8
DV2_Default
  6
Continuous
 62
     7
100
AcDbLine
 10
476.7828803886
 20
473.0555402295
 30
0.0
 11
476.7829167678
 21
473.0555402295
 31
0.0
  0
LINE
  5
22D
330
203
100
AcDbEntity
  8
DV2_Default
  6
Continuous
 62
     7
100
AcDbLine
 10
476.7829167678
 20
473.0555402295
 30
0.0
 11
477.148753874
 21
473.0555402295
 31
0.0
  0
LINE
  5
22E
330
203
100
AcDbEntity
  8
DV2_Default
  6
Continuous
 62
     7
100
AcDbLine
 10
477.148753874
 20
473.0555402295
 30
0.0
 11
477.1487676698
 21
473.0555402295
 31
0.0
  0
LINE
  5
22F
330
203
100
AcDbEntity
  8
DV2_Default
  6
Continuous
 62
     7
100
AcDbLine
 10
465.0592724566
 20
462.6355402295
 30
0.0
 11
465.0592724566
 21
473.0555402295
 31
0.0
  0
LINE
  5
230
330
203
100
AcDbEntity
  8
DV2_Default
  6
Continuous
 62
     7
100
AcDbLine
 10
466.0345045849
 20
462.6355402295
 30
0.0
 11
466.0345045849
 21
473.0555402295
 31
0.0
  0
LINE
  5
231
330
203
100
AcDbEntity
  8
DV2_Default
  6
Continuous
 62
     7
100
AcDbLine
 10
466.976275304
 20
462.6355402295
 30
0.0
 11
466.976275304
 21
473.0555402295
 31
0.0
  0
LINE
  5
232
330
203
100
AcDbEntity
  8
DV2_Default
  6
Continuous
 62
     7
100
AcDbLine
 10
463.1770724438
 20
462.6355402295
 30
0.0
 11
463.1770724438
 21
473.0555402295
 31
0.0
  0
LINE
  5
233
330
203
100
AcDbEntity
  8
DV2_Default
  6
Continuous
 62
     7
100
AcDbLine
 10
464.3010253738
 20
462.6355402295
 30
0.0
 11
464.3010253738
 21
473.0555402295
 31
0.0
  0
LINE
  5
234
330
203
100
AcDbEntity
  8
DV2_Default
  6
Continuous
 62
     7
100
AcDbLine
 10
465.0591411976
 20
462.6355402295
 30
0.0
 11
465.0591411976
 21
473.0555402295
 31
0.0
  0
LINE
  5
235
330
203
100
AcDbEntity
  8
DV2_Default
  6
Continuous
 62
     7
100
AcDbLine
 10
461.3869966208
 20
462.6355402295
 30
0.0
 11
461.3869966208
 21
473.0555402295
 31
0.0
  0
LINE
  5
236
330
203
100
AcDbEntity
  8
DV2_Default
  6
Continuous
 62
     7
100
AcDbLine
 10
462.6255196116
 20
462.6355402295
 30
0.0
 11
462.6255196116
 21
473.0555402295
 31
0.0
  0
LINE
  5
237
330
203
100
AcDbEntity
  8
DV2_Default
  6
Continuous
 62
     7
100
AcDbLine
 10
463.1769455745
 20
462.6355402295
 30
0.0
 11
463.1769455745
 21
473.0555402295
 31
0.0
  0
LINE
  5
238
330
203
100
AcDbEntity
  8
DV2_Default
  6
Continuous
 62
     7
100
AcDbLine
 10
459.7434355358
 20
462.6355402295
 30
0.0
 11
459.7434355358
 21
473.0555402295
 31
0.0
  0
LINE
  5
239
330
203
100
AcDbEntity
  8
DV2_Default
  6
Continuous
 62
     7
100
AcDbLine
 10
461.058896693
 20
462.6355402295
 30
0.0
 11
461.058896693
 21
473.0555402295
 31
0.0
  0
LINE
  5
23A
330
203
100
AcDbEntity
  8
DV2_Default
  6
Continuous
 62
     7
100
AcDbLine
 10
461.3868779961
 20
462.6355402295
 30
0.0
 11
461.3868779961
 21
473.0555402295
 31
0.0
  0
LINE
  5
23B
330
203
100
AcDbEntity
  8
DV2_Default
  6
Continuous
 62
     7
100
AcDbLine
 10
458.2963279607
 20
462.6355402295
 30
0.0
 11
458.2963279607
 21
473.0555402295
 31
0.0
  0
LINE
  5
23C
330
203
100
AcDbEntity
  8
DV2_Default
  6
Continuous
 62
     7
100
AcDbLine
 10
459.6487576627
 20
462.6355402295
 30
0.0
 11
459.6487576627
 21
473.0555402295
 31
0.0
  0
LINE
  5
23D
330
203
100
AcDbEntity
  8
DV2_Default
  6
Continuous
 62
     7
100
AcDbLine
 10
459.7433287601
 20
462.6355402295
 30
0.0
 11
459.7433287601
 21
473.0555402295
 31
0.0
  0
LINE
  5
23E
330
203
100
AcDbEntity
  8
DV2_Default
  6
Continuous
 62
     7
100
AcDbLine
 10
457.0896435268
 20
462.6355402295
 30
0.0
 11
457.0896435268
 21
473.0555402295
 31
0.0
  0
LINE
  5
23F
330
203
100
AcDbEntity
  8
DV2_Default
  6
Continuous
 62
     7
100
AcDbLine
 10
458.2962362783
 20
462.6355402295
 30
0.0
 11
458.2962362783
 21
473.0555402295
 31
0.0
  0
LINE
  5
240
330
203
100
AcDbEntity
  8
DV2_Default
  6
Continuous
 62
     7
100
AcDbLine
 10
456.1600467301
 20
462.6355402295
 30
0.0
 11
456.1600467301
 21
473.0555402295
 31
0.0
  0
LINE
  5
241
330
203
100
AcDbEntity
  8
DV2_Default
  6
Continuous
 62
     7
100
AcDbLine
 10
457.0895697234
 20
462.6355402295
 30
0.0
 11
457.0895697234
 21
473.0555402295
 31
0.0
  0
LINE
  5
242
330
203
100
AcDbEntity
  8
DV2_Default
  6
Continuous
 62
     7
100
AcDbLine
 10
456.1599930482
 20
462.6355402295
 30
0.0
 11
456.1599930482
 21
473.0555402295
 31
0.0
  0
LINE
  5
243
330
203
100
AcDbEntity
  8
DV2_Default
  6
Continuous
 62
     7
100
AcDbLine
 10
455.2692721763
 20
462.6355402295
 30
0.0
 11
455.2692721763
 21
473.0555402295
 31
0.0
  0
LINE
  5
244
330
203
100
AcDbEntity
  8
DV2_Default
  6
Continuous
 62
     7
100
AcDbLine
 10
477.1487676698
 20
462.6355402295
 30
0.0
 11
477.1487676698
 21
473.0555402295
 31
0.0
  0
LINE
  5
245
330
203
100
AcDbEntity
  8
DV2_Default
  6
Continuous
 62
     7
100
AcDbLine
 10
476.7829167678
 20
462.6355402295
 30
0.0
 11
476.7829167678
 21
473.0555402295
 31
0.0
  0
LINE
  5
246
330
203
100
AcDbEntity
  8
DV2_Default
  6
Continuous
 62
     7
100
AcDbLine
 10
477.148753874
 20
462.6355402295
 30
0.0
 11
477.148753874
 21
473.0555402295
 31
0.0
  0
LINE
  5
247
330
203
100
AcDbEntity
  8
DV2_Default
  6
Continuous
 62
     7
100
AcDbLine
 10
476.0957833607
 20
462.6355402295
 30
0.0
 11
476.0957833607
 21
473.0555402295
 31
0.0
  0
LINE
  5
248
330
203
100
AcDbEntity
  8
DV2_Default
  6
Continuous
 62
     7
100
AcDbLine
 10
476.7828803886
 20
462.6355402295
 30
0.0
 11
476.7828803886
 21
473.0555402295
 31
0.0
  0
LINE
  5
249
330
203
100
AcDbEntity
  8
DV2_Default
  6
Continuous
 62
     7
100
AcDbLine
 10
475.1082456496
 20
462.6355402295
 30
0.0
 11
475.1082456496
 21
473.0555402295
 31
0.0
  0
LINE
  5
24A
330
203
100
AcDbEntity
  8
DV2_Default
  6
Continuous
 62
     7
100
AcDbLine
 10
476.0957255036
 20
462.6355402295
 30
0.0
 11
476.0957255036
 21
473.0555402295
 31
0.0
  0
LINE
  5
24B
330
203
100
AcDbEntity
  8
DV2_Default
  6
Continuous
 62
     7
100
AcDbLine
 10
473.8503094679
 20
462.6355402295
 30
0.0
 11
473.8503094679
 21
473.0555402295
 31
0.0
  0
LINE
  5
24C
330
203
100
AcDbEntity
  8
DV2_Default
  6
Continuous
 62
     7
100
AcDbLine
 10
475.1081680725
 20
462.6355402295
 30
0.0
 11
475.1081680725
 21
473.0555402295
 31
0.0
  0
LINE
  5
24D
330
203
100
AcDbEntity
  8
DV2_Default
  6
Continuous
 62
     7
100
AcDbLine
 10
472.3601965701
 20
462.6355402295
 30
0.0
 11
472.3601965701
 21
473.0555402295
 31
0.0
  0
LINE
  5
24E
330
203
100
AcDbEntity
  8
DV2_Default
  6
Continuous
 62
     7
100
AcDbLine
 10
472.5019091734
 20
462.6355402295
 30
0.0
 11
472.5019091734
 21
473.0555402295
 31
0.0
  0
LINE
  5
24F
330
203
100
AcDbEntity
  8
DV2_Default
  6
Continuous
 62
     7
100
AcDbLine
 10
473.850214528
 20
462.6355402295
 30
0.0
 11
473.850214528
 21
473.0555402295
 31
0.0
  0
LINE
  5
250
330
203
100
AcDbEntity
  8
DV2_Default
  6
Continuous
 62
     7
100
AcDbLine
 10
470.6831832826
 20
462.6355402295
 30
0.0
 11
470.6831832826
 21
473.0555402295
 31
0.0
  0
LINE
  5
251
330
203
100
AcDbEntity
  8
DV2_Default
  6
Continuous
 62
     7
100
AcDbLine
 10
471.0568737207
 20
462.6355402295
 30
0.0
 11
471.0568737207
 21
473.0555402295
 31
0.0
  0
LINE
  5
252
330
203
100
AcDbEntity
  8
DV2_Default
  6
Continuous
 62
     7
100
AcDbLine
 10
472.3600871521
 20
462.6355402295
 30
0.0
 11
472.3600871521
 21
473.0555402295
 31
0.0
  0
LINE
  5
253
330
203
100
AcDbEntity
  8
DV2_Default
  6
Continuous
 62
     7
100
AcDbLine
 10
468.8702248054
 20
462.6355402295
 30
0.0
 11
468.8702248054
 21
473.0555402295
 31
0.0
  0
LINE
  5
254
330
203
100
AcDbEntity
  8
DV2_Default
  6
Continuous
 62
     7
100
AcDbLine
 10
469.4645386835
 20
462.6355402295
 30
0.0
 11
469.4645386835
 21
473.0555402295
 31
0.0
  0
LINE
  5
255
330
203
100
AcDbEntity
  8
DV2_Default
  6
Continuous
 62
     7
100
AcDbLine
 10
470.683062711
 20
462.6355402295
 30
0.0
 11
470.683062711
 21
473.0555402295
 31
0.0
  0
LINE
  5
256
330
203
100
AcDbEntity
  8
DV2_Default
  6
Continuous
 62
     7
100
AcDbLine
 10
466.9764069645
 20
462.6355402295
 30
0.0
 11
466.9764069645
 21
473.0555402295
 31
0.0
  0
LINE
  5
257
330
203
100
AcDbEntity
  8
DV2_Default
  6
Continuous
 62
     7
100
AcDbLine
 10
467.7732863562
 20
462.6355402295
 30
0.0
 11
467.7732863562
 21
473.0555402295
 31
0.0
  0
LINE
  5
258
330
203
100
AcDbEntity
  8
DV2_Default
  6
Continuous
 62
     7
100
AcDbLine
 10
468.8700967438
 20
462.6355402295
 30
0.0
 11
468.8700967438
 21
473.0555402295
 31
0.0
  0
LINE
  5
259
330
203
100
AcDbEntity
  8
DV2_Default
  6
Continuous
 62
     7
100
AcDbLine
 10
704.5358066948
 20
600.0141160906
 30
0.0
 11
699.9918180562
 21
599.4561844407
 31
0.0
  0
LINE
  5
25A
330
203
100
AcDbEntity
  8
DV2_Default
  6
Continuous
 62
     7
100
AcDbLine
 10
707.9455675167
 20
600.432782076
 30
0.0
 11
708.2444745161
 21
600.4694832406
 31
0.0
  0
LINE
  5
25B
330
203
100
AcDbEntity
  8
DV2_Default
  6
Continuous
 62
     7
100
AcDbLine
 10
693.1722964125
 20
598.61885247
 30
0.0
 11
688.6283077738
 21
598.0609208201
 31
0.0
  0
LINE
  5
25C
330
203
100
AcDbEntity
  8
DV2_Default
  6
Continuous
 62
     7
100
AcDbLine
 10
685.2185469519
 20
597.6422548348
 30
0.0
 11
684.9196399526
 21
597.6055536701
 31
0.0
  0
LINE
  5
25D
330
203
100
AcDbEntity
  8
DV2_Default
  6
Continuous
 62
     7
100
AcDbLine
 10
433.7090199231
 20
445.9355402295
 30
0.0
 11
498.7090199231
 21
445.9355402295
 31
0.0
  0
LINE
  5
25E
330
203
100
AcDbEntity
  8
DV2_Default
  6
Continuous
 62
     7
100
AcDbLine
 10
498.2090199231
 20
453.6355402295
 30
0.0
 11
434.2090199231
 21
453.6355402295
 31
0.0
  0
LINE
  5
25F
330
203
100
AcDbEntity
  8
DV2_Default
  6
Continuous
 62
     7
100
AcDbLine
 10
479.7090199231
 20
455.2128904987
 30
0.0
 11
452.7090199231
 21
455.2128904987
 31
0.0
  0
LINE
  5
260
330
203
100
AcDbEntity
  8
DV2_Default
  6
Continuous
 62
     7
100
AcDbLine
 10
478.7090199231
 20
462.6355402295
 30
0.0
 11
453.7090199231
 21
462.6355402295
 31
0.0
  0
LINE
  5
261
330
203
100
AcDbEntity
  8
DV2_Default
  6
Continuous
 62
     7
100
AcDbLine
 10
452.7090199231
 20
461.6355402295
 30
0.0
 11
479.7090199231
 21
461.6355402295
 31
0.0
  0
ARC
  5
262
330
203
100
AcDbEntity
  8
DV2_Default
  6
Continuous
 62
     7
100
AcDbCircle
 10
402.2628571157
 20
448.9355402307
 30
0.0
 40
31.51761089135855
100
AcDbArc
 50
356.1413258486
 51
3.8586763743
  0
ARC
  5
263
330
203
100
AcDbEntity
  8
DV2_Default
  6
Continuous
 62
     7
100
AcDbCircle
 10
498.2090199231
 20
453.1355402295
 30
0.0
 40
0.5000000000000004
100
AcDbArc
 50
0.0
 51
90.0
  0
ARC
  5
264
330
203
100
AcDbEntity
  8
DV2_Default
  6
Continuous
 62
     7
100
AcDbCircle
 10
434.2090199231
 20
453.1355402295
 30
0.0
 40
0.5000000000000004
100
AcDbArc
 50
90.0
 51
180.0
  0
LINE
  5
265
330
203
100
AcDbEntity
  8
DV2_Default
  6
Continuous
 62
     7
100
AcDbLine
 10
452.7090199231
 20
461.6355402295
 30
0.0
 11
452.7090199231
 21
455.2128904987
 31
0.0
  0
LINE
  5
266
330
203
100
AcDbEntity
  8
DV2_Default
  6
Continuous
 62
     7
100
AcDbLine
 10
479.7090199231
 20
455.2128904987
 30
0.0
 11
479.7090199231
 21
461.6355402295
 31
0.0
  0
LINE
  5
267
330
203
100
AcDbEntity
  8
DV2_Default
  6
Continuous
 62
     7
100
AcDbLine
 10
452.7090199231
 20
455.2128904987
 30
0.0
 11
453.6090199231
 21
454.6932752564
 31
0.0
  0
LINE
  5
268
330
203
100
AcDbEntity
  8
DV2_Default
  6
Continuous
 62
     7
100
AcDbLine
 10
478.8090199231
 20
454.6932752564
 30
0.0
 11
479.7090199231
 21
455.2128904987
 31
0.0
  0
LINE
  5
269
330
203
100
AcDbEntity
  8
DV2_Default
  6
Continuous
 62
     7
100
AcDbLine
 10
453.7090199231
 20
454.5200701756
 30
0.0
 11
453.7090199231
 21
453.8355402295
 31
0.0
  0
LINE
  5
26A
330
203
100
AcDbEntity
  8
DV2_Default
  6
Continuous
 62
     7
100
AcDbLine
 10
478.7090199231
 20
453.8355402295
 30
0.0
 11
478.7090199231
 21
454.5200701756
 31
0.0
  0
ARC
  5
26B
330
203
100
AcDbEntity
  8
DV2_Default
  6
Continuous
 62
     7
100
AcDbCircle
 10
453.5090199231
 20
454.5200701756
 30
0.0
 40
0.2000000000000016
100
AcDbArc
 50
0.0
 51
60.0
  0
ARC
  5
26C
330
203
100
AcDbEntity
  8
DV2_Default
  6
Continuous
 62
     7
100
AcDbCircle
 10
478.9090199231
 20
454.5200701756
 30
0.0
 40
0.2000000000000005
100
AcDbArc
 50
120.0
 51
180.0
  0
ARC
  5
26D
330
203
100
AcDbEntity
  8
DV2_Default
  6
Continuous
 62
     7
100
AcDbCircle
 10
478.9090199231
 20
453.8355402295
 30
0.0
 40
0.1999999999999997
100
AcDbArc
 50
180.0
 51
270.0
  0
ARC
  5
26E
330
203
100
AcDbEntity
  8
DV2_Default
  6
Continuous
 62
     7
100
AcDbCircle
 10
453.5090199231
 20
453.8355402295
 30
0.0
 40
0.2000000000000005
100
AcDbArc
 50
270.0
 51
0.0
  0
LINE
  5
26F
330
203
100
AcDbEntity
  8
DV2_Default
  6
Continuous
 62
     7
100
AcDbLine
 10
479.7090199231
 20
461.6355402295
 30
0.0
 11
478.7090199231
 21
462.6355402295
 31
0.0
  0
LINE
  5
270
330
203
100
AcDbEntity
  8
DV2_Default
  6
Continuous
 62
     7
100
AcDbLine
 10
453.7090199231
 20
462.6355402295
 30
0.0
 11
452.7090199231
 21
461.6355402295
 31
0.0
  0
LINE
  5
271
330
203
100
AcDbEntity
  8
DV2_Default
  6
Continuous
 62
     7
100
AcDbLine
 10
498.7090199231
 20
445.9355402295
 30
0.0
 11
498.7090199231
 21
453.1355402295
 31
0.0
  0
LINE
  5
272
330
203
100
AcDbEntity
  8
DV2_Default
  6
Continuous
 62
     7
100
AcDbLine
 10
433.7090199231
 20
446.8149999116
 30
0.0
 11
433.7090199231
 21
445.9355402295
 31
0.0
  0
LINE
  5
273
330
203
100
AcDbEntity
  8
DV2_Default
  6
Continuous
 62
     7
100
AcDbLine
 10
433.7090199231
 20
453.1355402295
 30
0.0
 11
433.7090199231
 21
451.0565402295
 31
0.0
  0
LINE
  5
274
330
203
100
AcDbEntity
  8
DV2_Default
  6
Continuous
 62
     7
100
AcDbLine
 10
478.7890199231
 20
462.5555402295
 30
0.0
 11
478.7890199231
 21
455.2128904987
 31
0.0
  0
LINE
  5
275
330
203
100
AcDbEntity
  8
DV2_Default
  6
Continuous
 62
     7
100
AcDbLine
 10
453.6290199231
 20
462.5555402295
 30
0.0
 11
453.6290199231
 21
455.2128904987
 31
0.0
  0
LINE
  5
276
330
203
100
AcDbEntity
  8
DV2_Default
  6
Continuous
 62
     7
100
AcDbLine
 10
433.7090199231
 20
451.0565402295
 30
0.0
 11
433.7090199231
 21
446.8149999116
 31
0.0
  0
LINE
  5
277
330
203
100
AcDbEntity
  8
DV2_Default
  6
Continuous
 62
     7
100
AcDbLine
 10
681.6601950205
 20
602.2428931995
 30
0.0
 11
710.2852260338
 21
605.757605064
 31
0.0
  0
LINE
  5
278
330
203
100
AcDbEntity
  8
DV2_Default
  6
Continuous
 62
     7
100
AcDbLine
 10
710.3548801785
 20
605.8467583036
 30
0.0
 11
709.7565718797
 21
610.7195883586
 31
0.0
  0
LINE
  5
279
330
203
100
AcDbEntity
  8
DV2_Default
  6
Continuous
 62
     7
100
AcDbLine
 10
680.9727334822
 20
607.1853773991
 30
0.0
 11
681.5710417809
 21
602.3125473442
 31
0.0
  0
ARC
  5
27A
330
203
100
AcDbEntity
  8
DV2_Default
  6
Continuous
 62
     7
100
AcDbCircle
 10
581.2133388912
 20
594.9364639348
 30
0.0
 40
100.5085702326423
100
AcDbArc
 50
7.000000002
 51
179.9999999993
  0
ARC
  5
27B
330
203
100
AcDbEntity
  8
DV2_Default
  6
Continuous
 62
     7
100
AcDbCircle
 10
581.2133388912
 20
594.9364639348
 30
0.0
 40
129.5085702326431
100
AcDbArc
 50
7.0000000019
 51
179.9999999994
  0
LINE
  5
27C
330
203
100
AcDbEntity
  8
DV2_Default
  6
Continuous
 62
     7
100
AcDbLine
 10
451.7047686586
 20
594.9364639361
 30
0.0
 11
451.7047686584
 21
453.6355402295
 31
0.0
  0
LINE
  5
27D
330
203
100
AcDbEntity
  8
DV2_Default
  6
Continuous
 62
     7
100
AcDbLine
 10
480.7047686584
 20
453.6355402295
 30
0.0
 11
480.7047686586
 21
594.9364639361
 31
0.0
  0
LINE
  5
27E
330
203
100
AcDbEntity
  8
DV2_Default
  6
Continuous
 62
     7
100
AcDbLine
 10
710.5372564398
 20
600.7510067413
 30
0.0
 11
682.6268592943
 21
597.3240356037
 31
0.0
  0
LINE
  5
27F
330
203
100
AcDbEntity
  8
DV2_Default
  6
Continuous
 62
     7
100
AcDbLine
 10
710.9203541441
 20
601.2413496305
 30
0.0
 11
710.3743793163
 21
605.6879509187
 31
0.0
  0
LINE
  5
280
330
203
100
AcDbEntity
  8
DV2_Default
  6
Continuous
 62
     7
100
AcDbLine
 10
681.5905409198
 20
602.1537399507
 30
0.0
 11
682.1365164051
 21
597.7071333079
 31
0.0
  0
ARC
  5
281
330
203
100
AcDbEntity
  8
DV2_Default
  6
Continuous
 62
     7
100
AcDbCircle
 10
710.4836338473
 20
601.187727038
 30
0.0
 40
0.4399999999999837
100
AcDbArc
 50
277.000010677
 51
7.000010677
  0
ARC
  5
282
330
203
100
AcDbEntity
  8
DV2_Default
  6
Continuous
 62
     7
100
AcDbCircle
 10
682.5732367018
 20
597.7607559004
 30
0.0
 40
0.4400000000000079
100
AcDbArc
 50
187.000010677
 51
277.000010677
  0
ARC
  5
283
330
203
100
AcDbEntity
  8
DV2_Default
  6
Continuous
 62
     7
100
AcDbCircle
 10
681.6699446097
 20
602.1634895129
 30
0.0
 40
0.0799999995760299
100
AcDbArc
 50
97.0000301214
 51
187.0000106771
  0
ARC
  5
284
330
203
100
AcDbEntity
  8
DV2_Default
  6
Continuous
 62
     7
100
AcDbCircle
 10
681.6504454731
 20
602.3222968917
 30
0.0
 40
0.0799999999999704
100
AcDbArc
 50
187.0000000013
 51
277.0000000014
  0
ARC
  5
285
330
203
100
AcDbEntity
  8
DV2_Default
  6
Continuous
 62
     7
100
AcDbCircle
 10
710.2949755864
 20
605.6782013297
 30
0.0
 40
0.080000042479945
100
AcDbArc
 50
7.0000262603
 51
97.0000000013
  0
ARC
  5
286
330
203
100
AcDbEntity
  8
DV2_Default
  6
Continuous
 62
     7
100
AcDbCircle
 10
710.2754764863
 20
605.8370087561
 30
0.0
 40
0.0800000000001547
100
AcDbArc
 50
277.0000000014
 51
7.0000000013
  0
ENDBLK
  5
288
330
203
100
AcDbEntity
  8
0
100
AcDbBlockEnd
  0
BLOCK
  5
368
330
289
100
AcDbEntity
  8
0
100
AcDbBlockBegin
  2
SE2
 70
     0
 10
0.0
 20
0.0
 30
0.0
  3
SE2
  1
SE2
  0
LINE
  5
28C
330
289
100
AcDbEntity
  8
DV3_Default
  6
Continuous
 62
     7
100
AcDbLine
 10
35.7473970933
 20
360.4414651725
 30
0.0
 11
38.9021308385
 21
360.9411259111
 31
0.0
  0
ARC
  5
28D
330
289
100
AcDbEntity
  8
DV3_Default
  6
Continuous
 62
     7
100
AcDbCircle
 10
38.85
 20
351.061334221
 30
0.0
 40
11.00000000000001
100
AcDbArc
 50
333.9996562721
 51
334.0003437279
  0
LINE
  5
28E
330
289
100
AcDbEntity
  8
DV3_Default
  6
Continuous
 62
     7
100
AcDbLine
 10
48.7367634377
 20
346.2393109188
 30
0.0
 11
48.1853374748
 21
347.4778339095
 31
0.0
  0
LINE
  5
28F
330
289
100
AcDbEntity
  8
DV3_Default
  6
Continuous
 62
     7
100
AcDbLine
 10
48.1853374748
 20
347.4778339095
 30
0.0
 11
49.4238604655
 21
348.0292598724
 31
0.0
  0
ARC
  5
290
330
289
100
AcDbEntity
  8
DV3_Default
  6
Continuous
 62
     7
100
AcDbCircle
 10
38.85
 20
351.061334221
 30
0.0
 40
11.00000000000002
100
AcDbArc
 50
343.9996562721
 51
344.0003437279
  0
LINE
  5
291
330
289
100
AcDbEntity
  8
DV3_Default
  6
Continuous
 62
     7
100
AcDbLine
 10
49.4238968447
 20
348.0293867417
 30
0.0
 11
48.6657810209
 21
349.1533396717
 31
0.0
  0
LINE
  5
292
330
289
100
AcDbEntity
  8
DV3_Default
  6
Continuous
 62
     7
100
AcDbLine
 10
48.6657810209
 20
349.1533396717
 30
0.0
 11
49.7897339509
 21
349.9114554956
 31
0.0
  0
ARC
  5
293
330
289
100
AcDbEntity
  8
DV3_Default
  6
Continuous
 62
     7
100
AcDbCircle
 10
38.85
 20
351.061334221
 30
0.0
 40
11.00000000000005
100
AcDbArc
 50
353.9996562721
 51
354.0003437279
  0
LINE
  5
294
330
289
100
AcDbEntity
  8
DV3_Default
  6
Continuous
 62
     7
100
AcDbLine
 10
49.7897477468
 20
349.9115867546
 30
0.0
 11
48.8479770277
 21
350.8868188828
 31
0.0
  0
LINE
  5
295
330
289
100
AcDbEntity
  8
DV3_Default
  6
Continuous
 62
     7
100
AcDbLine
 10
48.8479770277
 20
350.8868188828
 30
0.0
 11
49.823209156
 21
351.8285896019
 31
0.0
  0
ARC
  5
296
330
289
100
AcDbEntity
  8
DV3_Default
  6
Continuous
 62
     7
100
AcDbCircle
 10
38.85
 20
351.061334221
 30
0.0
 40
11.00000000000002
100
AcDbArc
 50
3.9996562721
 51
4.0003437279
  0
LINE
  5
297
330
289
100
AcDbEntity
  8
DV3_Default
  6
Continuous
 62
     7
100
AcDbLine
 10
49.8231999494
 20
351.8287212625
 30
0.0
 11
48.7263895618
 21
352.6256006542
 31
0.0
  0
LINE
  5
298
330
289
100
AcDbEntity
  8
DV3_Default
  6
Continuous
 62
     7
100
AcDbLine
 10
48.7263895618
 20
352.6256006542
 30
0.0
 11
49.5232689535
 21
353.7224110418
 31
0.0
  0
ARC
  5
299
330
289
100
AcDbEntity
  8
DV3_Default
  6
Continuous
 62
     7
100
AcDbCircle
 10
38.85
 20
351.061334221
 30
0.0
 40
11.00000000000002
100
AcDbArc
 50
13.9996562721
 51
14.0003437279
  0
LINE
  5
29A
330
289
100
AcDbEntity
  8
DV3_Default
  6
Continuous
 62
     7
100
AcDbLine
 10
49.5232370242
 20
353.7225391034
 30
0.0
 11
48.3047129967
 21
354.3168529815
 31
0.0
  0
LINE
  5
29B
330
289
100
AcDbEntity
  8
DV3_Default
  6
Continuous
 62
     7
100
AcDbLine
 10
48.3047129967
 20
354.3168529815
 30
0.0
 11
48.8990268749
 21
355.535377009
 31
0.0
  0
ARC
  5
29C
330
289
100
AcDbEntity
  8
DV3_Default
  6
Continuous
 62
     7
100
AcDbCircle
 10
38.85
 20
351.061334221
 30
0.0
 40
11.00000000000004
100
AcDbArc
 50
23.9996562721
 51
24.0003437279
  0
LINE
  5
29D
330
289
100
AcDbEntity
  8
DV3_Default
  6
Continuous
 62
     7
100
AcDbLine
 10
48.8989731929
 20
355.5354975806
 30
0.0
 11
47.5957597615
 21
355.9091880187
 31
0.0
  0
LINE
  5
29E
330
289
100
AcDbEntity
  8
DV3_Default
  6
Continuous
 62
     7
100
AcDbLine
 10
47.5957597615
 20
355.9091880187
 30
0.0
 11
47.9694501996
 21
357.2124014501
 31
0.0
  0
ARC
  5
29F
330
289
100
AcDbEntity
  8
DV3_Default
  6
Continuous
 62
     7
100
AcDbCircle
 10
38.85
 20
351.061334221
 30
0.0
 40
11.00000000000002
100
AcDbArc
 50
33.9996562721
 51
34.0003437279
  0
LINE
  5
2A0
330
289
100
AcDbEntity
  8
DV3_Default
  6
Continuous
 62
     7
100
AcDbLine
 10
47.9693763962
 20
357.2125108681
 30
0.0
 11
46.6210710416
 21
357.3542234713
 31
0.0
  0
LINE
  5
2A1
330
289
100
AcDbEntity
  8
DV3_Default
  6
Continuous
 62
     7
100
AcDbLine
 10
46.6210710416
 20
357.3542234713
 30
0.0
 11
46.7627836448
 21
358.702528826
 31
0.0
  0
ARC
  5
2A2
330
289
100
AcDbEntity
  8
DV3_Default
  6
Continuous
 62
     7
100
AcDbCircle
 10
38.85
 20
351.061334221
 30
0.0
 40
11.0
100
AcDbArc
 50
43.9996562721
 51
44.0003437279
  0
LINE
  5
2A3
330
289
100
AcDbEntity
  8
DV3_Default
  6
Continuous
 62
     7
100
AcDbLine
 10
46.7626919624
 20
358.7026237659
 30
0.0
 11
45.4102622604
 21
358.6080526685
 31
0.0
  0
LINE
  5
2A4
330
289
100
AcDbEntity
  8
DV3_Default
  6
Continuous
 62
     7
100
AcDbLine
 10
45.4102622604
 20
358.6080526685
 30
0.0
 11
45.315691163
 21
359.9604823704
 31
0.0
  0
ARC
  5
2A5
330
289
100
AcDbEntity
  8
DV3_Default
  6
Continuous
 62
     7
100
AcDbCircle
 10
38.85
 20
351.061334221
 30
0.0
 40
11.0
100
AcDbArc
 50
53.9996562721
 51
54.0003437279
  0
LINE
  5
2A6
330
289
100
AcDbEntity
  8
DV3_Default
  6
Continuous
 62
     7
100
AcDbLine
 10
45.3155843872
 20
359.9605599475
 30
0.0
 11
44.0001232301
 21
359.6325786444
 31
0.0
  0
LINE
  5
2A7
330
289
100
AcDbEntity
  8
DV3_Default
  6
Continuous
 62
     7
100
AcDbLine
 10
44.0001232301
 20
359.6325786444
 30
0.0
 11
43.6721419269
 21
360.9480398016
 31
0.0
  0
ARC
  5
2A8
330
289
100
AcDbEntity
  8
DV3_Default
  6
Continuous
 62
     7
100
AcDbCircle
 10
38.85
 20
351.061334221
 30
0.0
 40
11.00000000000001
100
AcDbArc
 50
63.9996562721
 51
64.0003437279
  0
LINE
  5
2A9
330
289
100
AcDbEntity
  8
DV3_Default
  6
Continuous
 62
     7
100
AcDbLine
 10
43.6720233023
 20
360.9480976587
 30
0.0
 11
42.4335003115
 21
360.3966716958
 31
0.0
  0
LINE
  5
2AA
330
289
100
AcDbEntity
  8
DV3_Default
  6
Continuous
 62
     7
100
AcDbLine
 10
42.4335003115
 20
360.3966716958
 30
0.0
 11
41.8820743486
 21
361.6351946866
 31
0.0
  0
ARC
  5
2AB
330
289
100
AcDbEntity
  8
DV3_Default
  6
Continuous
 62
     7
100
AcDbCircle
 10
38.85
 20
351.061334221
 30
0.0
 40
11.00000000000001
100
AcDbArc
 50
73.9996562721
 51
74.0003437279
  0
LINE
  5
2AC
330
289
100
AcDbEntity
  8
DV3_Default
  6
Continuous
 62
     7
100
AcDbLine
 10
41.8819474793
 20
361.6352310657
 30
0.0
 11
40.7579945493
 21
360.8771152419
 31
0.0
  0
LINE
  5
2AD
330
289
100
AcDbEntity
  8
DV3_Default
  6
Continuous
 62
     7
100
AcDbLine
 10
40.7579945493
 20
360.8771152419
 30
0.0
 11
39.9998787254
 21
362.0010681719
 31
0.0
  0
ARC
  5
2AE
330
289
100
AcDbEntity
  8
DV3_Default
  6
Continuous
 62
     7
100
AcDbCircle
 10
38.85
 20
351.061334221
 30
0.0
 40
11.0
100
AcDbArc
 50
83.9996562721
 51
84.0003437279
  0
LINE
  5
2AF
330
289
100
AcDbEntity
  8
DV3_Default
  6
Continuous
 62
     7
100
AcDbLine
 10
39.9997474664
 20
362.0010819678
 30
0.0
 11
38.9021308385
 21
360.9411259111
 31
0.0
  0
LINE
  5
2B0
330
289
100
AcDbEntity
  8
DV3_Default
  6
Continuous
 62
     7
100
AcDbLine
 10
35.7473970933
 20
360.4414651725
 30
0.0
 11
34.375957212
 21
361.1103610959
 31
0.0
  0
ARC
  5
2B1
330
289
100
AcDbEntity
  8
DV3_Default
  6
Continuous
 62
     7
100
AcDbCircle
 10
38.85
 20
351.061334221
 30
0.0
 40
11.0
100
AcDbArc
 50
113.9996562721
 51
114.0003437279
  0
LINE
  5
2B2
330
289
100
AcDbEntity
  8
DV3_Default
  6
Continuous
 62
     7
100
AcDbLine
 10
34.3758366405
 20
361.1103074139
 30
0.0
 11
34.0021462023
 21
359.8070939826
 31
0.0
  0
LINE
  5
2B3
330
289
100
AcDbEntity
  8
DV3_Default
  6
Continuous
 62
     7
100
AcDbLine
 10
34.0021462023
 20
359.8070939826
 30
0.0
 11
32.698932771
 21
360.1807844207
 31
0.0
  0
ARC
  5
2B4
330
289
100
AcDbEntity
  8
DV3_Default
  6
Continuous
 62
     7
100
AcDbCircle
 10
38.85
 20
351.061334221
 30
0.0
 40
11.00000000000001
100
AcDbArc
 50
123.9996562721
 51
124.0003437279
  0
LINE
  5
2B5
330
289
100
AcDbEntity
  8
DV3_Default
  6
Continuous
 62
     7
100
AcDbLine
 10
32.6988233529
 20
360.1807106172
 30
0.0
 11
32.5571107497
 21
358.8324052626
 31
0.0
  0
LINE
  5
2B6
330
289
100
AcDbEntity
  8
DV3_Default
  6
Continuous
 62
     7
100
AcDbLine
 10
32.5571107497
 20
358.8324052626
 30
0.0
 11
31.2088053951
 21
358.9741178658
 31
0.0
  0
ARC
  5
2B7
330
289
100
AcDbEntity
  8
DV3_Default
  6
Continuous
 62
     7
100
AcDbCircle
 10
38.85
 20
351.061334221
 30
0.0
 40
10.99999999999997
100
AcDbArc
 50
133.9996562721
 51
134.0003437279
  0
LINE
  5
2B8
330
289
100
AcDbEntity
  8
DV3_Default
  6
Continuous
 62
     7
100
AcDbLine
 10
31.2087104551
 20
358.9740261834
 30
0.0
 11
31.3032815526
 21
357.6215964814
 31
0.0
  0
LINE
  5
2B9
330
289
100
AcDbEntity
  8
DV3_Default
  6
Continuous
 62
     7
100
AcDbLine
 10
31.3032815526
 20
357.6215964814
 30
0.0
 11
29.9508518506
 21
357.527025384
 31
0.0
  0
ARC
  5
2BA
330
289
100
AcDbEntity
  8
DV3_Default
  6
Continuous
 62
     7
100
AcDbCircle
 10
38.85
 20
351.061334221
 30
0.0
 40
10.99999999999999
100
AcDbArc
 50
143.9996562721
 51
144.0003437279
  0
LINE
  5
2BB
330
289
100
AcDbEntity
  8
DV3_Default
  6
Continuous
 62
     7
100
AcDbLine
 10
29.9507742735
 20
357.5269186083
 30
0.0
 11
30.2787555766
 21
356.2114574511
 31
0.0
  0
LINE
  5
2BC
330
289
100
AcDbEntity
  8
DV3_Default
  6
Continuous
 62
     7
100
AcDbLine
 10
30.2787555766
 20
356.2114574511
 30
0.0
 11
28.9632944194
 21
355.8834761479
 31
0.0
  0
ARC
  5
2BD
330
289
100
AcDbEntity
  8
DV3_Default
  6
Continuous
 62
     7
100
AcDbCircle
 10
38.85
 20
351.061334221
 30
0.0
 40
11.0
100
AcDbArc
 50
153.9996562721
 51
154.0003437279
  0
LINE
  5
2BE
330
289
100
AcDbEntity
  8
DV3_Default
  6
Continuous
 62
     7
100
AcDbLine
 10
28.9632365623
 20
355.8833575233
 30
0.0
 11
29.5146625252
 21
354.6448345325
 31
0.0
  0
LINE
  5
2BF
330
289
100
AcDbEntity
  8
DV3_Default
  6
Continuous
 62
     7
100
AcDbLine
 10
29.5146625252
 20
354.6448345325
 30
0.0
 11
28.2761395345
 21
354.0934085696
 31
0.0
  0
ARC
  5
2C0
330
289
100
AcDbEntity
  8
DV3_Default
  6
Continuous
 62
     7
100
AcDbCircle
 10
38.85
 20
351.061334221
 30
0.0
 40
11.00000000000001
100
AcDbArc
 50
163.9996562721
 51
164.0003437279
  0
LINE
  5
2C1
330
289
100
AcDbEntity
  8
DV3_Default
  6
Continuous
 62
     7
100
AcDbLine
 10
28.2761031553
 20
354.0932817003
 30
0.0
 11
29.0342189791
 21
352.9693287703
 31
0.0
  0
LINE
  5
2C2
330
289
100
AcDbEntity
  8
DV3_Default
  6
Continuous
 62
     7
100
AcDbLine
 10
29.0342189791
 20
352.9693287703
 30
0.0
 11
27.9102660491
 21
352.2112129464
 31
0.0
  0
ARC
  5
2C3
330
289
100
AcDbEntity
  8
DV3_Default
  6
Continuous
 62
     7
100
AcDbCircle
 10
38.85
 20
351.061334221
 30
0.0
 40
11.0
100
AcDbArc
 50
173.9996562721
 51
174.0003437279
  0
LINE
  5
2C4
330
289
100
AcDbEntity
  8
DV3_Default
  6
Continuous
 62
     7
100
AcDbLine
 10
27.9102522532
 20
352.2110816874
 30
0.0
 11
28.8520229723
 21
351.2358495592
 31
0.0
  0
LINE
  5
2C5
330
289
100
AcDbEntity
  8
DV3_Default
  6
Continuous
 62
     7
100
AcDbLine
 10
28.8520229723
 20
351.2358495592
 30
0.0
 11
27.876790844
 21
350.2940788401
 31
0.0
  0
ARC
  5
2C6
330
289
100
AcDbEntity
  8
DV3_Default
  6
Continuous
 62
     7
100
AcDbCircle
 10
38.85
 20
351.061334221
 30
0.0
 40
10.99999999999999
100
AcDbArc
 50
183.9996562721
 51
184.0003437279
  0
LINE
  5
2C7
330
289
100
AcDbEntity
  8
DV3_Default
  6
Continuous
 62
     7
100
AcDbLine
 10
27.8768000506
 20
350.2939471796
 30
0.0
 11
28.9736104382
 21
349.4970677878
 31
0.0
  0
LINE
  5
2C8
330
289
100
AcDbEntity
  8
DV3_Default
  6
Continuous
 62
     7
100
AcDbLine
 10
28.9736104382
 20
349.4970677878
 30
0.0
 11
28.1767310465
 21
348.4002574003
 31
0.0
  0
ARC
  5
2C9
330
289
100
AcDbEntity
  8
DV3_Default
  6
Continuous
 62
     7
100
AcDbCircle
 10
38.85
 20
351.061334221
 30
0.0
 40
10.99999999999996
100
AcDbArc
 50
193.9996562721
 51
194.0003437279
  0
LINE
  5
2CA
330
289
100
AcDbEntity
  8
DV3_Default
  6
Continuous
 62
     7
100
AcDbLine
 10
28.1767629758
 20
348.4001293387
 30
0.0
 11
29.3952870033
 21
347.8058154605
 31
0.0
  0
LINE
  5
2CB
330
289
100
AcDbEntity
  8
DV3_Default
  6
Continuous
 62
     7
100
AcDbLine
 10
29.3952870033
 20
347.8058154605
 30
0.0
 11
28.8009731251
 21
346.5872914331
 31
0.0
  0
ARC
  5
2CC
330
289
100
AcDbEntity
  8
DV3_Default
  6
Continuous
 62
     7
100
AcDbCircle
 10
38.85
 20
351.061334221
 30
0.0
 40
10.99999999999999
100
AcDbArc
 50
203.9996562721
 51
204.0003437279
  0
LINE
  5
2CD
330
289
100
AcDbEntity
  8
DV3_Default
  6
Continuous
 62
     7
100
AcDbLine
 10
28.8010268071
 20
346.5871708615
 30
0.0
 11
30.1042402385
 21
346.2134804234
 31
0.0
  0
LINE
  5
2CE
330
289
100
AcDbEntity
  8
DV3_Default
  6
Continuous
 62
     7
100
AcDbLine
 10
30.1042402385
 20
346.2134804234
 30
0.0
 11
29.7305498004
 21
344.910266992
 31
0.0
  0
ARC
  5
2CF
330
289
100
AcDbEntity
  8
DV3_Default
  6
Continuous
 62
     7
100
AcDbCircle
 10
38.85
 20
351.061334221
 30
0.0
 40
11.0
100
AcDbArc
 50
213.9996562721
 51
214.0003437279
  0
LINE
  5
2D0
330
289
100
AcDbEntity
  8
DV3_Default
  6
Continuous
 62
     7
100
AcDbLine
 10
29.7306236038
 20
344.9101575739
 30
0.0
 11
31.0789289584
 21
344.7684449707
 31
0.0
  0
LINE
  5
2D1
330
289
100
AcDbEntity
  8
DV3_Default
  6
Continuous
 62
     7
100
AcDbLine
 10
31.0789289584
 20
344.7684449707
 30
0.0
 11
30.9372163552
 21
343.4201396161
 31
0.0
  0
ARC
  5
2D2
330
289
100
AcDbEntity
  8
DV3_Default
  6
Continuous
 62
     7
100
AcDbCircle
 10
38.85
 20
351.061334221
 30
0.0
 40
10.99999999999999
100
AcDbArc
 50
223.9996562721
 51
224.0003437279
  0
LINE
  5
2D3
330
289
100
AcDbEntity
  8
DV3_Default
  6
Continuous
 62
     7
100
AcDbLine
 10
30.9373080376
 20
343.4200446761
 30
0.0
 11
32.2897377396
 21
343.5146157736
 31
0.0
  0
LINE
  5
2D4
330
289
100
AcDbEntity
  8
DV3_Default
  6
Continuous
 62
     7
100
AcDbLine
 10
32.2897377396
 20
343.5146157736
 30
0.0
 11
32.384308837
 21
342.1621860716
 31
0.0
  0
ARC
  5
2D5
330
289
100
AcDbEntity
  8
DV3_Default
  6
Continuous
 62
     7
100
AcDbCircle
 10
38.85
 20
351.061334221
 30
0.0
 40
10.99999999999999
100
AcDbArc
 50
233.9996562721
 51
234.0003437279
  0
LINE
  5
2D6
330
289
100
AcDbEntity
  8
DV3_Default
  6
Continuous
 62
     7
100
AcDbLine
 10
32.3844156128
 20
342.1621084945
 30
0.0
 11
33.6998767699
 21
342.4900897976
 31
0.0
  0
LINE
  5
2D7
330
289
100
AcDbEntity
  8
DV3_Default
  6
Continuous
 62
     7
100
AcDbLine
 10
33.6998767699
 20
342.4900897976
 30
0.0
 11
34.0278580731
 21
341.1746286405
 31
0.0
  0
ARC
  5
2D8
330
289
100
AcDbEntity
  8
DV3_Default
  6
Continuous
 62
     7
100
AcDbCircle
 10
38.85
 20
351.061334221
 30
0.0
 40
11.0
100
AcDbArc
 50
243.9996562721
 51
244.0003437279
  0
LINE
  5
2D9
330
289
100
AcDbEntity
  8
DV3_Default
  6
Continuous
 62
     7
100
AcDbLine
 10
34.0279766977
 20
341.1745707833
 30
0.0
 11
35.2664996885
 21
341.7259967463
 31
0.0
  0
LINE
  5
2DA
330
289
100
AcDbEntity
  8
DV3_Default
  6
Continuous
 62
     7
100
AcDbLine
 10
35.2664996885
 20
341.7259967463
 30
0.0
 11
35.8179256514
 21
340.4874737555
 31
0.0
  0
ARC
  5
2DB
330
289
100
AcDbEntity
  8
DV3_Default
  6
Continuous
 62
     7
100
AcDbCircle
 10
38.85
 20
351.061334221
 30
0.0
 40
11.0
100
AcDbArc
 50
253.9996562721
 51
254.0003437279
  0
LINE
  5
2DC
330
289
100
AcDbEntity
  8
DV3_Default
  6
Continuous
 62
     7
100
AcDbLine
 10
35.8180525207
 20
340.4874373763
 30
0.0
 11
36.9420054507
 21
341.2455532001
 31
0.0
  0
LINE
  5
2DD
330
289
100
AcDbEntity
  8
DV3_Default
  6
Continuous
 62
     7
100
AcDbLine
 10
36.9420054507
 20
341.2455532001
 30
0.0
 11
37.7001212746
 21
340.1216002701
 31
0.0
  0
ARC
  5
2DE
330
289
100
AcDbEntity
  8
DV3_Default
  6
Continuous
 62
     7
100
AcDbCircle
 10
38.85
 20
351.061334221
 30
0.0
 40
11.0
100
AcDbArc
 50
263.9996562721
 51
264.0003437279
  0
LINE
  5
2DF
330
289
100
AcDbEntity
  8
DV3_Default
  6
Continuous
 62
     7
100
AcDbLine
 10
37.7002525336
 20
340.1215864742
 30
0.0
 11
38.7978691615
 21
341.1815425309
 31
0.0
  0
LINE
  5
2E0
330
289
100
AcDbEntity
  8
DV3_Default
  6
Continuous
 62
     7
100
AcDbLine
 10
41.9526029067
 20
341.6812032695
 30
0.0
 11
43.324042788
 21
341.0123073462
 31
0.0
  0
ARC
  5
2E1
330
289
100
AcDbEntity
  8
DV3_Default
  6
Continuous
 62
     7
100
AcDbCircle
 10
38.85
 20
351.061334221
 30
0.0
 40
11.00000000000001
100
AcDbArc
 50
293.9996562721
 51
294.0003437279
  0
LINE
  5
2E2
330
289
100
AcDbEntity
  8
DV3_Default
  6
Continuous
 62
     7
100
AcDbLine
 10
43.3241633595
 20
341.0123610281
 30
0.0
 11
43.6978537977
 21
342.3155744595
 31
0.0
  0
LINE
  5
2E3
330
289
100
AcDbEntity
  8
DV3_Default
  6
Continuous
 62
     7
100
AcDbLine
 10
43.6978537977
 20
342.3155744595
 30
0.0
 11
45.001067229
 21
341.9418840214
 31
0.0
  0
ARC
  5
2E4
330
289
100
AcDbEntity
  8
DV3_Default
  6
Continuous
 62
     7
100
AcDbCircle
 10
38.85
 20
351.061334221
 30
0.0
 40
11.00000000000001
100
AcDbArc
 50
303.9996562721
 51
304.0003437279
  0
LINE
  5
2E5
330
289
100
AcDbEntity
  8
DV3_Default
  6
Continuous
 62
     7
100
AcDbLine
 10
45.0011766471
 20
341.9419578248
 30
0.0
 11
45.1428892503
 21
343.2902631794
 31
0.0
  0
LINE
  5
2E6
330
289
100
AcDbEntity
  8
DV3_Default
  6
Continuous
 62
     7
100
AcDbLine
 10
45.1428892503
 20
343.2902631794
 30
0.0
 11
46.4911946049
 21
343.1485505762
 31
0.0
  0
ARC
  5
2E7
330
289
100
AcDbEntity
  8
DV3_Default
  6
Continuous
 62
     7
100
AcDbCircle
 10
38.85
 20
351.061334221
 30
0.0
 40
11.00000000000002
100
AcDbArc
 50
313.9996562721
 51
314.0003437279
  0
LINE
  5
2E8
330
289
100
AcDbEntity
  8
DV3_Default
  6
Continuous
 62
     7
100
AcDbLine
 10
46.4912895449
 20
343.1486422586
 30
0.0
 11
46.3967184474
 21
344.5010719606
 31
0.0
  0
LINE
  5
2E9
330
289
100
AcDbEntity
  8
DV3_Default
  6
Continuous
 62
     7
100
AcDbLine
 10
46.3967184474
 20
344.5010719606
 30
0.0
 11
47.7491481494
 21
344.5956430581
 31
0.0
  0
ARC
  5
2EA
330
289
100
AcDbEntity
  8
DV3_Default
  6
Continuous
 62
     7
100
AcDbCircle
 10
38.85
 20
351.061334221
 30
0.0
 40
11.00000000000002
100
AcDbArc
 50
323.9996562721
 51
324.0003437279
  0
LINE
  5
2EB
330
289
100
AcDbEntity
  8
DV3_Default
  6
Continuous
 62
     7
100
AcDbLine
 10
47.7492257265
 20
344.5957498338
 30
0.0
 11
47.4212444234
 21
345.911210991
 31
0.0
  0
LINE
  5
2EC
330
289
100
AcDbEntity
  8
DV3_Default
  6
Continuous
 62
     7
100
AcDbLine
 10
47.4212444234
 20
345.911210991
 30
0.0
 11
48.7367055806
 21
346.2391922941
 31
0.0
  0
LINE
  5
2ED
330
289
100
AcDbEntity
  8
DV3_Default
  6
Continuous
 62
     7
100
AcDbLine
 10
41.9526029067
 20
341.6812032695
 30
0.0
 11
38.7978691615
 21
341.1815425309
 31
0.0
  0
CIRCLE
  5
2EE
330
289
100
AcDbEntity
  8
DV3_Default
  6
Continuous
 62
     7
100
AcDbCircle
 10
38.85
 20
351.061334221
 30
0.0
 40
7.41425263388427
  0
LINE
  5
2EF
330
289
100
AcDbEntity
  8
DV3_Default
  6
Continuous
 62
     7
100
AcDbLine
 10
335.7473970933
 20
360.4414651725
 30
0.0
 11
338.9021308385
 21
360.9411259111
 31
0.0
  0
ARC
  5
2F0
330
289
100
AcDbEntity
  8
DV3_Default
  6
Continuous
 62
     7
100
AcDbCircle
 10
338.85
 20
351.061334221
 30
0.0
 40
11.00000000000001
100
AcDbArc
 50
333.9996562721
 51
334.0003437279
  0
LINE
  5
2F1
330
289
100
AcDbEntity
  8
DV3_Default
  6
Continuous
 62
     7
100
AcDbLine
 10
348.7367634377
 20
346.2393109188
 30
0.0
 11
348.1853374748
 21
347.4778339095
 31
0.0
  0
LINE
  5
2F2
330
289
100
AcDbEntity
  8
DV3_Default
  6
Continuous
 62
     7
100
AcDbLine
 10
348.1853374748
 20
347.4778339095
 30
0.0
 11
349.4238604655
 21
348.0292598724
 31
0.0
  0
ARC
  5
2F3
330
289
100
AcDbEntity
  8
DV3_Default
  6
Continuous
 62
     7
100
AcDbCircle
 10
338.85
 20
351.061334221
 30
0.0
 40
11.0
100
AcDbArc
 50
343.9996562721
 51
344.0003437279
  0
LINE
  5
2F4
330
289
100
AcDbEntity
  8
DV3_Default
  6
Continuous
 62
     7
100
AcDbLine
 10
349.4238968447
 20
348.0293867417
 30
0.0
 11
348.6657810209
 21
349.1533396717
 31
0.0
  0
LINE
  5
2F5
330
289
100
AcDbEntity
  8
DV3_Default
  6
Continuous
 62
     7
100
AcDbLine
 10
348.6657810209
 20
349.1533396717
 30
0.0
 11
349.7897339509
 21
349.9114554956
 31
0.0
  0
ARC
  5
2F6
330
289
100
AcDbEntity
  8
DV3_Default
  6
Continuous
 62
     7
100
AcDbCircle
 10
338.85
 20
351.061334221
 30
0.0
 40
11.00000000000002
100
AcDbArc
 50
353.9996562721
 51
354.0003437279
  0
LINE
  5
2F7
330
289
100
AcDbEntity
  8
DV3_Default
  6
Continuous
 62
     7
100
AcDbLine
 10
349.7897477468
 20
349.9115867546
 30
0.0
 11
348.8479770277
 21
350.8868188828
 31
0.0
  0
LINE
  5
2F8
330
289
100
AcDbEntity
  8
DV3_Default
  6
Continuous
 62
     7
100
AcDbLine
 10
348.8479770277
 20
350.8868188828
 30
0.0
 11
349.823209156
 21
351.8285896019
 31
0.0
  0
ARC
  5
2F9
330
289
100
AcDbEntity
  8
DV3_Default
  6
Continuous
 62
     7
100
AcDbCircle
 10
338.85
 20
351.061334221
 30
0.0
 40
11.0
100
AcDbArc
 50
3.9996562721
 51
4.0003437279
  0
LINE
  5
2FA
330
289
100
AcDbEntity
  8
DV3_Default
  6
Continuous
 62
     7
100
AcDbLine
 10
349.8231999494
 20
351.8287212625
 30
0.0
 11
348.7263895618
 21
352.6256006542
 31
0.0
  0
LINE
  5
2FB
330
289
100
AcDbEntity
  8
DV3_Default
  6
Continuous
 62
     7
100
AcDbLine
 10
348.7263895618
 20
352.6256006542
 30
0.0
 11
349.5232689535
 21
353.7224110418
 31
0.0
  0
ARC
  5
2FC
330
289
100
AcDbEntity
  8
DV3_Default
  6
Continuous
 62
     7
100
AcDbCircle
 10
338.85
 20
351.061334221
 30
0.0
 40
11.00000000000002
100
AcDbArc
 50
13.9996562721
 51
14.0003437279
  0
LINE
  5
2FD
330
289
100
AcDbEntity
  8
DV3_Default
  6
Continuous
 62
     7
100
AcDbLine
 10
349.5232370242
 20
353.7225391034
 30
0.0
 11
348.3047129967
 21
354.3168529815
 31
0.0
  0
LINE
  5
2FE
330
289
100
AcDbEntity
  8
DV3_Default
  6
Continuous
 62
     7
100
AcDbLine
 10
348.3047129967
 20
354.3168529815
 30
0.0
 11
348.8990268749
 21
355.535377009
 31
0.0
  0
ARC
  5
2FF
330
289
100
AcDbEntity
  8
DV3_Default
  6
Continuous
 62
     7
100
AcDbCircle
 10
338.85
 20
351.061334221
 30
0.0
 40
11.00000000000004
100
AcDbArc
 50
23.9996562721
 51
24.0003437279
  0
LINE
  5
300
330
289
100
AcDbEntity
  8
DV3_Default
  6
Continuous
 62
     7
100
AcDbLine
 10
348.8989731929
 20
355.5354975806
 30
0.0
 11
347.5957597615
 21
355.9091880187
 31
0.0
  0
LINE
  5
301
330
289
100
AcDbEntity
  8
DV3_Default
  6
Continuous
 62
     7
100
AcDbLine
 10
347.5957597615
 20
355.9091880187
 30
0.0
 11
347.9694501996
 21
357.2124014501
 31
0.0
  0
ARC
  5
302
330
289
100
AcDbEntity
  8
DV3_Default
  6
Continuous
 62
     7
100
AcDbCircle
 10
338.85
 20
351.061334221
 30
0.0
 40
11.00000000000002
100
AcDbArc
 50
33.9996562721
 51
34.0003437279
  0
LINE
  5
303
330
289
100
AcDbEntity
  8
DV3_Default
  6
Continuous
 62
     7
100
AcDbLine
 10
347.9693763962
 20
357.2125108681
 30
0.0
 11
346.6210710416
 21
357.3542234713
 31
0.0
  0
LINE
  5
304
330
289
100
AcDbEntity
  8
DV3_Default
  6
Continuous
 62
     7
100
AcDbLine
 10
346.6210710416
 20
357.3542234713
 30
0.0
 11
346.7627836448
 21
358.702528826
 31
0.0
  0
ARC
  5
305
330
289
100
AcDbEntity
  8
DV3_Default
  6
Continuous
 62
     7
100
AcDbCircle
 10
338.85
 20
351.061334221
 30
0.0
 40
11.0
100
AcDbArc
 50
43.9996562721
 51
44.0003437279
  0
LINE
  5
306
330
289
100
AcDbEntity
  8
DV3_Default
  6
Continuous
 62
     7
100
AcDbLine
 10
346.7626919624
 20
358.7026237659
 30
0.0
 11
345.4102622604
 21
358.6080526685
 31
0.0
  0
LINE
  5
307
330
289
100
AcDbEntity
  8
DV3_Default
  6
Continuous
 62
     7
100
AcDbLine
 10
345.4102622604
 20
358.6080526685
 30
0.0
 11
345.315691163
 21
359.9604823704
 31
0.0
  0
ARC
  5
308
330
289
100
AcDbEntity
  8
DV3_Default
  6
Continuous
 62
     7
100
AcDbCircle
 10
338.85
 20
351.061334221
 30
0.0
 40
11.0
100
AcDbArc
 50
53.9996562721
 51
54.0003437279
  0
LINE
  5
309
330
289
100
AcDbEntity
  8
DV3_Default
  6
Continuous
 62
     7
100
AcDbLine
 10
345.3155843872
 20
359.9605599475
 30
0.0
 11
344.0001232301
 21
359.6325786444
 31
0.0
  0
LINE
  5
30A
330
289
100
AcDbEntity
  8
DV3_Default
  6
Continuous
 62
     7
100
AcDbLine
 10
344.0001232301
 20
359.6325786444
 30
0.0
 11
343.6721419269
 21
360.9480398016
 31
0.0
  0
ARC
  5
30B
330
289
100
AcDbEntity
  8
DV3_Default
  6
Continuous
 62
     7
100
AcDbCircle
 10
338.85
 20
351.061334221
 30
0.0
 40
11.00000000000001
100
AcDbArc
 50
63.9996562721
 51
64.0003437279
  0
LINE
  5
30C
330
289
100
AcDbEntity
  8
DV3_Default
  6
Continuous
 62
     7
100
AcDbLine
 10
343.6720233023
 20
360.9480976587
 30
0.0
 11
342.4335003115
 21
360.3966716958
 31
0.0
  0
LINE
  5
30D
330
289
100
AcDbEntity
  8
DV3_Default
  6
Continuous
 62
     7
100
AcDbLine
 10
342.4335003115
 20
360.3966716958
 30
0.0
 11
341.8820743486
 21
361.6351946866
 31
0.0
  0
ARC
  5
30E
330
289
100
AcDbEntity
  8
DV3_Default
  6
Continuous
 62
     7
100
AcDbCircle
 10
338.85
 20
351.061334221
 30
0.0
 40
11.00000000000001
100
AcDbArc
 50
73.9996562721
 51
74.0003437279
  0
LINE
  5
30F
330
289
100
AcDbEntity
  8
DV3_Default
  6
Continuous
 62
     7
100
AcDbLine
 10
341.8819474793
 20
361.6352310657
 30
0.0
 11
340.7579945493
 21
360.8771152419
 31
0.0
  0
LINE
  5
310
330
289
100
AcDbEntity
  8
DV3_Default
  6
Continuous
 62
     7
100
AcDbLine
 10
340.7579945493
 20
360.8771152419
 30
0.0
 11
339.9998787254
 21
362.0010681719
 31
0.0
  0
ARC
  5
311
330
289
100
AcDbEntity
  8
DV3_Default
  6
Continuous
 62
     7
100
AcDbCircle
 10
338.85
 20
351.061334221
 30
0.0
 40
11.00000000000001
100
AcDbArc
 50
83.9996562721
 51
84.0003437279
  0
LINE
  5
312
330
289
100
AcDbEntity
  8
DV3_Default
  6
Continuous
 62
     7
100
AcDbLine
 10
339.9997474664
 20
362.0010819678
 30
0.0
 11
338.9021308385
 21
360.9411259111
 31
0.0
  0
LINE
  5
313
330
289
100
AcDbEntity
  8
DV3_Default
  6
Continuous
 62
     7
100
AcDbLine
 10
335.7473970933
 20
360.4414651725
 30
0.0
 11
334.375957212
 21
361.1103610959
 31
0.0
  0
ARC
  5
314
330
289
100
AcDbEntity
  8
DV3_Default
  6
Continuous
 62
     7
100
AcDbCircle
 10
338.85
 20
351.061334221
 30
0.0
 40
10.99999999999999
100
AcDbArc
 50
113.9996562721
 51
114.0003437279
  0
LINE
  5
315
330
289
100
AcDbEntity
  8
DV3_Default
  6
Continuous
 62
     7
100
AcDbLine
 10
334.3758366405
 20
361.1103074139
 30
0.0
 11
334.0021462023
 21
359.8070939826
 31
0.0
  0
LINE
  5
316
330
289
100
AcDbEntity
  8
DV3_Default
  6
Continuous
 62
     7
100
AcDbLine
 10
334.0021462023
 20
359.8070939826
 30
0.0
 11
332.698932771
 21
360.1807844207
 31
0.0
  0
ARC
  5
317
330
289
100
AcDbEntity
  8
DV3_Default
  6
Continuous
 62
     7
100
AcDbCircle
 10
338.85
 20
351.061334221
 30
0.0
 40
10.99999999999999
100
AcDbArc
 50
123.9996562721
 51
124.0003437279
  0
LINE
  5
318
330
289
100
AcDbEntity
  8
DV3_Default
  6
Continuous
 62
     7
100
AcDbLine
 10
332.6988233529
 20
360.1807106172
 30
0.0
 11
332.5571107497
 21
358.8324052626
 31
0.0
  0
LINE
  5
319
330
289
100
AcDbEntity
  8
DV3_Default
  6
Continuous
 62
     7
100
AcDbLine
 10
332.5571107497
 20
358.8324052626
 30
0.0
 11
331.2088053951
 21
358.9741178658
 31
0.0
  0
ARC
  5
31A
330
289
100
AcDbEntity
  8
DV3_Default
  6
Continuous
 62
     7
100
AcDbCircle
 10
338.85
 20
351.061334221
 30
0.0
 40
10.99999999999999
100
AcDbArc
 50
133.9996562721
 51
134.0003437279
  0
LINE
  5
31B
330
289
100
AcDbEntity
  8
DV3_Default
  6
Continuous
 62
     7
100
AcDbLine
 10
331.2087104551
 20
358.9740261834
 30
0.0
 11
331.3032815526
 21
357.6215964814
 31
0.0
  0
LINE
  5
31C
330
289
100
AcDbEntity
  8
DV3_Default
  6
Continuous
 62
     7
100
AcDbLine
 10
331.3032815526
 20
357.6215964814
 30
0.0
 11
329.9508518506
 21
357.527025384
 31
0.0
  0
ARC
  5
31D
330
289
100
AcDbEntity
  8
DV3_Default
  6
Continuous
 62
     7
100
AcDbCircle
 10
338.85
 20
351.061334221
 30
0.0
 40
10.99999999999997
100
AcDbArc
 50
143.9996562721
 51
144.0003437279
  0
LINE
  5
31E
330
289
100
AcDbEntity
  8
DV3_Default
  6
Continuous
 62
     7
100
AcDbLine
 10
329.9507742735
 20
357.5269186083
 30
0.0
 11
330.2787555766
 21
356.2114574511
 31
0.0
  0
LINE
  5
31F
330
289
100
AcDbEntity
  8
DV3_Default
  6
Continuous
 62
     7
100
AcDbLine
 10
330.2787555766
 20
356.2114574511
 30
0.0
 11
328.9632944194
 21
355.8834761479
 31
0.0
  0
ARC
  5
320
330
289
100
AcDbEntity
  8
DV3_Default
  6
Continuous
 62
     7
100
AcDbCircle
 10
338.85
 20
351.061334221
 30
0.0
 40
11.0
100
AcDbArc
 50
153.9996562721
 51
154.0003437279
  0
LINE
  5
321
330
289
100
AcDbEntity
  8
DV3_Default
  6
Continuous
 62
     7
100
AcDbLine
 10
328.9632365623
 20
355.8833575233
 30
0.0
 11
329.5146625252
 21
354.6448345325
 31
0.0
  0
LINE
  5
322
330
289
100
AcDbEntity
  8
DV3_Default
  6
Continuous
 62
     7
100
AcDbLine
 10
329.5146625252
 20
354.6448345325
 30
0.0
 11
328.2761395345
 21
354.0934085696
 31
0.0
  0
ARC
  5
323
330
289
100
AcDbEntity
  8
DV3_Default
  6
Continuous
 62
     7
100
AcDbCircle
 10
338.85
 20
351.061334221
 30
0.0
 40
10.99999999999998
100
AcDbArc
 50
163.9996562721
 51
164.0003437279
  0
LINE
  5
324
330
289
100
AcDbEntity
  8
DV3_Default
  6
Continuous
 62
     7
100
AcDbLine
 10
328.2761031553
 20
354.0932817003
 30
0.0
 11
329.0342189791
 21
352.9693287703
 31
0.0
  0
LINE
  5
325
330
289
100
AcDbEntity
  8
DV3_Default
  6
Continuous
 62
     7
100
AcDbLine
 10
329.0342189791
 20
352.9693287703
 30
0.0
 11
327.9102660491
 21
352.2112129464
 31
0.0
  0
ARC
  5
326
330
289
100
AcDbEntity
  8
DV3_Default
  6
Continuous
 62
     7
100
AcDbCircle
 10
338.85
 20
351.061334221
 30
0.0
 40
10.99999999999997
100
AcDbArc
 50
173.9996562721
 51
174.0003437279
  0
LINE
  5
327
330
289
100
AcDbEntity
  8
DV3_Default
  6
Continuous
 62
     7
100
AcDbLine
 10
327.9102522532
 20
352.2110816874
 30
0.0
 11
328.8520229723
 21
351.2358495592
 31
0.0
  0
LINE
  5
328
330
289
100
AcDbEntity
  8
DV3_Default
  6
Continuous
 62
     7
100
AcDbLine
 10
328.8520229723
 20
351.2358495592
 30
0.0
 11
327.876790844
 21
350.2940788401
 31
0.0
  0
ARC
  5
329
330
289
100
AcDbEntity
  8
DV3_Default
  6
Continuous
 62
     7
100
AcDbCircle
 10
338.85
 20
351.061334221
 30
0.0
 40
10.99999999999999
100
AcDbArc
 50
183.9996562721
 51
184.0003437279
  0
LINE
  5
32A
330
289
100
AcDbEntity
  8
DV3_Default
  6
Continuous
 62
     7
100
AcDbLine
 10
327.8768000506
 20
350.2939471796
 30
0.0
 11
328.9736104382
 21
349.4970677878
 31
0.0
  0
LINE
  5
32B
330
289
100
AcDbEntity
  8
DV3_Default
  6
Continuous
 62
     7
100
AcDbLine
 10
328.9736104382
 20
349.4970677878
 30
0.0
 11
328.1767310465
 21
348.4002574003
 31
0.0
  0
ARC
  5
32C
330
289
100
AcDbEntity
  8
DV3_Default
  6
Continuous
 62
     7
100
AcDbCircle
 10
338.85
 20
351.061334221
 30
0.0
 40
10.99999999999999
100
AcDbArc
 50
193.9996562721
 51
194.0003437279
  0
LINE
  5
32D
330
289
100
AcDbEntity
  8
DV3_Default
  6
Continuous
 62
     7
100
AcDbLine
 10
328.1767629758
 20
348.4001293387
 30
0.0
 11
329.3952870033
 21
347.8058154605
 31
0.0
  0
LINE
  5
32E
330
289
100
AcDbEntity
  8
DV3_Default
  6
Continuous
 62
     7
100
AcDbLine
 10
329.3952870033
 20
347.8058154605
 30
0.0
 11
328.8009731251
 21
346.5872914331
 31
0.0
  0
ARC
  5
32F
330
289
100
AcDbEntity
  8
DV3_Default
  6
Continuous
 62
     7
100
AcDbCircle
 10
338.85
 20
351.061334221
 30
0.0
 40
10.99999999999999
100
AcDbArc
 50
203.9996562721
 51
204.0003437279
  0
LINE
  5
330
330
289
100
AcDbEntity
  8
DV3_Default
  6
Continuous
 62
     7
100
AcDbLine
 10
328.8010268071
 20
346.5871708615
 30
0.0
 11
330.1042402385
 21
346.2134804234
 31
0.0
  0
LINE
  5
331
330
289
100
AcDbEntity
  8
DV3_Default
  6
Continuous
 62
     7
100
AcDbLine
 10
330.1042402385
 20
346.2134804234
 30
0.0
 11
329.7305498004
 21
344.910266992
 31
0.0
  0
ARC
  5
332
330
289
100
AcDbEntity
  8
DV3_Default
  6
Continuous
 62
     7
100
AcDbCircle
 10
338.85
 20
351.061334221
 30
0.0
 40
11.0
100
AcDbArc
 50
213.9996562721
 51
214.0003437279
  0
LINE
  5
333
330
289
100
AcDbEntity
  8
DV3_Default
  6
Continuous
 62
     7
100
AcDbLine
 10
329.7306236038
 20
344.9101575739
 30
0.0
 11
331.0789289584
 21
344.7684449707
 31
0.0
  0
LINE
  5
334
330
289
100
AcDbEntity
  8
DV3_Default
  6
Continuous
 62
     7
100
AcDbLine
 10
331.0789289584
 20
344.7684449707
 30
0.0
 11
330.9372163552
 21
343.4201396161
 31
0.0
  0
ARC
  5
335
330
289
100
AcDbEntity
  8
DV3_Default
  6
Continuous
 62
     7
100
AcDbCircle
 10
338.85
 20
351.061334221
 30
0.0
 40
10.99999999999999
100
AcDbArc
 50
223.9996562721
 51
224.0003437279
  0
LINE
  5
336
330
289
100
AcDbEntity
  8
DV3_Default
  6
Continuous
 62
     7
100
AcDbLine
 10
330.9373080376
 20
343.4200446761
 30
0.0
 11
332.2897377396
 21
343.5146157736
 31
0.0
  0
LINE
  5
337
330
289
100
AcDbEntity
  8
DV3_Default
  6
Continuous
 62
     7
100
AcDbLine
 10
332.2897377396
 20
343.5146157736
 30
0.0
 11
332.384308837
 21
342.1621860716
 31
0.0
  0
ARC
  5
338
330
289
100
AcDbEntity
  8
DV3_Default
  6
Continuous
 62
     7
100
AcDbCircle
 10
338.85
 20
351.061334221
 30
0.0
 40
10.99999999999999
100
AcDbArc
 50
233.9996562721
 51
234.0003437279
  0
LINE
  5
339
330
289
100
AcDbEntity
  8
DV3_Default
  6
Continuous
 62
     7
100
AcDbLine
 10
332.3844156128
 20
342.1621084945
 30
0.0
 11
333.6998767699
 21
342.4900897976
 31
0.0
  0
LINE
  5
33A
330
289
100
AcDbEntity
  8
DV3_Default
  6
Continuous
 62
     7
100
AcDbLine
 10
333.6998767699
 20
342.4900897976
 30
0.0
 11
334.0278580731
 21
341.1746286405
 31
0.0
  0
ARC
  5
33B
330
289
100
AcDbEntity
  8
DV3_Default
  6
Continuous
 62
     7
100
AcDbCircle
 10
338.85
 20
351.061334221
 30
0.0
 40
10.99999999999999
100
AcDbArc
 50
243.9996562721
 51
244.0003437279
  0
LINE
  5
33C
330
289
100
AcDbEntity
  8
DV3_Default
  6
Continuous
 62
     7
100
AcDbLine
 10
334.0279766977
 20
341.1745707833
 30
0.0
 11
335.2664996885
 21
341.7259967463
 31
0.0
  0
LINE
  5
33D
330
289
100
AcDbEntity
  8
DV3_Default
  6
Continuous
 62
     7
100
AcDbLine
 10
335.2664996885
 20
341.7259967463
 30
0.0
 11
335.8179256514
 21
340.4874737555
 31
0.0
  0
ARC
  5
33E
330
289
100
AcDbEntity
  8
DV3_Default
  6
Continuous
 62
     7
100
AcDbCircle
 10
338.85
 20
351.061334221
 30
0.0
 40
11.0
100
AcDbArc
 50
253.9996562721
 51
254.0003437279
  0
LINE
  5
33F
330
289
100
AcDbEntity
  8
DV3_Default
  6
Continuous
 62
     7
100
AcDbLine
 10
335.8180525207
 20
340.4874373763
 30
0.0
 11
336.9420054507
 21
341.2455532001
 31
0.0
  0
LINE
  5
340
330
289
100
AcDbEntity
  8
DV3_Default
  6
Continuous
 62
     7
100
AcDbLine
 10
336.9420054507
 20
341.2455532001
 30
0.0
 11
337.7001212746
 21
340.1216002701
 31
0.0
  0
ARC
  5
341
330
289
100
AcDbEntity
  8
DV3_Default
  6
Continuous
 62
     7
100
AcDbCircle
 10
338.85
 20
351.061334221
 30
0.0
 40
11.0
100
AcDbArc
 50
263.9996562721
 51
264.0003437279
  0
LINE
  5
342
330
289
100
AcDbEntity
  8
DV3_Default
  6
Continuous
 62
     7
100
AcDbLine
 10
337.7002525336
 20
340.1215864742
 30
0.0
 11
338.7978691615
 21
341.1815425309
 31
0.0
  0
LINE
  5
343
330
289
100
AcDbEntity
  8
DV3_Default
  6
Continuous
 62
     7
100
AcDbLine
 10
341.9526029067
 20
341.6812032695
 30
0.0
 11
343.324042788
 21
341.0123073462
 31
0.0
  0
ARC
  5
344
330
289
100
AcDbEntity
  8
DV3_Default
  6
Continuous
 62
     7
100
AcDbCircle
 10
338.85
 20
351.061334221
 30
0.0
 40
11.00000000000001
100
AcDbArc
 50
293.9996562721
 51
294.0003437279
  0
LINE
  5
345
330
289
100
AcDbEntity
  8
DV3_Default
  6
Continuous
 62
     7
100
AcDbLine
 10
343.3241633595
 20
341.0123610281
 30
0.0
 11
343.6978537977
 21
342.3155744595
 31
0.0
  0
LINE
  5
346
330
289
100
AcDbEntity
  8
DV3_Default
  6
Continuous
 62
     7
100
AcDbLine
 10
343.6978537977
 20
342.3155744595
 30
0.0
 11
345.001067229
 21
341.9418840214
 31
0.0
  0
ARC
  5
347
330
289
100
AcDbEntity
  8
DV3_Default
  6
Continuous
 62
     7
100
AcDbCircle
 10
338.85
 20
351.061334221
 30
0.0
 40
11.0
100
AcDbArc
 50
303.9996562721
 51
304.0003437279
  0
LINE
  5
348
330
289
100
AcDbEntity
  8
DV3_Default
  6
Continuous
 62
     7
100
AcDbLine
 10
345.0011766471
 20
341.9419578248
 30
0.0
 11
345.1428892503
 21
343.2902631794
 31
0.0
  0
LINE
  5
349
330
289
100
AcDbEntity
  8
DV3_Default
  6
Continuous
 62
     7
100
AcDbLine
 10
345.1428892503
 20
343.2902631794
 30
0.0
 11
346.4911946049
 21
343.1485505762
 31
0.0
  0
ARC
  5
34A
330
289
100
AcDbEntity
  8
DV3_Default
  6
Continuous
 62
     7
100
AcDbCircle
 10
338.85
 20
351.061334221
 30
0.0
 40
11.0
100
AcDbArc
 50
313.9996562721
 51
314.0003437279
  0
LINE
  5
34B
330
289
100
AcDbEntity
  8
DV3_Default
  6
Continuous
 62
     7
100
AcDbLine
 10
346.4912895449
 20
343.1486422586
 30
0.0
 11
346.3967184474
 21
344.5010719606
 31
0.0
  0
LINE
  5
34C
330
289
100
AcDbEntity
  8
DV3_Default
  6
Continuous
 62
     7
100
AcDbLine
 10
346.3967184474
 20
344.5010719606
 30
0.0
 11
347.7491481494
 21
344.5956430581
 31
0.0
  0
ARC
  5
34D
330
289
100
AcDbEntity
  8
DV3_Default
  6
Continuous
 62
     7
100
AcDbCircle
 10
338.85
 20
351.061334221
 30
0.0
 40
11.00000000000002
100
AcDbArc
 50
323.9996562721
 51
324.0003437279
  0
LINE
  5
34E
330
289
100
AcDbEntity
  8
DV3_Default
  6
Continuous
 62
     7
100
AcDbLine
 10
347.7492257265
 20
344.5957498338
 30
0.0
 11
347.4212444234
 21
345.911210991
 31
0.0
  0
LINE
  5
34F
330
289
100
AcDbEntity
  8
DV3_Default
  6
Continuous
 62
     7
100
AcDbLine
 10
347.4212444234
 20
345.911210991
 30
0.0
 11
348.7367055806
 21
346.2391922941
 31
0.0
  0
LINE
  5
350
330
289
100
AcDbEntity
  8
DV3_Default
  6
Continuous
 62
     7
100
AcDbLine
 10
341.9526029067
 20
341.6812032695
 30
0.0
 11
338.7978691615
 21
341.1815425309
 31
0.0
  0
CIRCLE
  5
351
330
289
100
AcDbEntity
  8
DV3_Default
  6
Continuous
 62
     7
100
AcDbCircle
 10
338.85
 20
351.061334221
 30
0.0
 40
7.414252633884274
  0
CIRCLE
  5
352
330
289
100
AcDbEntity
  8
DV3_Default
  6
Continuous
 62
     7
100
AcDbCircle
 10
38.85
 20
351.061334221
 30
0.0
 40
32.5
  0
CIRCLE
  5
353
330
289
100
AcDbEntity
  8
DV3_Default
  6
Continuous
 62
     7
100
AcDbCircle
 10
38.85
 20
351.061334221
 30
0.0
 40
11.20000000000011
  0
CIRCLE
  5
354
330
289
100
AcDbEntity
  8
DV3_Default
  6
Continuous
 62
     7
100
AcDbCircle
 10
38.85
 20
351.061334221
 30
0.0
 40
12.50000000000007
  0
CIRCLE
  5
355
330
289
100
AcDbEntity
  8
DV3_Default
  6
Continuous
 62
     7
100
AcDbCircle
 10
38.85
 20
351.061334221
 30
0.0
 40
13.50000000000007
  0
ARC
  5
356
330
289
100
AcDbEntity
  8
DV3_Default
  6
Continuous
 62
     7
100
AcDbCircle
 10
188.85
 20
351.061334221
 30
0.0
 40
32.5
100
AcDbArc
 50
296.5881698461
 51
0.0
  0
ARC
  5
357
330
289
100
AcDbEntity
  8
DV3_Default
  6
Continuous
 62
     7
100
AcDbCircle
 10
188.85
 20
351.061334221
 30
0.0
 40
32.5
100
AcDbArc
 50
0.0
 51
243.4217284547
  0
CIRCLE
  5
358
330
289
100
AcDbEntity
  8
DV3_Default
  6
Continuous
 62
     7
100
AcDbCircle
 10
338.85
 20
351.061334221
 30
0.0
 40
32.5
  0
CIRCLE
  5
359
330
289
100
AcDbEntity
  8
DV3_Default
  6
Continuous
 62
     7
100
AcDbCircle
 10
338.85
 20
351.061334221
 30
0.0
 40
11.20000000000011
  0
CIRCLE
  5
35A
330
289
100
AcDbEntity
  8
DV3_Default
  6
Continuous
 62
     7
100
AcDbCircle
 10
338.85
 20
351.061334221
 30
0.0
 40
12.50000000000007
  0
CIRCLE
  5
35B
330
289
100
AcDbEntity
  8
DV3_Default
  6
Continuous
 62
     7
100
AcDbCircle
 10
338.85
 20
351.061334221
 30
0.0
 40
13.50000000000007
  0
ARC
  5
35C
330
289
100
AcDbEntity
  8
DV3_Default
  6
Continuous
 62
     7
100
AcDbCircle
 10
188.8499415435
 20
351.0655854855
 30
0.0
 40
14.4999999997055
100
AcDbArc
 50
0.1523735204
 51
90.0053022693
  0
ELLIPSE
  5
35D
330
289
100
AcDbEntity
  8
DV3_Default
  6
Continuous
 62
     7
100
AcDbEllipse
 10
188.8499195184
 20
121.3073931644
 30
0.0
 11
-14.50000000014566
 21
2.959471750996201E-6
 31
0.0
210
0.0
220
0.0
230
1.0
 40
0.9925461516
 41
0.0
 42
3.141556138504836
  0
ARC
  5
35E
330
289
100
AcDbEntity
  8
DV3_Default
  6
Continuous
 62
     7
100
AcDbCircle
 10
188.8493045004
 20
351.0655854857
 30
0.0
 40
14.50000000014736
100
AcDbArc
 50
89.9999842279
 51
180.0615355317
  0
LINE
  5
35F
330
289
100
AcDbEntity
  8
DV3_Default
  6
Continuous
 62
     7
100
AcDbLine
 10
203.3499195087
 20
121.3068646833
 30
0.0
 11
203.3499416419
 21
121.9051650593
 31
0.0
  0
LINE
  5
360
330
289
100
AcDbEntity
  8
DV3_Default
  6
Continuous
 62
     7
100
AcDbLine
 10
174.3499416617
 20
121.906237867
 30
0.0
 11
174.349919528
 21
121.3079216454
 31
0.0
  0
SPLINE
  5
361
330
289
100
AcDbEntity
  8
DV3_Default
  6
Continuous
 62
     7
100
AcDbSpline
210
0.0
220
0.0
230
1.0
 70
     8
 71
     3
 72
    81
 73
    77
 74
     0
 42
0.000000001
 43
0.0000000001
 40
0.0
 40
0.0
 40
0.0
 40
0.0
 40
0.0026385283946165
 40
0.011403626121586
 40
0.0246251936289039
 40
0.038449811755726
 40
0.0523175836354905
 40
0.0661916238808241
 40
0.0800673753945487
 40
0.0939437766876855
 40
0.1078204777125304
 40
0.1216973360086052
 40
0.135574284768911
 40
0.1494512892825539
 40
0.1633283300554104
 40
0.1772053954482003
 40
0.1910824781589335
 40
0.2049595734154515
 40
0.2188366779898022
 40
0.2327137896334676
 40
0.2465909067398671
 40
0.2604680281352508
 40
0.2743451529450528
 40
0.2882222805060466
 40
0.3020994103072292
 40
0.3159765419491239
 40
0.3298536751152362
 40
0.3437308095516585
 40
0.3576079450522793
 40
0.371485081447875
 40
0.3853622185979469
 40
0.3992393563845804
 40
0.41311649470768
 40
0.426993633481329
 40
0.440870772630858
 40
0.4547479120905933
 40
0.4686250518019369
 40
0.4825021917118751
 40
0.4963793317716751
 40
0.5102564719357929
 40
0.5241336121608786
 40
0.5380107524049437
 40
0.5518878926144017
 40
0.5657650327455317
 40
0.5796421727549539
 40
0.5935193125970316
 40
0.6073964522229259
 40
0.6212735915795076
 40
0.6351507306080871
 40
0.649027869242919
 40
0.6629050074093845
 40
0.6767821450217261
 40
0.6906592819802513
 40
0.7045364181677923
 40
0.7184135534451128
 40
0.732290687645002
 40
0.7461678205644791
 40
0.7600449519543703
 40
0.7739220815053026
 40
0.7877992088284272
 40
0.8016763334286146
 40
0.8155534546664372
 40
0.82943057170327
 40
0.8433076834202923
 40
0.8571847882960956
 40
0.8710618842168382
 40
0.8849389681725714
 40
0.8988160357544538
 40
0.9126930802878374
 40
0.926570091264829
 40
0.9404470513449519
 40
0.9543239302052262
 40
0.9682006707973813
 40
0.9820771550470581
 40
0.9959531045733245
 40
1.0
 40
1.0
 40
1.0
 40
1.0
 10
174.3499522498322
 20
351.0524524863645
 30
0.0
 10
174.3499576616709
 20
351.0509133098793
 30
0.0
 10
174.349937922188
 20
351.0454527723181
 30
0.0
 10
174.349975027963
 20
350.9554257322974
 30
0.0
 10
174.3499814956523
 20
350.7013515727606
 30
0.0
 10
174.3500063256991
 20
350.2136130163144
 30
0.0
 10
174.3500265085757
 20
349.5209590479647
 30
0.0
 10
174.3500478261591
 20
348.6290628762296
 30
0.0
 10
174.3500685566086
 20
347.5405900277939
 30
0.0
 10
174.3500891059941
 20
346.2573985466815
 30
0.0
 10
174.3501093180159
 20
344.7817946464547
 30
0.0
 10
174.3501291890256
 20
343.1163565083932
 30
0.0
 10
174.3501486755842
 20
341.2640003535406
 30
0.0
 10
174.3501677458819
 20
339.227962739615
 30
0.0
 10
174.3501863659597
 20
337.0118005014976
 30
0.0
 10
174.3502045034456
 20
334.6193839803839
 30
0.0
 10
174.3502221266117
 20
332.0548908679121
 30
0.0
 10
174.3502392046903
 20
329.3227989893423
 30
0.0
 10
174.3502557078546
 20
326.4278786000627
 30
0.0
 10
174.3502716072877
 20
323.3751841075114
 30
0.0
 10
174.3502868752276
 20
320.17004528406
 30
0.0
 10
174.3503014850159
 20
316.8180579849819
 30
0.0
 10
174.350315411144
 20
313.3250743948975
 30
0.0
 10
174.3503286292977
 20
309.6971928217581
 30
0.0
 10
174.3503411163988
 20
305.9407470580089
 30
0.0
 10
174.350352850646
 20
302.0622953284891
 30
0.0
 10
174.3503638115523
 20
298.0686088450379
 30
0.0
 10
174.3503739799813
 20
293.9666599882182
 30
0.0
 10
174.35038333818
 20
289.7636101370921
 30
0.0
 10
174.3503918698101
 20
285.4667971684931
 30
0.0
 10
174.3503995599767
 20
281.0837226477631
 30
0.0
 10
174.3504063952535
 20
276.6220387334182
 30
0.0
 10
174.3504123637071
 20
272.0895348186776
 30
0.0
 10
174.3504174549174
 20
267.4941239332341
 30
0.0
 10
174.350421659996
 20
262.843828929039
 30
0.0
 10
174.3504249716013
 20
258.146768474261
 30
0.0
 10
174.3504273839515
 20
253.4111428798794
 30
0.0
 10
174.3504288928353
 20
248.6452197836911
 30
0.0
 10
174.3504294956183
 20
243.8573197167181
 30
0.0
 10
174.350429191248
 20
239.0558015772519
 30
0.0
 10
174.3504279802558
 20
234.2490480378765
 30
0.0
 10
174.350425864756
 20
229.4454509123731
 30
0.0
 10
174.3504228484418
 20
224.6533965040713
 30
0.0
 10
174.3504189365792
 20
219.881250964805
 30
0.0
 10
174.3504141359978
 20
215.1373456878899
 30
0.0
 10
174.3504084550786
 20
210.4299627643651
 30
0.0
 10
174.3504019037397
 20
205.7673205243199
 30
0.0
 10
174.3503944934187
 20
201.1575591893654
 30
0.0
 10
174.3503862370529
 20
196.6087266615137
 30
0.0
 10
174.3503771490567
 20
192.1287644732778
 30
0.0
 10
174.3503672452965
 20
187.725493923547
 30
0.0
 10
174.3503565430627
 20
183.4066024234501
 30
0.0
 10
174.35034506104
 20
179.1796300760829
 30
0.0
 10
174.3503328192745
 20
175.0519565135458
 30
0.0
 10
174.3503198391385
 20
171.0307880143309
 30
0.0
 10
174.3503061432939
 20
167.1231449236003
 30
0.0
 10
174.3502917556519
 20
163.3358493983969
 30
0.0
 10
174.3502767013319
 20
159.6755134993072
 30
0.0
 10
174.350261006617
 20
156.1485276494639
 30
0.0
 10
174.350244698909
 20
152.7610494814879
 30
0.0
 10
174.3502278066801
 20
149.5189930912863
 30
0.0
 10
174.3502103594235
 20
146.4280187212615
 30
0.0
 10
174.3501923876021
 20
143.493522879263
 30
0.0
 10
174.3501739225962
 20
140.7206289579634
 30
0.0
 10
174.350154996646
 20
138.1141782000162
 30
0.0
 10
174.3501356428081
 20
135.6787216726077
 30
0.0
 10
174.3501158948551
 20
133.4185108635768
 30
0.0
 10
174.3500957873811
 20
131.3374959066482
 30
0.0
 10
174.3500753551398
 20
129.43929793251
 30
0.0
 10
174.3500546352481
 20
127.7272807332484
 30
0.0
 10
174.3500336587089
 20
126.2042547741998
 30
0.0
 10
174.3500124818318
 20
124.8735567255131
 30
0.0
 10
174.3499910688416
 20
123.7349999295907
 30
0.0
 10
174.3499697301097
 20
122.7999732475666
 30
0.0
 10
174.3499527388879
 20
122.2156744008501
 30
0.0
 10
174.3499439771914
 20
121.9703938574958
 30
0.0
 10
174.3499416617281
 20
121.9062378669783
 30
0.0
  0
SPLINE
  5
362
330
289
100
AcDbEntity
  8
DV3_Default
  6
Continuous
 62
     7
100
AcDbSpline
210
0.0
220
0.0
230
1.0
 70
     8
 71
     3
 72
    84
 73
    80
 74
     0
 42
0.000000001
 43
0.0000000001
 40
0.0
 40
0.0
 40
0.0
 40
0.0
 40
0.0072860061330152
 40
0.0211353755346709
 40
0.0349839475570931
 40
0.048831755462087
 40
0.0626792218556007
 40
0.0765265128457798
 40
0.0903737044854227
 40
0.1042208356060701
 40
0.1180679277274233
 40
0.13191499356345
 40
0.1457620410223386
 40
0.159609075235825
 40
0.1734560996543202
 40
0.1873031166689701
 40
0.2011501279806538
 40
0.2149971348271593
 40
0.2288441381275586
 40
0.2426911385766628
 40
0.2565381367083002
 40
0.2703851329387031
 40
0.2842321275968683
 40
0.2980791209461247
 40
0.3119261131997836
 40
0.3257731045326263
 40
0.3396200950894518
 40
0.3534670849915622
 40
0.3673140743416926
 40
0.3811610632278575
 40
0.3950080517263602
 40
0.4088550399041819
 40
0.4227020278208921
 40
0.4365490155302661
 40
0.4503960030815828
 40
0.4642429905207546
 40
0.4780899778913202
 40
0.4919369652353345
 40
0.5057839525892445
 40
0.5196309399856561
 40
0.5334779274666978
 40
0.54732491507596
 40
0.5611719028594603
 40
0.575018890866538
 40
0.5888658791510125
 40
0.6027128677724549
 40
0.6165598567977494
 40
0.6304068463029419
 40
0.6442538363755907
 40
0.658100827117645
 40
0.6719478186491454
 40
0.6857948111129484
 40
0.6996418046809022
 40
0.7134887995619721
 40
0.727335796013097
 40
0.7411827943538828
 40
0.7550297949868026
 40
0.768876798425398
 40
0.7827238053343692
 40
0.796570816587652
 40
0.8104178333544181
 40
0.8242648572294747
 40
0.8381118904365095
 40
0.85195893615473
 40
0.8658059990629555
 40
0.87965308628414
 40
0.893500209107123
 40
0.9073473863142391
 40
0.92119465108903
 40
0.9350420666991234
 40
0.9488897664782568
 40
0.9627380730931374
 40
0.9765879454240888
 40
0.9904434127421906
 40
0.9955058580257787
 40
0.9980371979201288
 40
0.9993031660523884
 40
0.9999380200399683
 40
1.0
 40
1.0
 40
1.0
 40
1.0
 10
203.3499416418851
 20
121.9051650593095
 30
0.0
 10
203.3499458213093
 20
122.023240471354
 30
0.0
 10
203.3499561184968
 20
122.3187684042983
 30
0.0
 10
203.3499747633788
 20
123.0024942428699
 30
0.0
 10
203.3499961025696
 20
123.983981106278
 30
0.0
 10
203.3500174741219
 20
125.1685629193096
 30
0.0
 10
203.3500386074707
 20
126.544704514953
 30
0.0
 10
203.3500595288474
 20
128.1125540319734
 30
0.0
 10
203.350080185149
 20
129.8687011148354
 30
0.0
 10
203.3501005449178
 20
131.8102656740642
 30
0.0
 10
203.3501205714629
 20
133.9338115054558
 30
0.0
 10
203.3501402301792
 20
136.2356457861687
 30
0.0
 10
203.3501594866812
 20
138.7117473840123
 30
0.0
 10
203.3501783073878
 20
141.3577950782282
 30
0.0
 10
203.3501966594446
 20
144.1691695713146
 30
0.0
 10
203.3502145108203
 20
147.1409631242269
 30
0.0
 10
203.3502318303537
 20
150.2679877586509
 30
0.0
 10
203.3502485878115
 20
153.5447844479976
 30
0.0
 10
203.3502647539405
 20
156.9656326359702
 30
0.0
 10
203.3502803005193
 20
160.5245602432827
 30
0.0
 10
203.3502952004077
 20
164.2153541001975
 30
0.0
 10
203.3503094275942
 20
168.0315708002918
 30
0.0
 10
203.3503229572414
 20
171.9665479538737
 30
0.0
 10
203.3503357657295
 20
176.0134158227828
 30
0.0
 10
203.3503478306977
 20
180.1651093163275
 30
0.0
 10
203.350359131083
 20
184.4143803277156
 30
0.0
 10
203.3503696471572
 20
188.753810389562
 30
0.0
 10
203.3503793605613
 20
193.1758236265032
 30
0.0
 10
203.3503882543376
 20
197.6726999823784
 30
0.0
 10
203.3503963129594
 20
202.2365886989415
 30
0.0
 10
203.3504035223576
 20
206.8595220226203
 30
0.0
 10
203.3504098699462
 20
211.5334291154136
 30
0.0
 10
203.3504153446433
 20
216.2501501456836
 30
0.0
 10
203.3504199368911
 20
221.0014505342399
 30
0.0
 10
203.3504236386725
 20
225.7790353308828
 30
0.0
 10
203.3504264435248
 20
230.5745636962965
 30
0.0
 10
203.3504283465512
 20
235.3796634640348
 30
0.0
 10
203.3504293444294
 20
240.1859457566069
 30
0.0
 10
203.3504294354173
 20
244.9850196308399
 30
0.0
 10
203.350428619356
 20
249.768506728318
 30
0.0
 10
203.3504268976701
 20
254.5280559033943
 30
0.0
 10
203.3504242733655
 20
259.2553578035674
 30
0.0
 10
203.3504207510236
 20
263.942159375458
 30
0.0
 10
203.3504163367938
 20
268.5802782735501
 30
0.0
 10
203.3504110383826
 20
273.1616171455096
 30
0.0
 10
203.3504048650398
 20
277.6781777691692
 30
0.0
 10
203.3503978275431
 20
282.1220750164979
 30
0.0
 10
203.3503899381785
 20
286.4855506202037
 30
0.0
 10
203.3503812107192
 20
290.7609867189462
 30
0.0
 10
203.3503716604018
 20
294.9409191575514
 30
0.0
 10
203.350361303899
 20
299.0180505190281
 30
0.0
 10
203.3503501592911
 20
302.985262865699
 30
0.0
 10
203.3503382460344
 20
306.8356301672546
 30
0.0
 10
203.3503255849266
 20
310.5624303941287
 30
0.0
 10
203.3503121980711
 20
314.1591572552006
 30
0.0
 10
203.350298108838
 20
317.6195315595094
 30
0.0
 10
203.3502833418234
 20
320.9375121823957
 30
0.0
 10
203.3502679228063
 20
324.1073066172768
 30
0.0
 10
203.3502518787033
 20
327.1233810952422
 30
0.0
 10
203.350235237522
 20
329.9804702553994
 30
0.0
 10
203.3502180283093
 20
332.6735863512772
 30
0.0
 10
203.3502002811096
 20
335.198027975986
 30
0.0
 10
203.3501820268752
 20
337.5493883067963
 30
0.0
 10
203.3501632975486
 20
339.7235628143568
 30
0.0
 10
203.3501441254876
 20
341.7167566068316
 30
0.0
 10
203.350124545335
 20
343.5254907704841
 30
0.0
 10
203.3501045867427
 20
345.1466101457783
 30
0.0
 10
203.3500843012021
 20
346.5772836161439
 30
0.0
 10
203.350063661525
 20
347.8150306752962
 30
0.0
 10
203.3500429364688
 20
348.8576494551656
 30
0.0
 10
203.3500212916757
 20
349.7035154113094
 30
0.0
 10
203.3500020090916
 20
350.3505104848538
 30
0.0
 10
203.3499729969598
 20
350.8001235223408
 30
0.0
 10
203.3499781362842
 20
350.9911089915684
 30
0.0
 10
203.349934353989
 20
351.0562922920479
 30
0.0
 10
203.3499678343134
 20
351.0634187057328
 30
0.0
 10
203.3499067398217
 20
351.0836605921327
 30
0.0
 10
203.3499620550591
 20
351.0817250310647
 30
0.0
 10
203.3498900402507
 20
351.1032633578408
 30
0.0
 10
203.3498826293741
 20
351.1054835891471
 30
0.0
  0
LINE
  5
363
330
289
100
AcDbEntity
  8
DV3_Default
  6
Continuous
 62
     7
100
AcDbLine
 10
188.8499455351
 20
365.5655854855
 30
0.0
 11
188.8493084919
 21
365.5655854857
 31
0.0
  0
ARC
  5
364
330
289
100
AcDbEntity
  8
DV3_Default
  6
Continuous
 62
     7
100
AcDbCircle
 10
188.846133289
 20
121.2797890172
 30
0.0
 40
14.44586638272493
100
AcDbArc
 50
0.0
 51
0.037672206
  0
ELLIPSE
  5
365
330
289
100
AcDbEntity
  8
DV3_Default
  6
Continuous
 62
     7
100
AcDbEllipse
 10
188.8500000001
 20
120.7419188695
 30
0.0
 11
-14.50000000000002
 21
1.110223024625157E-12
 31
0.0
210
0.0
220
0.0
230
1.0
 40
0.9925461289
 41
0.0
 42
3.141592653589793
  0
LINE
  5
366
330
289
100
AcDbEntity
  8
DV3_Default
  6
Continuous
 62
     7
100
AcDbLine
 10
203.3500000001
 20
120.7419188695
 30
0.0
 11
203.3500000001
 21
121.2878940255
 31
0.0
  0
LINE
  5
367
330
289
100
AcDbEntity
  8
DV3_Default
  6
Continuous
 62
     7
100
AcDbLine
 10
174.3500000001
 20
121.2594421524
 30
0.0
 11
174.3500000001
 21
120.7419188695
 31
0.0
  0
ENDBLK
  5
369
330
289
100
AcDbEntity
  8
0
100
AcDbBlockEnd
  0
ENDSEC
  0
SECTION
  2
ENTITIES
  0
INSERT
  5
6C
330
1F
100
AcDbEntity
  8
Default
100
AcDbBlockReference
  2
SEANNOT_GROUP
 10
0.0
 20
0.0
 30
0.0
  0
INSERT
  5
77
330
1F
100
AcDbEntity
  8
Default
100
AcDbBlockReference
  2
SEANNOT_GROUP1
 10
0.0
 20
0.0
 30
0.0
  0
INSERT
  5
81
330
1F
100
AcDbEntity
  8
Default
100
AcDbBlockReference
  2
SEANNOT_GROUP2
 10
0.0
 20
0.0
 30
0.0
  0
INSERT
  5
8B
330
1F
100
AcDbEntity
  8
Default
100
AcDbBlockReference
  2
SEANNOT_GROUP3
 10
0.0
 20
0.0
 30
0.0
  0
INSERT
  5
91
330
1F
100
AcDbEntity
  8
Default
100
AcDbBlockReference
  2
SEANNOT_GROUP4
 10
0.0
 20
0.0
 30
0.0
  0
INSERT
  5
97
330
1F
100
AcDbEntity
  8
Default
100
AcDbBlockReference
  2
SEANNOT_GROUP5
 10
0.0
 20
0.0
 30
0.0
  0
INSERT
  5
9D
330
1F
100
AcDbEntity
  8
Default
100
AcDbBlockReference
  2
SEANNOT_GROUP6
 10
0.0
 20
0.0
 30
0.0
  0
INSERT
  5
A3
330
1F
100
AcDbEntity
  8
Default
100
AcDbBlockReference
  2
SE
 10
0.0
 20
0.0
 30
0.0
  0
INSERT
  5
204
330
1F
100
AcDbEntity
  8
Default
100
AcDbBlockReference
  2
SE1
 10
0.0
 20
0.0
 30
0.0
  0
INSERT
  5
28A
330
1F
100
AcDbEntity
  8
Default
100
AcDbBlockReference
  2
SE2
 10
0.0
 20
0.0
 30
0.0
  0
MTEXT
  5
36A
330
1F
100
AcDbEntity
  8
Default
100
AcDbMText
 10
5.9362635081
 20
63.4225120485
 30
0.0
 40
10.0
 41
113.8626497168
 71
     1
 72
     1
  1
{\fSolid Edge ISO|b0||i0||c0|p34;\C7;\H10.;\W1.;Grohe AG\P}{\fSolid Edge ISO|b0||i0||c0|p34;\C7;\H10.;\W1.;\P}{\fSolid Edge ISO|b0||i0||c0|p34;\C7;\H10.;\W1.;ecn:\P}{\fSolid Edge ISO|b0||i0||c0|p34;\C7;\H10.;\W1.;unit: mm}
 73
     1
 44
1.0
1001
ACAD
1000
ACAD_MTEXT_DEFINED_HEIGHT_BEGIN
1070
    46
1040
65.4545454545
1000
ACAD_MTEXT_DEFINED_HEIGHT_END
  0
LINE
  5
36B
330
1F
100
AcDbEntity
  8
Default
  6
Continuous
 62
     7
100
AcDbLine
 10
0.0
 20
0.0
 30
0.0
 11
100.0
 21
0.0
 31
0.0
  0
LINE
  5
36C
330
1F
100
AcDbEntity
  8
Default
  6
Continuous
 62
     7
100
AcDbLine
 10
0.0
 20
0.0
 30
0.0
 11
0.0
 21
100.0
 31
0.0
  0
MTEXT
  5
36D
330
1F
100
AcDbEntity
  8
Default
100
AcDbMText
 10
24.3923665681
 20
-8.2375342018
 30
0.0
 40
10.0
 41
35.00001
 71
     1
 72
     1
  1
{\fSolid Edge ISO|b0||i0||c0|p34;\C7;\H10.;\W1.;100 mm}
 73
     1
 44
1.0
1001
ACAD
1000
ACAD_MTEXT_DEFINED_HEIGHT_BEGIN
1070
    46
1040
16.3636363636
1000
ACAD_MTEXT_DEFINED_HEIGHT_END
  0
MTEXT
  5
36E
330
1F
100
AcDbEntity
  8
Default
100
AcDbMText
 10
-20.5695763349
 20
24.6231930421
 30
0.0
 40
10.0
 41
35.00001
 71
     1
 72
     1
  1
{\fSolid Edge ISO|b0||i0||c0|p34;\C7;\H10.;\W1.;100 mm}
 11
6.123233995736766E-17
 21
1.0
 31
0.0
 73
     1
 44
1.0
1001
ACAD
1000
ACAD_MTEXT_DEFINED_HEIGHT_BEGIN
1070
    46
1040
16.3636363636
1000
ACAD_MTEXT_DEFINED_HEIGHT_END
  0
MTEXT
  5
36F
330
1F
100
AcDbEntity
  8
Default
100
AcDbMText
 10
28.4878128572
 20
24.8634936442
 30
0.0
 40
10.0
 41
86.691737001
 71
     4
 72
     1
  1
{\fSolid Edge ISO|b0||i0||c0|p34;\C7;\H10.;\W1.;240746}
 73
     1
 44
1.0
1001
ACAD
1000
ACAD_MTEXT_DEFINED_HEIGHT_BEGIN
1070
    46
1040
16.3636363636
1000
ACAD_MTEXT_DEFINED_HEIGHT_END
  0
MTEXT
  5
370
330
1F
100
AcDbEntity
  8
Default
100
AcDbMText
 10
5.9012241913
 20
41.4970052916
 30
0.0
 40
10.0
 41
109.9146987306
 71
     4
 72
     1
  1
{\fSolid Edge ISO|b0||i0||c0|p34;\C7;\H10.;\W1.;25048003}
 73
     1
 44
1.0
1001
ACAD
1000
ACAD_MTEXT_DEFINED_HEIGHT_BEGIN
1070
    46
1040
16.3636363636
1000
ACAD_MTEXT_DEFINED_HEIGHT_END
  0
ENDSEC
  0
SECTION
  2
OBJECTS
  0
DICTIONARY
  5
C
330
0
100
AcDbDictionary
281
     1
  3
ACAD_GROUP
350
D
  3
ACAD_LAYOUT
350
1A
  3
ACAD_MATERIAL
350
43
  3
ACAD_MLEADERSTYLE
350
373
  3
ACAD_MLINESTYLE
350
17
  3
ACAD_PLOTSETTINGS
350
19
  3
ACAD_PLOTSTYLENAME
350
E
  3
ACAD_SCALELIST
350
47
  3
ACAD_VISUALSTYLE
350
2A
  3
AcDbVariableDictionary
350
371
  0
DICTIONARY
  5
D
102
{ACAD_REACTORS
330
C
102
}
330
C
100
AcDbDictionary
281
     1
  0
DICTIONARY
  5
1A
102
{ACAD_REACTORS
330
C
102
}
330
C
100
AcDbDictionary
281
     1
  3
Layout1
350
1E
  3
Model
350
22
  0
DICTIONARY
  5
43
102
{ACAD_REACTORS
330
C
102
}
330
C
100
AcDbDictionary
281
     1
  3
ByBlock
350
45
  3
ByLayer
350
44
  3
Global
350
46
  0
DICTIONARY
  5
373
102
{ACAD_REACTORS
330
C
102
}
330
C
100
AcDbDictionary
281
     1
  0
DICTIONARY
  5
17
102
{ACAD_REACTORS
330
C
102
}
330
C
100
AcDbDictionary
281
     1
  3
Standard
350
18
  0
DICTIONARY
  5
19
102
{ACAD_REACTORS
330
C
102
}
330
C
100
AcDbDictionary
281
     1
  0
ACDBDICTIONARYWDFLT
  5
E
102
{ACAD_REACTORS
330
C
102
}
330
C
100
AcDbDictionary
281
     1
  3
Normal
350
F
100
AcDbDictionaryWithDefault
340
F
  0
DICTIONARY
  5
47
102
{ACAD_REACTORS
330
C
102
}
330
C
100
AcDbDictionary
281
     1
  3
A0
350
48
  3
A1
350
49
  3
A2
350
4A
  3
A3
350
4B
  3
A4
350
4C
  3
A5
350
4D
  3
A6
350
4E
  3
A7
350
4F
  3
A8
350
50
  3
A9
350
51
  3
B0
350
52
  3
B1
350
53
  3
B2
350
54
  3
B3
350
55
  3
B4
350
56
  3
B5
350
57
  3
B6
350
58
  3
B7
350
59
  3
B8
350
5A
  3
B9
350
5B
  3
C0
350
5C
  3
C1
350
5D
  3
C2
350
5E
  3
C3
350
5F
  3
C4
350
60
  3
C5
350
61
  3
C6
350
62
  3
C7
350
63
  3
C8
350
64
  3
C9
350
65
  3
D0
350
66
  3
D1
350
67
  3
D2
350
68
  0
DICTIONARY
  5
2A
102
{ACAD_REACTORS
330
C
102
}
330
C
100
AcDbDictionary
281
     1
  3
2dWireframe
350
2F
  3
Basic
350
32
  3
Brighten
350
36
  3
ColorChange
350
3A
  3
Conceptual
350
34
  3
Dim
350
35
  3
EdgeColorOff
350
3D
  3
Facepattern
350
39
  3
Flat
350
2B
  3
FlatWithEdges
350
2C
  3
Gouraud
350
2D
  3
GouraudWithEdges
350
2E
  3
Hidden
350
31
  3
JitterOff
350
3B
  3
Linepattern
350
38
  3
OverhangOff
350
3C
  3
Realistic
350
33
  3
Shaded
350
42
  3
Shaded with edges
350
41
  3
Shades of Gray
350
3E
  3
Sketchy
350
3F
  3
Thicken
350
37
  3
Wireframe
350
30
  3
X-Ray
350
40
  0
DICTIONARY
  5
371
102
{ACAD_REACTORS
330
C
102
}
330
C
100
AcDbDictionary
281
     1
  3
CANNOSCALE
350
37A
  3
DIMASSOC
350
378
  3
HIDETEXT
350
379
  3
MSLTSCALE
350
37B
  3
PSOLHEIGHT
350
375
  3
PSOLWIDTH
350
374
  0
LAYOUT
  5
1E
102
{ACAD_REACTORS
330
1A
102
}
330
1A
100
AcDbPlotSettings
  1

  2
none_device
  4

  6

 40
0.0
 41
0.0
 42
0.0
 43
0.0
 44
0.0
 45
0.0
 46
0.0
 47
0.0
 48
0.0
 49
0.0
140
0.0
141
0.0
142
1.0
143
1.0
 70
   688
 72
     1
 73
     0
 74
     5
  7

 75
    16
147
1.0
148
0.0
149
0.0
100
AcDbLayout
  1
Layout1
 70
     1
 71
     1
 10
0.0
 20
0.0
 11
3000.0
 21
4500.0
 12
0.0
 22
0.0
 32
0.0
 14
0.0
 24
0.0
 34
0.0
 15
3000.0
 25
4500.0
 35
0.0
146
0.0
 13
0.0
 23
0.0
 33
0.0
 16
1.0
 26
0.0
 36
0.0
 17
0.0
 27
1.0
 37
0.0
 76
     0
330
1B
  0
LAYOUT
  5
22
102
{ACAD_REACTORS
330
1A
102
}
330
1A
100
AcDbPlotSettings
  1

  2
none_device
  4
Letter_(8.50_x_11.00_Inches)
  6

 40
6.35
 41
6.35
 42
6.35000508
 43
6.35000508
 44
215.9
 45
279.4
 46
0.0
 47
0.0
 48
0.0
 49
0.0
140
0.0
141
0.0
142
1.0
143
1.0
 70
  1712
 72
     1
 73
     0
 74
     0
  7

 75
     0
147
1.0
148
0.0
149
0.0
100
AcDbLayout
  1
Model
 70
     1
 71
     0
 10
0.0
 20
0.0
 11
3000.0
 21
4500.0
 12
0.0
 22
0.0
 32
0.0
 14
0.0
 24
0.0
 34
0.0
 15
3000.0
 25
4500.0
 35
0.0
146
0.0
 13
0.0
 23
0.0
 33
0.0
 16
1.0
 26
0.0
 36
0.0
 17
0.0
 27
1.0
 37
0.0
 76
     0
330
1F
331
29
  0
MATERIAL
  5
45
102
{ACAD_REACTORS
330
43
102
}
102
{ACAD_XDICTIONARY
360
3AE
102
}
330
43
100
AcDbMaterial
  1
ByBlock
  0
MATERIAL
  5
44
102
{ACAD_REACTORS
330
43
102
}
102
{ACAD_XDICTIONARY
360
3AC
102
}
330
43
100
AcDbMaterial
  1
ByLayer
  0
MATERIAL
  5
46
102
{ACAD_REACTORS
330
43
102
}
102
{ACAD_XDICTIONARY
360
3B0
102
}
330
43
100
AcDbMaterial
  1
Global
  0
MLINESTYLE
  5
18
102
{ACAD_REACTORS
330
17
102
}
330
17
100
AcDbMlineStyle
  2
Standard
 70
     0
  3

 62
   256
 51
90.0
 52
90.0
 71
     2
 49
0.5
 62
   256
  6
BYLAYER
 49
-0.5
 62
   256
  6
BYLAYER
  0
ACDBPLACEHOLDER
  5
F
102
{ACAD_REACTORS
330
E
102
}
330
E
  0
SCALE
  5
48
102
{ACAD_REACTORS
330
47
102
}
330
47
100
AcDbScale
 70
     0
300
1:1
140
1.0
141
1.0
290
     1
  0
SCALE
  5
49
102
{ACAD_REACTORS
330
47
102
}
330
47
100
AcDbScale
 70
     0
300
1:2
140
1.0
141
2.0
290
     0
  0
SCALE
  5
4A
102
{ACAD_REACTORS
330
47
102
}
330
47
100
AcDbScale
 70
     0
300
1:4
140
1.0
141
4.0
290
     0
  0
SCALE
  5
4B
102
{ACAD_REACTORS
330
47
102
}
330
47
100
AcDbScale
 70
     0
300
1:5
140
1.0
141
5.0
290
     0
  0
SCALE
  5
4C
102
{ACAD_REACTORS
330
47
102
}
330
47
100
AcDbScale
 70
     0
300
1:8
140
1.0
141
8.0
290
     0
  0
SCALE
  5
4D
102
{ACAD_REACTORS
330
47
102
}
330
47
100
AcDbScale
 70
     0
300
1:10
140
1.0
141
10.0
290
     0
  0
SCALE
  5
4E
102
{ACAD_REACTORS
330
47
102
}
330
47
100
AcDbScale
 70
     0
300
1:16
140
1.0
141
16.0
290
     0
  0
SCALE
  5
4F
102
{ACAD_REACTORS
330
47
102
}
330
47
100
AcDbScale
 70
     0
300
1:20
140
1.0
141
20.0
290
     0
  0
SCALE
  5
50
102
{ACAD_REACTORS
330
47
102
}
330
47
100
AcDbScale
 70
     0
300
1:30
140
1.0
141
30.0
290
     0
  0
SCALE
  5
51
102
{ACAD_REACTORS
330
47
102
}
330
47
100
AcDbScale
 70
     0
300
1:40
140
1.0
141
40.0
290
     0
  0
SCALE
  5
52
102
{ACAD_REACTORS
330
47
102
}
330
47
100
AcDbScale
 70
     0
300
1:50
140
1.0
141
50.0
290
     0
  0
SCALE
  5
53
102
{ACAD_REACTORS
330
47
102
}
330
47
100
AcDbScale
 70
     0
300
1:100
140
1.0
141
100.0
290
     0
  0
SCALE
  5
54
102
{ACAD_REACTORS
330
47
102
}
330
47
100
AcDbScale
 70
     0
300
2:1
140
2.0
141
1.0
290
     0
  0
SCALE
  5
55
102
{ACAD_REACTORS
330
47
102
}
330
47
100
AcDbScale
 70
     0
300
4:1
140
4.0
141
1.0
290
     0
  0
SCALE
  5
56
102
{ACAD_REACTORS
330
47
102
}
330
47
100
AcDbScale
 70
     0
300
8:1
140
8.0
141
1.0
290
     0
  0
SCALE
  5
57
102
{ACAD_REACTORS
330
47
102
}
330
47
100
AcDbScale
 70
     0
300
10:1
140
10.0
141
1.0
290
     0
  0
SCALE
  5
58
102
{ACAD_REACTORS
330
47
102
}
330
47
100
AcDbScale
 70
     0
300
100:1
140
100.0
141
1.0
290
     0
  0
SCALE
  5
59
102
{ACAD_REACTORS
330
47
102
}
330
47
100
AcDbScale
 70
     0
300
1/128" = 1'-0"
140
0.0078125
141
12.0
290
     0
  0
SCALE
  5
5A
102
{ACAD_REACTORS
330
47
102
}
330
47
100
AcDbScale
 70
     0
300
1/64" = 1'-0"
140
0.015625
141
12.0
290
     0
  0
SCALE
  5
5B
102
{ACAD_REACTORS
330
47
102
}
330
47
100
AcDbScale
 70
     0
300
1/32" = 1'-0"
140
0.03125
141
12.0
290
     0
  0
SCALE
  5
5C
102
{ACAD_REACTORS
330
47
102
}
330
47
100
AcDbScale
 70
     0
300
1/16" = 1'-0"
140
0.0625
141
12.0
290
     0
  0
SCALE
  5
5D
102
{ACAD_REACTORS
330
47
102
}
330
47
100
AcDbScale
 70
     0
300
3/32" = 1'-0"
140
0.09375
141
12.0
290
     0
  0
SCALE
  5
5E
102
{ACAD_REACTORS
330
47
102
}
330
47
100
AcDbScale
 70
     0
300
1/8" = 1'-0"
140
0.125
141
12.0
290
     0
  0
SCALE
  5
5F
102
{ACAD_REACTORS
330
47
102
}
330
47
100
AcDbScale
 70
     0
300
3/16" = 1'-0"
140
0.1875
141
12.0
290
     0
  0
SCALE
  5
60
102
{ACAD_REACTORS
330
47
102
}
330
47
100
AcDbScale
 70
     0
300
1/4" = 1'-0"
140
0.25
141
12.0
290
     0
  0
SCALE
  5
61
102
{ACAD_REACTORS
330
47
102
}
330
47
100
AcDbScale
 70
     0
300
3/8" = 1'-0"
140
0.375
141
12.0
290
     0
  0
SCALE
  5
62
102
{ACAD_REACTORS
330
47
102
}
330
47
100
AcDbScale
 70
     0
300
1/2" = 1'-0"
140
0.5
141
12.0
290
     0
  0
SCALE
  5
63
102
{ACAD_REACTORS
330
47
102
}
330
47
100
AcDbScale
 70
     0
300
3/4" = 1'-0"
140
0.75
141
12.0
290
     0
  0
SCALE
  5
64
102
{ACAD_REACTORS
330
47
102
}
330
47
100
AcDbScale
 70
     0
300
1" = 1'-0"
140
1.0
141
12.0
290
     0
  0
SCALE
  5
65
102
{ACAD_REACTORS
330
47
102
}
330
47
100
AcDbScale
 70
     0
300
1-1/2" = 1'-0"
140
1.5
141
12.0
290
     0
  0
SCALE
  5
66
102
{ACAD_REACTORS
330
47
102
}
330
47
100
AcDbScale
 70
     0
300
3" = 1'-0"
140
3.0
141
12.0
290
     0
  0
SCALE
  5
67
102
{ACAD_REACTORS
330
47
102
}
330
47
100
AcDbScale
 70
     0
300
6" = 1'-0"
140
6.0
141
12.0
290
     0
  0
SCALE
  5
68
102
{ACAD_REACTORS
330
47
102
}
330
47
100
AcDbScale
 70
     0
300
1'-0" = 1'-0"
140
12.0
141
12.0
290
     0
  0
VISUALSTYLE
  5
2F
102
{ACAD_REACTORS
330
2A
102
}
102
{ACAD_XDICTIONARY
360
384
102
}
330
2A
100
AcDbVisualStyle
  2
2dWireframe
 70
     4
 71
     0
 72
     2
 73
     0
 90
        0
 40
0.6
 41
30.0
 62
     5
 63
     7
 74
     1
 91
        4
 64
     7
 65
   257
 75
     1
175
     1
 42
1.0
 92
        0
 66
   257
 43
1.0
 76
     1
 77
     6
 78
     2
 67
     7
 79
     5
170
     0
171
     0
290
     0
174
     0
 93
        1
 44
0.0
173
     0
291
     0
 45
0.0
1001
ACAD
1000
AcDbSavedByObjectVersion
1070
     0
  0
VISUALSTYLE
  5
32
102
{ACAD_REACTORS
330
2A
102
}
102
{ACAD_XDICTIONARY
360
38A
102
}
330
2A
100
AcDbVisualStyle
  2
Basic
 70
     7
 71
     1
 72
     0
 73
     1
 90
        0
 40
0.6
 41
30.0
 62
     5
 63
     7
 74
     0
 91
        4
 64
     7
 65
   257
 75
     1
175
     1
 42
1.0
 92
        8
 66
     7
 43
1.0
 76
     1
 77
     6
 78
     2
 67
     7
 79
     5
170
     0
171
     0
290
     0
174
     0
 93
        1
 44
0.0
173
     0
291
     1
 45
0.0
1001
ACAD
1000
AcDbSavedByObjectVersion
1070
     0
  0
VISUALSTYLE
  5
36
102
{ACAD_REACTORS
330
2A
102
}
102
{ACAD_XDICTIONARY
360
392
102
}
330
2A
100
AcDbVisualStyle
  2
Brighten
 70
    12
 71
     2
 72
     2
 73
     0
 90
        0
 40
0.6
 41
30.0
 62
     5
 63
     7
 74
     1
 91
        4
 64
     7
 65
   257
 75
     1
175
     1
 42
1.0
 92
        8
 66
     7
 43
1.0
 76
     1
 77
     6
 78
     2
 67
     7
 79
     5
170
     0
171
     0
290
     0
174
     0
 93
        1
 44
50.0
173
     0
291
     1
 45
0.0
1001
ACAD
1000
AcDbSavedByObjectVersion
1070
     0
  0
VISUALSTYLE
  5
3A
102
{ACAD_REACTORS
330
2A
102
}
102
{ACAD_XDICTIONARY
360
39A
102
}
330
2A
100
AcDbVisualStyle
  2
ColorChange
 70
    16
 71
     2
 72
     2
 73
     3
 90
        0
 40
0.6
 41
30.0
 62
     5
 63
     8
 74
     1
 91
        4
 64
     7
 65
   257
 75
     1
175
     1
 42
1.0
 92
        8
 66
     8
 43
1.0
 76
     1
 77
     6
 78
     2
 67
     7
 79
     5
170
     0
171
     0
290
     0
174
     0
 93
        1
 44
0.0
173
     0
291
     1
 45
0.0
1001
ACAD
1000
AcDbSavedByObjectVersion
1070
     0
  0
VISUALSTYLE
  5
34
102
{ACAD_REACTORS
330
2A
102
}
102
{ACAD_XDICTIONARY
360
38E
102
}
330
2A
100
AcDbVisualStyle
  2
Conceptual
 70
     9
 71
     3
 72
     2
 73
     0
 90
        0
 40
0.6
 41
30.0
 62
     5
 63
     7
 74
     2
 91
        2
 64
     7
 65
   257
 75
     1
175
     1
 42
179.0
 92
        8
 66
     7
 43
1.0
 76
     1
 77
     6
 78
     2
 67
     7
 79
     3
170
     0
171
     0
290
     0
174
     0
 93
        1
 44
0.0
173
     0
291
     0
 45
0.0
1001
ACAD
1000
AcDbSavedByObjectVersion
1070
     0
  0
VISUALSTYLE
  5
35
102
{ACAD_REACTORS
330
2A
102
}
102
{ACAD_XDICTIONARY
360
390
102
}
330
2A
100
AcDbVisualStyle
  2
Dim
 70
    11
 71
     2
 72
     2
 73
     0
 90
        0
 40
0.6
 41
30.0
 62
     5
 63
     7
 74
     1
 91
        4
 64
     7
 65
   257
 75
     1
175
     1
 42
1.0
 92
        8
 66
     7
 43
1.0
 76
     1
 77
     6
 78
     2
 67
     7
 79
     5
170
     0
171
     0
290
     0
174
     0
 93
        1
 44
-50.0
173
     0
291
     1
 45
0.0
1001
ACAD
1000
AcDbSavedByObjectVersion
1070
     0
  0
VISUALSTYLE
  5
3D
102
{ACAD_REACTORS
330
2A
102
}
102
{ACAD_XDICTIONARY
360
3A0
102
}
330
2A
100
AcDbVisualStyle
  2
EdgeColorOff
 70
    22
 71
     2
 72
     2
 73
     0
 90
        0
 40
0.6
 41
30.0
 62
     5
 63
     7
 74
     1
 91
        4
 64
     7
 65
   257
 75
     1
175
     1
 42
1.0
 92
        8
 66
     7
 43
1.0
 76
     1
 77
     6
 78
     2
 67
     7
 79
     5
170
     0
171
     0
290
     0
174
     0
 93
        1
 44
0.0
173
     0
291
     1
 45
0.0
1001
ACAD
1000
AcDbSavedByObjectVersion
1070
     0
  0
VISUALSTYLE
  5
39
102
{ACAD_REACTORS
330
2A
102
}
102
{ACAD_XDICTIONARY
360
398
102
}
330
2A
100
AcDbVisualStyle
  2
Facepattern
 70
    15
 71
     2
 72
     2
 73
     0
 90
        0
 40
0.6
 41
30.0
 62
     5
 63
     7
 74
     1
 91
        4
 64
     7
 65
   257
 75
     1
175
     1
 42
1.0
 92
        8
 66
     7
 43
1.0
 76
     1
 77
     6
 78
     2
 67
     7
 79
     5
170
     0
171
     0
290
     0
174
     0
 93
        1
 44
0.0
173
     0
291
     1
 45
0.0
1001
ACAD
1000
AcDbSavedByObjectVersion
1070
     0
  0
VISUALSTYLE
  5
2B
102
{ACAD_REACTORS
330
2A
102
}
102
{ACAD_XDICTIONARY
360
37C
102
}
330
2A
100
AcDbVisualStyle
  2
Flat
 70
     0
 71
     2
 72
     1
 73
     1
 90
        2
 40
0.6
 41
30.0
 62
     5
 63
     7
 74
     0
 91
        0
 64
     7
 65
   257
 75
     1
175
     1
 42
1.0
 92
        8
 66
     7
 43
1.0
 76
     1
 77
     6
 78
     2
 67
     7
 79
     5
170
     0
171
     0
290
     0
174
     0
 93
       13
 44
0.0
173
     0
291
     1
 45
0.0
1001
ACAD
1000
AcDbSavedByObjectVersion
1070
     0
  0
VISUALSTYLE
  5
2C
102
{ACAD_REACTORS
330
2A
102
}
102
{ACAD_XDICTIONARY
360
37E
102
}
330
2A
100
AcDbVisualStyle
  2
FlatWithEdges
 70
     1
 71
     2
 72
     1
 73
     1
 90
        2
 40
0.6
 41
30.0
 62
     5
 63
     7
 74
     1
 91
        0
 64
     7
 65
   257
 75
     1
175
     1
 42
1.0
 92
        0
 66
   257
 43
1.0
 76
     1
 77
     6
 78
     2
 67
     7
 79
     5
170
     0
171
     0
290
     0
174
     0
 93
       13
 44
0.0
173
     0
291
     1
 45
0.0
1001
ACAD
1000
AcDbSavedByObjectVersion
1070
     0
  0
VISUALSTYLE
  5
2D
102
{ACAD_REACTORS
330
2A
102
}
102
{ACAD_XDICTIONARY
360
380
102
}
330
2A
100
AcDbVisualStyle
  2
Gouraud
 70
     2
 71
     2
 72
     2
 73
     1
 90
        2
 40
0.6
 41
30.0
 62
     5
 63
     7
 74
     0
 91
        0
 64
     7
 65
   257
 75
     1
175
     1
 42
1.0
 92
        0
 66
     7
 43
1.0
 76
     1
 77
     6
 78
     2
 67
     7
 79
     5
170
     0
171
     0
290
     0
174
     0
 93
       13
 44
0.0
173
     0
291
     1
 45
0.0
1001
ACAD
1000
AcDbSavedByObjectVersion
1070
     0
  0
VISUALSTYLE
  5
2E
102
{ACAD_REACTORS
330
2A
102
}
102
{ACAD_XDICTIONARY
360
382
102
}
330
2A
100
AcDbVisualStyle
  2
GouraudWithEdges
 70
     3
 71
     2
 72
     2
 73
     1
 90
        2
 40
0.6
 41
30.0
 62
     5
 63
     7
 74
     1
 91
        0
 64
     7
 65
   257
 75
     1
175
     1
 42
1.0
 92
        0
 66
   257
 43
1.0
 76
     1
 77
     6
 78
     2
 67
     7
 79
     5
170
     0
171
     0
290
     0
174
     0
 93
       13
 44
0.0
173
     0
291
     1
 45
0.0
1001
ACAD
1000
AcDbSavedByObjectVersion
1070
     0
  0
VISUALSTYLE
  5
31
102
{ACAD_REACTORS
330
2A
102
}
102
{ACAD_XDICTIONARY
360
388
102
}
330
2A
100
AcDbVisualStyle
  2
Hidden
 70
     6
 71
     1
 72
     2
 73
     2
 90
        0
 40
0.6
 41
30.0
 62
     5
 63
     7
 74
     2
 91
        2
 64
     7
 65
   257
 75
     2
175
     1
 42
40.0
 92
        0
 66
   257
 43
1.0
 76
     1
 77
     6
 78
     2
 67
     7
 79
     3
170
     0
171
     0
290
     0
174
     0
 93
        1
 44
0.0
173
     0
291
     0
 45
0.0
1001
ACAD
1000
AcDbSavedByObjectVersion
1070
     0
  0
VISUALSTYLE
  5
3B
102
{ACAD_REACTORS
330
2A
102
}
102
{ACAD_XDICTIONARY
360
39C
102
}
330
2A
100
AcDbVisualStyle
  2
JitterOff
 70
    20
 71
     2
 72
     2
 73
     0
 90
        0
 40
0.6
 41
30.0
 62
     5
 63
     7
 74
     1
 91
        4
 64
     7
 65
   257
 75
     1
175
     1
 42
1.0
 92
       10
 66
     7
 43
1.0
 76
     1
 77
     6
 78
     2
 67
     7
 79
     5
170
     0
171
     0
290
     0
174
     0
 93
        1
 44
0.0
173
     0
291
     1
 45
0.0
1001
ACAD
1000
AcDbSavedByObjectVersion
1070
     0
  0
VISUALSTYLE
  5
38
102
{ACAD_REACTORS
330
2A
102
}
102
{ACAD_XDICTIONARY
360
396
102
}
330
2A
100
AcDbVisualStyle
  2
Linepattern
 70
    14
 71
     2
 72
     2
 73
     0
 90
        0
 40
0.6
 41
30.0
 62
     5
 63
     7
 74
     1
 91
        4
 64
     7
 65
   257
 75
     7
175
     7
 42
1.0
 92
        8
 66
     7
 43
1.0
 76
     1
 77
     6
 78
     2
 67
     7
 79
     5
170
     0
171
     0
290
     0
174
     0
 93
        1
 44
0.0
173
     0
291
     1
 45
0.0
1001
ACAD
1000
AcDbSavedByObjectVersion
1070
     0
  0
VISUALSTYLE
  5
3C
102
{ACAD_REACTORS
330
2A
102
}
102
{ACAD_XDICTIONARY
360
39E
102
}
330
2A
100
AcDbVisualStyle
  2
OverhangOff
 70
    21
 71
     2
 72
     2
 73
     0
 90
        0
 40
0.6
 41
30.0
 62
     5
 63
     7
 74
     1
 91
        4
 64
     7
 65
   257
 75
     1
175
     1
 42
1.0
 92
        9
 66
     7
 43
1.0
 76
     1
 77
     6
 78
     2
 67
     7
 79
     5
170
     0
171
     0
290
     0
174
     0
 93
        1
 44
0.0
173
     0
291
     1
 45
0.0
1001
ACAD
1000
AcDbSavedByObjectVersion
1070
     0
  0
VISUALSTYLE
  5
33
102
{ACAD_REACTORS
330
2A
102
}
102
{ACAD_XDICTIONARY
360
38C
102
}
330
2A
100
AcDbVisualStyle
  2
Realistic
 70
     8
 71
     2
 72
     3
 73
     0
 90
        2
 40
0.6
 41
30.0
 62
     5
 63
     7
 74
     0
 91
        0
 64
     7
 65
   257
 75
     1
175
     1
 42
1.0
 92
        8
 66
   257
 43
1.0
 76
     1
 77
     6
 78
     2
 67
     7
 79
     3
170
     0
171
     0
290
     0
174
     0
 93
       13
 44
0.0
173
     0
291
     0
 45
0.0
1001
ACAD
1000
AcDbSavedByObjectVersion
1070
     0
  0
VISUALSTYLE
  5
42
102
{ACAD_REACTORS
330
2A
102
}
102
{ACAD_XDICTIONARY
360
3AA
102
}
330
2A
100
AcDbVisualStyle
  2
Shaded
 70
    27
 71
     2
 72
     2
 73
     1
 90
        2
 40
0.6
 41
30.0
 62
     5
 63
     7
 74
     0
 91
        4
 64
     7
 65
   257
 75
     1
175
     1
 42
1.0
 92
        8
 66
   257
 43
1.0
 76
     1
 77
     6
 78
     2
 67
     8
 79
     3
170
     0
171
     0
290
     0
174
     0
 93
        5
 44
0.0
173
     0
291
     0
 45
0.0
1001
ACAD
1000
AcDbSavedByObjectVersion
1070
     0
  0
VISUALSTYLE
  5
41
102
{ACAD_REACTORS
330
2A
102
}
102
{ACAD_XDICTIONARY
360
3A8
102
}
330
2A
100
AcDbVisualStyle
  2
Shaded with edges
 70
    26
 71
     2
 72
     2
 73
     1
 90
        2
 40
0.6
 41
30.0
 62
     5
 63
     7
 74
     1
 91
       10
 64
     7
 65
   257
 75
     2
175
     1
 42
1.0
 92
        8
 66
   257
 43
1.0
 76
     1
 77
     6
 78
     2
 67
     7
 79
     3
170
     0
171
     0
290
     0
174
     0
 93
        5
 44
0.0
173
     0
291
     0
 45
0.0
1001
ACAD
1000
AcDbSavedByObjectVersion
1070
     0
  0
VISUALSTYLE
  5
3E
102
{ACAD_REACTORS
330
2A
102
}
102
{ACAD_XDICTIONARY
360
3A2
102
}
330
2A
100
AcDbVisualStyle
  2
Shades of Gray
 70
    23
 71
     2
 72
     2
 73
     3
 90
        0
 40
0.6
 41
30.0
 62
     5
 63
     7
 74
     2
 91
        2
 64
     7
 65
     7
 75
     1
175
     1
 42
40.0
 92
        8
 66
     7
 43
1.0
 76
     1
 77
     6
 78
     2
 67
     7
 79
     3
170
     0
171
     0
290
     0
174
     0
 93
        1
 44
0.0
173
     0
291
     0
 45
0.0
1001
ACAD
1000
AcDbSavedByObjectVersion
1070
     0
  0
VISUALSTYLE
  5
3F
102
{ACAD_REACTORS
330
2A
102
}
102
{ACAD_XDICTIONARY
360
3A4
102
}
330
2A
100
AcDbVisualStyle
  2
Sketchy
 70
    24
 71
     1
 72
     2
 73
     2
 90
        0
 40
0.6
 41
30.0
 62
     5
 63
     7
 74
     2
 91
        2
 64
     7
 65
     7
 75
     1
175
     1
 42
40.0
 92
       11
 66
     7
 43
1.0
 76
     1
 77
     6
 78
     2
 67
     7
 79
     6
170
     0
171
     0
290
     0
174
     0
 93
        1
 44
0.0
173
     0
291
     0
 45
0.0
1001
ACAD
1000
AcDbSavedByObjectVersion
1070
     0
  0
VISUALSTYLE
  5
37
102
{ACAD_REACTORS
330
2A
102
}
102
{ACAD_XDICTIONARY
360
394
102
}
330
2A
100
AcDbVisualStyle
  2
Thicken
 70
    13
 71
     2
 72
     2
 73
     0
 90
        0
 40
0.6
 41
30.0
 62
     5
 63
     7
 74
     1
 91
        4
 64
     7
 65
   257
 75
     1
175
     1
 42
1.0
 92
       12
 66
     7
 43
1.0
 76
     1
 77
     6
 78
     2
 67
     7
 79
     5
170
     0
171
     0
290
     0
174
     0
 93
        1
 44
0.0
173
     0
291
     1
 45
0.0
1001
ACAD
1000
AcDbSavedByObjectVersion
1070
     0
  0
VISUALSTYLE
  5
30
102
{ACAD_REACTORS
330
2A
102
}
102
{ACAD_XDICTIONARY
360
386
102
}
330
2A
100
AcDbVisualStyle
  2
Wireframe
 70
     5
 71
     0
 72
     2
 73
     0
 90
        0
 40
0.6
 41
30.0
 62
     5
 63
     7
 74
     1
 91
        4
 64
     7
 65
   257
 75
     1
175
     1
 42
1.0
 92
        0
 66
   257
 43
1.0
 76
     1
 77
     6
 78
     2
 67
     7
 79
     3
170
     0
171
     0
290
     0
174
     0
 93
        1
 44
0.0
173
     0
291
     0
 45
0.0
1001
ACAD
1000
AcDbSavedByObjectVersion
1070
     0
  0
VISUALSTYLE
  5
40
102
{ACAD_REACTORS
330
2A
102
}
102
{ACAD_XDICTIONARY
360
3A6
102
}
330
2A
100
AcDbVisualStyle
  2
X-Ray
 70
    25
 71
     2
 72
     2
 73
     1
 90
        1
 40
0.5
 41
30.0
 62
     5
 63
     7
 74
     1
 91
        0
 64
     7
 65
   257
 75
     1
175
     1
 42
1.0
 92
        8
 66
     7
 43
1.0
 76
     1
 77
     6
 78
     2
 67
     7
 79
     3
170
     0
171
     0
290
     0
174
     0
 93
       13
 44
0.0
173
     0
291
     0
 45
0.0
1001
ACAD
1000
AcDbSavedByObjectVersion
1070
     0
  0
DICTIONARYVAR
  5
37A
102
{ACAD_REACTORS
330
371
102
}
330
371
100
DictionaryVariables
280
     0
  1
1:1
  0
DICTIONARYVAR
  5
378
102
{ACAD_REACTORS
330
371
102
}
330
371
100
DictionaryVariables
280
     0
  1
2
  0
DICTIONARYVAR
  5
379
102
{ACAD_REACTORS
330
371
102
}
330
371
100
DictionaryVariables
280
     0
  1
1
  0
DICTIONARYVAR
  5
37B
102
{ACAD_REACTORS
330
371
102
}
330
371
100
DictionaryVariables
280
     0
  1
1
  0
DICTIONARYVAR
  5
375
102
{ACAD_REACTORS
330
371
102
}
330
371
100
DictionaryVariables
280
     0
  1
80.000000
  0
DICTIONARYVAR
  5
374
102
{ACAD_REACTORS
330
371
102
}
330
371
100
DictionaryVariables
280
     0
  1
5.000000
  0
DICTIONARY
  5
3AE
330
45
100
AcDbDictionary
280
     1
281
     1
  3
ACAD_XREC_ROUNDTRIP
360
3AF
  0
DICTIONARY
  5
3AC
330
44
100
AcDbDictionary
280
     1
281
     1
  3
ACAD_XREC_ROUNDTRIP
360
3AD
  0
DICTIONARY
  5
3B0
330
46
100
AcDbDictionary
280
     1
281
     1
  3
ACAD_XREC_ROUNDTRIP
360
3B1
  0
DICTIONARY
  5
384
330
2F
100
AcDbDictionary
280
     1
281
     1
  3
ACAD_XREC_ROUNDTRIP
360
385
  0
DICTIONARY
  5
38A
330
32
100
AcDbDictionary
280
     1
281
     1
  3
ACAD_XREC_ROUNDTRIP
360
38B
  0
DICTIONARY
  5
392
330
36
100
AcDbDictionary
280
     1
281
     1
  3
ACAD_XREC_ROUNDTRIP
360
393
  0
DICTIONARY
  5
39A
330
3A
100
AcDbDictionary
280
     1
281
     1
  3
ACAD_XREC_ROUNDTRIP
360
39B
  0
DICTIONARY
  5
38E
330
34
100
AcDbDictionary
280
     1
281
     1
  3
ACAD_XREC_ROUNDTRIP
360
38F
  0
DICTIONARY
  5
390
330
35
100
AcDbDictionary
280
     1
281
     1
  3
ACAD_XREC_ROUNDTRIP
360
391
  0
DICTIONARY
  5
3A0
330
3D
100
AcDbDictionary
280
     1
281
     1
  3
ACAD_XREC_ROUNDTRIP
360
3A1
  0
DICTIONARY
  5
398
330
39
100
AcDbDictionary
280
     1
281
     1
  3
ACAD_XREC_ROUNDTRIP
360
399
  0
DICTIONARY
  5
37C
330
2B
100
AcDbDictionary
280
     1
281
     1
  3
ACAD_XREC_ROUNDTRIP
360
37D
  0
DICTIONARY
  5
37E
330
2C
100
AcDbDictionary
280
     1
281
     1
  3
ACAD_XREC_ROUNDTRIP
360
37F
  0
DICTIONARY
  5
380
330
2D
100
AcDbDictionary
280
     1
281
     1
  3
ACAD_XREC_ROUNDTRIP
360
381
  0
DICTIONARY
  5
382
330
2E
100
AcDbDictionary
280
     1
281
     1
  3
ACAD_XREC_ROUNDTRIP
360
383
  0
DICTIONARY
  5
388
330
31
100
AcDbDictionary
280
     1
281
     1
  3
ACAD_XREC_ROUNDTRIP
360
389
  0
DICTIONARY
  5
39C
330
3B
100
AcDbDictionary
280
     1
281
     1
  3
ACAD_XREC_ROUNDTRIP
360
39D
  0
DICTIONARY
  5
396
330
38
100
AcDbDictionary
280
     1
281
     1
  3
ACAD_XREC_ROUNDTRIP
360
397
  0
DICTIONARY
  5
39E
330
3C
100
AcDbDictionary
280
     1
281
     1
  3
ACAD_XREC_ROUNDTRIP
360
39F
  0
DICTIONARY
  5
38C
330
33
100
AcDbDictionary
280
     1
281
     1
  3
ACAD_XREC_ROUNDTRIP
360
38D
  0
DICTIONARY
  5
3AA
330
42
100
AcDbDictionary
280
     1
281
     1
  3
ACAD_XREC_ROUNDTRIP
360
3AB
  0
DICTIONARY
  5
3A8
330
41
100
AcDbDictionary
280
     1
281
     1
  3
ACAD_XREC_ROUNDTRIP
360
3A9
  0
DICTIONARY
  5
3A2
330
3E
100
AcDbDictionary
280
     1
281
     1
  3
ACAD_XREC_ROUNDTRIP
360
3A3
  0
DICTIONARY
  5
3A4
330
3F
100
AcDbDictionary
280
     1
281
     1
  3
ACAD_XREC_ROUNDTRIP
360
3A5
  0
DICTIONARY
  5
394
330
37
100
AcDbDictionary
280
     1
281
     1
  3
ACAD_XREC_ROUNDTRIP
360
395
  0
DICTIONARY
  5
386
330
30
100
AcDbDictionary
280
     1
281
     1
  3
ACAD_XREC_ROUNDTRIP
360
387
  0
DICTIONARY
  5
3A6
330
40
100
AcDbDictionary
280
     1
281
     1
  3
ACAD_XREC_ROUNDTRIP
360
3A7
  0
XRECORD
  5
3AF
102
{ACAD_REACTORS
330
3AE
102
}
330
3AE
100
AcDbXrecord
280
     1
102
MATERIAL
148
0.0
149
0.0
149
0.0
 93
        0
 94
      127
282
     0
 72
     1
 77
     1
171
     1
175
     1
179
     1
273
     0
  0
XRECORD
  5
3AD
102
{ACAD_REACTORS
330
3AC
102
}
330
3AC
100
AcDbXrecord
280
     1
102
MATERIAL
148
0.0
149
0.0
149
0.0
 93
        0
 94
      127
282
     0
 72
     1
 77
     1
171
     1
175
     1
179
     1
273
     0
  0
XRECORD
  5
3B1
102
{ACAD_REACTORS
330
3B0
102
}
330
3B0
100
AcDbXrecord
280
     1
102
MATERIAL
148
0.0
149
0.0
149
0.0
 93
        0
 94
      127
282
     0
 72
     1
 77
     1
171
     1
175
     1
179
     1
273
     0
  0
XRECORD
  5
385
102
{ACAD_REACTORS
330
384
102
}
330
384
100
AcDbXrecord
280
     1
102
RTVSPropertyOp0
 70
     1
102
RTVSPropertyOp1
 70
     1
102
RTVSPropertyOp2
 70
     1
102
RTVSPropertyOp3
 70
     1
102
RTVSPropertyOp4
 70
     1
102
RTVSPropertyOp5
 70
     1
102
RTVSPropertyOp6
 70
     1
102
RTVSPropertyOp7
 70
     1
102
RTVSPropertyOp8
 70
     1
102
RTVSPropertyOp9
 70
     1
102
RTVSPropertyOp10
 70
     1
102
RTVSPropertyOp11
 70
     1
102
RTVSPropertyOp12
 70
     1
102
RTVSPropertyOp13
 70
     1
102
RTVSPropertyOp14
 70
     1
102
RTVSPropertyOp15
 70
     1
102
RTVSPropertyOp16
 70
     1
102
RTVSPropertyOp17
 70
     1
102
RTVSPropertyOp18
 70
     1
102
RTVSPropertyOp19
 70
     1
102
RTVSPropertyOp20
 70
     1
102
RTVSPropertyOp21
 70
     1
102
RTVSPropertyOp22
 70
     1
102
RTVSPropertyOp23
 70
     1
102
RTVSPropertyOp24
 70
     1
102
RTVSPropertyOp25
 70
     1
102
RTVSPropertyOp26
 70
     1
102
RTVSPropertyOp27
 70
     1
102
RTVSPropertyOp28
 70
     1
102
RTVSPropertyOp29
 70
     1
102
RTVSPropertyOp30
 70
     1
102
RTVSPropertyOp31
 70
     1
102
RTVSPropertyOp32
 70
     1
102
RTVSPropertyOp33
 70
     1
102
RTVSPropertyOp34
 70
     1
102
RTVSPropertyOp35
 70
     1
102
RTVSPropertyOp36
 70
     1
102
RTVSPropertyOp37
 70
     1
102
RTVSPropertyOp38
 70
     1
102
RTVSPropertyOp39
 70
     1
102
RTVSPropertyOp40
 70
     1
102
RTVSPropertyOp41
 70
     1
102
RTVSPropertyOp42
 70
     1
102
RTVSPropertyOp43
 70
     1
102
RTVSPropertyOp44
 70
     1
102
RTVSPropertyOp45
 70
     1
102
RTVSPropertyOp46
 70
     1
102
RTVSPropertyOp47
 70
     1
102
RTVSPropertyOp48
 70
     1
102
RTVSPropertyOp49
 70
     1
102
RTVSPropertyOp50
 70
     1
102
RTVSPropertyOp51
 70
     0
102
RTVSPropertyOp52
 70
     0
102
RTVSPropertyOp53
 70
     1
102
RTVSPropertyOp54
 70
     1
102
RTVSPropertyOp55
 70
     1
102
RTVSPropertyOp56
 70
     1
102
RTVSPropertyOp57
 70
     1
102
RTVSPost2010Prop28
280
     1
102
RTVSPost2010PropOp28
 70
     1
102
RTVSPost2010Prop29
280
     1
102
RTVSPost2010PropOp29
 70
     1
102
RTVSPost2010Prop30
280
     0
102
RTVSPost2010PropOp30
 70
     1
102
RTVSPost2010Prop31
280
     0
102
RTVSPost2010PropOp31
 70
     1
102
RTVSPost2010Prop32
280
     0
102
RTVSPost2010PropOp32
 70
     1
102
RTVSPost2010Prop33
280
     0
102
RTVSPost2010PropOp33
 70
     1
102
RTVSPost2010Prop34
280
     0
102
RTVSPost2010PropOp34
 70
     1
102
RTVSPost2010Prop35
280
     0
102
RTVSPost2010PropOp35
 70
     1
102
RTVSPost2010Prop36
280
     0
102
RTVSPost2010PropOp36
 70
     1
102
RTVSPost2010Prop37
 90
       50
102
RTVSPost2010PropOp37
 70
     1
102
RTVSPost2010Prop38
140
0.0
102
RTVSPost2010PropOp38
 70
     1
102
RTVSPost2010Prop39
140
1.0
102
RTVSPost2010PropOp39
 70
     1
102
RTVSPost2010Prop40
 90
        0
102
RTVSPost2010PropOp40
 70
     1
102
RTVSPost2010Prop41ColorIndex
 90
       18
102
RTVSPost2010Prop41ColorRGB
 90
        0
102
RTVSPost2010PropOp41
 70
     1
102
RTVSPost2010Prop42
 90
       50
102
RTVSPost2010PropOp42
 70
     1
102
RTVSPost2010Prop43
 90
        3
102
RTVSPost2010PropOp43
 70
     1
102
RTVSPost2010Prop44ColorIndex
 90
        5
102
RTVSPost2010Prop44ColorRGB
 90
      255
102
RTVSPost2010PropOp44
 70
     1
102
RTVSPost2010Prop45
280
     0
102
RTVSPost2010PropOp45
 70
     1
102
RTVSPost2010Prop46
 90
       50
102
RTVSPost2010PropOp46
 70
     1
102
RTVSPost2010Prop47
 90
       50
102
RTVSPost2010PropOp47
 70
     1
102
RTVSPost2010Prop48
 90
       50
102
RTVSPost2010PropOp48
 70
     1
102
RTVSPost2010Prop49
280
     0
102
RTVSPost2010PropOp49
 70
     1
102
RTVSPost2010Prop50
 90
       50
102
RTVSPost2010PropOp50
 70
     1
102
RTVSPost2010Prop51ColorIndex
 90
      256
102
RTVSPost2010Prop51ColorRGB
 90
-16777216
102
RTVSPost2010PropOp51
 70
     0
102
RTVSPost2010Prop52
140
1.0
102
RTVSPost2010PropOp52
 70
     0
102
RTVSPost2010Prop53
 90
        2
102
RTVSPost2010PropOp53
 70
     1
102
RTVSPost2010Prop54
  1
strokes_ogs.tif
102
RTVSPost2010PropOp54
 70
     1
102
RTVSPost2010Prop55
280
     0
102
RTVSPost2010PropOp55
 70
     1
102
RTVSPost2010Prop56
140
1.0
102
RTVSPost2010PropOp56
 70
     1
102
RTVSPost2010Prop57
140
1.0
102
RTVSPost2010PropOp57
 70
     1
  0
XRECORD
  5
38B
102
{ACAD_REACTORS
330
38A
102
}
330
38A
100
AcDbXrecord
280
     1
102
RTVSPropertyOp0
 70
     1
102
RTVSPropertyOp1
 70
     1
102
RTVSPropertyOp2
 70
     1
102
RTVSPropertyOp3
 70
     1
102
RTVSPropertyOp4
 70
     1
102
RTVSPropertyOp5
 70
     1
102
RTVSPropertyOp6
 70
     1
102
RTVSPropertyOp7
 70
     1
102
RTVSPropertyOp8
 70
     1
102
RTVSPropertyOp9
 70
     1
102
RTVSPropertyOp10
 70
     1
102
RTVSPropertyOp11
 70
     1
102
RTVSPropertyOp12
 70
     1
102
RTVSPropertyOp13
 70
     1
102
RTVSPropertyOp14
 70
     1
102
RTVSPropertyOp15
 70
     1
102
RTVSPropertyOp16
 70
     1
102
RTVSPropertyOp17
 70
     1
102
RTVSPropertyOp18
 70
     1
102
RTVSPropertyOp19
 70
     1
102
RTVSPropertyOp20
 70
     1
102
RTVSPropertyOp21
 70
     1
102
RTVSPropertyOp22
 70
     1
102
RTVSPropertyOp23
 70
     1
102
RTVSPropertyOp24
 70
     1
102
RTVSPropertyOp25
 70
     1
102
RTVSPropertyOp26
 70
     1
102
RTVSPropertyOp27
 70
     1
102
RTVSPropertyOp28
 70
     1
102
RTVSPropertyOp29
 70
     1
102
RTVSPropertyOp30
 70
     1
102
RTVSPropertyOp31
 70
     1
102
RTVSPropertyOp32
 70
     1
102
RTVSPropertyOp33
 70
     1
102
RTVSPropertyOp34
 70
     1
102
RTVSPropertyOp35
 70
     1
102
RTVSPropertyOp36
 70
     1
102
RTVSPropertyOp37
 70
     1
102
RTVSPropertyOp38
 70
     1
102
RTVSPropertyOp39
 70
     1
102
RTVSPropertyOp40
 70
     1
102
RTVSPropertyOp41
 70
     1
102
RTVSPropertyOp42
 70
     1
102
RTVSPropertyOp43
 70
     1
102
RTVSPropertyOp44
 70
     1
102
RTVSPropertyOp45
 70
     1
102
RTVSPropertyOp46
 70
     1
102
RTVSPropertyOp47
 70
     1
102
RTVSPropertyOp48
 70
     1
102
RTVSPropertyOp49
 70
     1
102
RTVSPropertyOp50
 70
     1
102
RTVSPropertyOp51
 70
     0
102
RTVSPropertyOp52
 70
     0
102
RTVSPropertyOp53
 70
     1
102
RTVSPropertyOp54
 70
     1
102
RTVSPropertyOp55
 70
     1
102
RTVSPropertyOp56
 70
     1
102
RTVSPropertyOp57
 70
     1
102
RTVSPost2010Prop28
280
     0
102
RTVSPost2010PropOp28
 70
     1
102
RTVSPost2010Prop29
280
     1
102
RTVSPost2010PropOp29
 70
     1
102
RTVSPost2010Prop30
280
     1
102
RTVSPost2010PropOp30
 70
     1
102
RTVSPost2010Prop31
280
     0
102
RTVSPost2010PropOp31
 70
     1
102
RTVSPost2010Prop32
280
     0
102
RTVSPost2010PropOp32
 70
     1
102
RTVSPost2010Prop33
280
     0
102
RTVSPost2010PropOp33
 70
     1
102
RTVSPost2010Prop34
280
     0
102
RTVSPost2010PropOp34
 70
     1
102
RTVSPost2010Prop35
280
     0
102
RTVSPost2010PropOp35
 70
     1
102
RTVSPost2010Prop36
280
     0
102
RTVSPost2010PropOp36
 70
     1
102
RTVSPost2010Prop37
 90
       50
102
RTVSPost2010PropOp37
 70
     1
102
RTVSPost2010Prop38
140
0.0
102
RTVSPost2010PropOp38
 70
     1
102
RTVSPost2010Prop39
140
1.0
102
RTVSPost2010PropOp39
 70
     1
102
RTVSPost2010Prop40
 90
        0
102
RTVSPost2010PropOp40
 70
     1
102
RTVSPost2010Prop41ColorIndex
 90
       18
102
RTVSPost2010Prop41ColorRGB
 90
        0
102
RTVSPost2010PropOp41
 70
     1
102
RTVSPost2010Prop42
 90
       50
102
RTVSPost2010PropOp42
 70
     1
102
RTVSPost2010Prop43
 90
        3
102
RTVSPost2010PropOp43
 70
     1
102
RTVSPost2010Prop44ColorIndex
 90
        5
102
RTVSPost2010Prop44ColorRGB
 90
      255
102
RTVSPost2010PropOp44
 70
     1
102
RTVSPost2010Prop45
280
     0
102
RTVSPost2010PropOp45
 70
     1
102
RTVSPost2010Prop46
 90
       50
102
RTVSPost2010PropOp46
 70
     1
102
RTVSPost2010Prop47
 90
       50
102
RTVSPost2010PropOp47
 70
     1
102
RTVSPost2010Prop48
 90
       50
102
RTVSPost2010PropOp48
 70
     1
102
RTVSPost2010Prop49
280
     0
102
RTVSPost2010PropOp49
 70
     1
102
RTVSPost2010Prop50
 90
       50
102
RTVSPost2010PropOp50
 70
     1
102
RTVSPost2010Prop51ColorIndex
 90
      256
102
RTVSPost2010Prop51ColorRGB
 90
-16777216
102
RTVSPost2010PropOp51
 70
     0
102
RTVSPost2010Prop52
140
1.0
102
RTVSPost2010PropOp52
 70
     0
102
RTVSPost2010Prop53
 90
        2
102
RTVSPost2010PropOp53
 70
     1
102
RTVSPost2010Prop54
  1
strokes_ogs.tif
102
RTVSPost2010PropOp54
 70
     1
102
RTVSPost2010Prop55
280
     0
102
RTVSPost2010PropOp55
 70
     1
102
RTVSPost2010Prop56
140
1.0
102
RTVSPost2010PropOp56
 70
     1
102
RTVSPost2010Prop57
140
1.0
102
RTVSPost2010PropOp57
 70
     1
  0
XRECORD
  5
393
102
{ACAD_REACTORS
330
392
102
}
330
392
100
AcDbXrecord
280
     1
102
RTVSPropertyOp0
 70
     1
102
RTVSPropertyOp1
 70
     1
102
RTVSPropertyOp2
 70
     1
102
RTVSPropertyOp3
 70
     1
102
RTVSPropertyOp4
 70
     1
102
RTVSPropertyOp5
 70
     1
102
RTVSPropertyOp6
 70
     1
102
RTVSPropertyOp7
 70
     1
102
RTVSPropertyOp8
 70
     1
102
RTVSPropertyOp9
 70
     1
102
RTVSPropertyOp10
 70
     1
102
RTVSPropertyOp11
 70
     1
102
RTVSPropertyOp12
 70
     1
102
RTVSPropertyOp13
 70
     1
102
RTVSPropertyOp14
 70
     1
102
RTVSPropertyOp15
 70
     1
102
RTVSPropertyOp16
 70
     1
102
RTVSPropertyOp17
 70
     1
102
RTVSPropertyOp18
 70
     1
102
RTVSPropertyOp19
 70
     1
102
RTVSPropertyOp20
 70
     1
102
RTVSPropertyOp21
 70
     1
102
RTVSPropertyOp22
 70
     1
102
RTVSPropertyOp23
 70
     1
102
RTVSPropertyOp24
 70
     1
102
RTVSPropertyOp25
 70
     1
102
RTVSPropertyOp26
 70
     1
102
RTVSPropertyOp27
 70
     1
102
RTVSPropertyOp28
 70
     1
102
RTVSPropertyOp29
 70
     1
102
RTVSPropertyOp30
 70
     1
102
RTVSPropertyOp31
 70
     1
102
RTVSPropertyOp32
 70
     1
102
RTVSPropertyOp33
 70
     1
102
RTVSPropertyOp34
 70
     1
102
RTVSPropertyOp35
 70
     1
102
RTVSPropertyOp36
 70
     1
102
RTVSPropertyOp37
 70
     1
102
RTVSPropertyOp38
 70
     1
102
RTVSPropertyOp39
 70
     1
102
RTVSPropertyOp40
 70
     1
102
RTVSPropertyOp41
 70
     1
102
RTVSPropertyOp42
 70
     1
102
RTVSPropertyOp43
 70
     1
102
RTVSPropertyOp44
 70
     1
102
RTVSPropertyOp45
 70
     1
102
RTVSPropertyOp46
 70
     1
102
RTVSPropertyOp47
 70
     1
102
RTVSPropertyOp48
 70
     1
102
RTVSPropertyOp49
 70
     1
102
RTVSPropertyOp50
 70
     1
102
RTVSPropertyOp51
 70
     0
102
RTVSPropertyOp52
 70
     0
102
RTVSPropertyOp53
 70
     1
102
RTVSPropertyOp54
 70
     1
102
RTVSPropertyOp55
 70
     1
102
RTVSPropertyOp56
 70
     1
102
RTVSPropertyOp57
 70
     1
102
RTVSPost2010Prop28
280
     0
102
RTVSPost2010PropOp28
 70
     1
102
RTVSPost2010Prop29
280
     1
102
RTVSPost2010PropOp29
 70
     1
102
RTVSPost2010Prop30
280
     1
102
RTVSPost2010PropOp30
 70
     1
102
RTVSPost2010Prop31
280
     0
102
RTVSPost2010PropOp31
 70
     1
102
RTVSPost2010Prop32
280
     0
102
RTVSPost2010PropOp32
 70
     1
102
RTVSPost2010Prop33
280
     0
102
RTVSPost2010PropOp33
 70
     1
102
RTVSPost2010Prop34
280
     0
102
RTVSPost2010PropOp34
 70
     1
102
RTVSPost2010Prop35
280
     0
102
RTVSPost2010PropOp35
 70
     1
102
RTVSPost2010Prop36
280
     0
102
RTVSPost2010PropOp36
 70
     1
102
RTVSPost2010Prop37
 90
       50
102
RTVSPost2010PropOp37
 70
     1
102
RTVSPost2010Prop38
140
0.0
102
RTVSPost2010PropOp38
 70
     1
102
RTVSPost2010Prop39
140
1.0
102
RTVSPost2010PropOp39
 70
     1
102
RTVSPost2010Prop40
 90
        0
102
RTVSPost2010PropOp40
 70
     1
102
RTVSPost2010Prop41ColorIndex
 90
       18
102
RTVSPost2010Prop41ColorRGB
 90
        0
102
RTVSPost2010PropOp41
 70
     1
102
RTVSPost2010Prop42
 90
       50
102
RTVSPost2010PropOp42
 70
     1
102
RTVSPost2010Prop43
 90
        3
102
RTVSPost2010PropOp43
 70
     1
102
RTVSPost2010Prop44ColorIndex
 90
        5
102
RTVSPost2010Prop44ColorRGB
 90
      255
102
RTVSPost2010PropOp44
 70
     1
102
RTVSPost2010Prop45
280
     0
102
RTVSPost2010PropOp45
 70
     1
102
RTVSPost2010Prop46
 90
       50
102
RTVSPost2010PropOp46
 70
     1
102
RTVSPost2010Prop47
 90
       50
102
RTVSPost2010PropOp47
 70
     1
102
RTVSPost2010Prop48
 90
       50
102
RTVSPost2010PropOp48
 70
     1
102
RTVSPost2010Prop49
280
     0
102
RTVSPost2010PropOp49
 70
     1
102
RTVSPost2010Prop50
 90
       50
102
RTVSPost2010PropOp50
 70
     1
102
RTVSPost2010Prop51ColorIndex
 90
      256
102
RTVSPost2010Prop51ColorRGB
 90
-16777216
102
RTVSPost2010PropOp51
 70
     0
102
RTVSPost2010Prop52
140
1.0
102
RTVSPost2010PropOp52
 70
     0
102
RTVSPost2010Prop53
 90
        2
102
RTVSPost2010PropOp53
 70
     1
102
RTVSPost2010Prop54
  1
strokes_ogs.tif
102
RTVSPost2010PropOp54
 70
     1
102
RTVSPost2010Prop55
280
     0
102
RTVSPost2010PropOp55
 70
     1
102
RTVSPost2010Prop56
140
1.0
102
RTVSPost2010PropOp56
 70
     1
102
RTVSPost2010Prop57
140
1.0
102
RTVSPost2010PropOp57
 70
     1
  0
XRECORD
  5
39B
102
{ACAD_REACTORS
330
39A
102
}
330
39A
100
AcDbXrecord
280
     1
102
RTVSPropertyOp0
 70
     1
102
RTVSPropertyOp1
 70
     1
102
RTVSPropertyOp2
 70
     1
102
RTVSPropertyOp3
 70
     1
102
RTVSPropertyOp4
 70
     1
102
RTVSPropertyOp5
 70
     1
102
RTVSPropertyOp6
 70
     1
102
RTVSPropertyOp7
 70
     1
102
RTVSPropertyOp8
 70
     1
102
RTVSPropertyOp9
 70
     1
102
RTVSPropertyOp10
 70
     1
102
RTVSPropertyOp11
 70
     1
102
RTVSPropertyOp12
 70
     1
102
RTVSPropertyOp13
 70
     1
102
RTVSPropertyOp14
 70
     1
102
RTVSPropertyOp15
 70
     1
102
RTVSPropertyOp16
 70
     1
102
RTVSPropertyOp17
 70
     1
102
RTVSPropertyOp18
 70
     1
102
RTVSPropertyOp19
 70
     1
102
RTVSPropertyOp20
 70
     1
102
RTVSPropertyOp21
 70
     1
102
RTVSPropertyOp22
 70
     1
102
RTVSPropertyOp23
 70
     1
102
RTVSPropertyOp24
 70
     1
102
RTVSPropertyOp25
 70
     1
102
RTVSPropertyOp26
 70
     1
102
RTVSPropertyOp27
 70
     1
102
RTVSPropertyOp28
 70
     1
102
RTVSPropertyOp29
 70
     1
102
RTVSPropertyOp30
 70
     1
102
RTVSPropertyOp31
 70
     1
102
RTVSPropertyOp32
 70
     1
102
RTVSPropertyOp33
 70
     1
102
RTVSPropertyOp34
 70
     1
102
RTVSPropertyOp35
 70
     1
102
RTVSPropertyOp36
 70
     1
102
RTVSPropertyOp37
 70
     1
102
RTVSPropertyOp38
 70
     1
102
RTVSPropertyOp39
 70
     1
102
RTVSPropertyOp40
 70
     1
102
RTVSPropertyOp41
 70
     1
102
RTVSPropertyOp42
 70
     1
102
RTVSPropertyOp43
 70
     1
102
RTVSPropertyOp44
 70
     1
102
RTVSPropertyOp45
 70
     1
102
RTVSPropertyOp46
 70
     1
102
RTVSPropertyOp47
 70
     1
102
RTVSPropertyOp48
 70
     1
102
RTVSPropertyOp49
 70
     1
102
RTVSPropertyOp50
 70
     1
102
RTVSPropertyOp51
 70
     0
102
RTVSPropertyOp52
 70
     0
102
RTVSPropertyOp53
 70
     1
102
RTVSPropertyOp54
 70
     1
102
RTVSPropertyOp55
 70
     1
102
RTVSPropertyOp56
 70
     1
102
RTVSPropertyOp57
 70
     1
102
RTVSPost2010Prop28
280
     0
102
RTVSPost2010PropOp28
 70
     1
102
RTVSPost2010Prop29
280
     1
102
RTVSPost2010PropOp29
 70
     1
102
RTVSPost2010Prop30
280
     1
102
RTVSPost2010PropOp30
 70
     1
102
RTVSPost2010Prop31
280
     0
102
RTVSPost2010PropOp31
 70
     1
102
RTVSPost2010Prop32
280
     0
102
RTVSPost2010PropOp32
 70
     1
102
RTVSPost2010Prop33
280
     0
102
RTVSPost2010PropOp33
 70
     1
102
RTVSPost2010Prop34
280
     0
102
RTVSPost2010PropOp34
 70
     1
102
RTVSPost2010Prop35
280
     0
102
RTVSPost2010PropOp35
 70
     1
102
RTVSPost2010Prop36
280
     0
102
RTVSPost2010PropOp36
 70
     1
102
RTVSPost2010Prop37
 90
       50
102
RTVSPost2010PropOp37
 70
     1
102
RTVSPost2010Prop38
140
0.0
102
RTVSPost2010PropOp38
 70
     1
102
RTVSPost2010Prop39
140
1.0
102
RTVSPost2010PropOp39
 70
     1
102
RTVSPost2010Prop40
 90
        0
102
RTVSPost2010PropOp40
 70
     1
102
RTVSPost2010Prop41ColorIndex
 90
       18
102
RTVSPost2010Prop41ColorRGB
 90
        0
102
RTVSPost2010PropOp41
 70
     1
102
RTVSPost2010Prop42
 90
       50
102
RTVSPost2010PropOp42
 70
     1
102
RTVSPost2010Prop43
 90
        3
102
RTVSPost2010PropOp43
 70
     1
102
RTVSPost2010Prop44ColorIndex
 90
        5
102
RTVSPost2010Prop44ColorRGB
 90
      255
102
RTVSPost2010PropOp44
 70
     1
102
RTVSPost2010Prop45
280
     0
102
RTVSPost2010PropOp45
 70
     1
102
RTVSPost2010Prop46
 90
       50
102
RTVSPost2010PropOp46
 70
     1
102
RTVSPost2010Prop47
 90
       50
102
RTVSPost2010PropOp47
 70
     1
102
RTVSPost2010Prop48
 90
       50
102
RTVSPost2010PropOp48
 70
     1
102
RTVSPost2010Prop49
280
     0
102
RTVSPost2010PropOp49
 70
     1
102
RTVSPost2010Prop50
 90
       50
102
RTVSPost2010PropOp50
 70
     1
102
RTVSPost2010Prop51ColorIndex
 90
      256
102
RTVSPost2010Prop51ColorRGB
 90
-16777216
102
RTVSPost2010PropOp51
 70
     0
102
RTVSPost2010Prop52
140
1.0
102
RTVSPost2010PropOp52
 70
     0
102
RTVSPost2010Prop53
 90
        2
102
RTVSPost2010PropOp53
 70
     1
102
RTVSPost2010Prop54
  1
strokes_ogs.tif
102
RTVSPost2010PropOp54
 70
     1
102
RTVSPost2010Prop55
280
     0
102
RTVSPost2010PropOp55
 70
     1
102
RTVSPost2010Prop56
140
1.0
102
RTVSPost2010PropOp56
 70
     1
102
RTVSPost2010Prop57
140
1.0
102
RTVSPost2010PropOp57
 70
     1
  0
XRECORD
  5
38F
102
{ACAD_REACTORS
330
38E
102
}
330
38E
100
AcDbXrecord
280
     1
102
RTVSPropertyOp0
 70
     1
102
RTVSPropertyOp1
 70
     1
102
RTVSPropertyOp2
 70
     1
102
RTVSPropertyOp3
 70
     1
102
RTVSPropertyOp4
 70
     1
102
RTVSPropertyOp5
 70
     1
102
RTVSPropertyOp6
 70
     1
102
RTVSPropertyOp7
 70
     1
102
RTVSPropertyOp8
 70
     1
102
RTVSPropertyOp9
 70
     1
102
RTVSPropertyOp10
 70
     1
102
RTVSPropertyOp11
 70
     1
102
RTVSPropertyOp12
 70
     1
102
RTVSPropertyOp13
 70
     1
102
RTVSPropertyOp14
 70
     1
102
RTVSPropertyOp15
 70
     1
102
RTVSPropertyOp16
 70
     1
102
RTVSPropertyOp17
 70
     1
102
RTVSPropertyOp18
 70
     1
102
RTVSPropertyOp19
 70
     1
102
RTVSPropertyOp20
 70
     1
102
RTVSPropertyOp21
 70
     1
102
RTVSPropertyOp22
 70
     1
102
RTVSPropertyOp23
 70
     1
102
RTVSPropertyOp24
 70
     1
102
RTVSPropertyOp25
 70
     1
102
RTVSPropertyOp26
 70
     1
102
RTVSPropertyOp27
 70
     1
102
RTVSPropertyOp28
 70
     1
102
RTVSPropertyOp29
 70
     1
102
RTVSPropertyOp30
 70
     1
102
RTVSPropertyOp31
 70
     1
102
RTVSPropertyOp32
 70
     1
102
RTVSPropertyOp33
 70
     1
102
RTVSPropertyOp34
 70
     1
102
RTVSPropertyOp35
 70
     1
102
RTVSPropertyOp36
 70
     1
102
RTVSPropertyOp37
 70
     1
102
RTVSPropertyOp38
 70
     1
102
RTVSPropertyOp39
 70
     1
102
RTVSPropertyOp40
 70
     1
102
RTVSPropertyOp41
 70
     1
102
RTVSPropertyOp42
 70
     1
102
RTVSPropertyOp43
 70
     1
102
RTVSPropertyOp44
 70
     1
102
RTVSPropertyOp45
 70
     1
102
RTVSPropertyOp46
 70
     1
102
RTVSPropertyOp47
 70
     1
102
RTVSPropertyOp48
 70
     1
102
RTVSPropertyOp49
 70
     1
102
RTVSPropertyOp50
 70
     1
102
RTVSPropertyOp51
 70
     0
102
RTVSPropertyOp52
 70
     0
102
RTVSPropertyOp53
 70
     1
102
RTVSPropertyOp54
 70
     1
102
RTVSPropertyOp55
 70
     1
102
RTVSPropertyOp56
 70
     1
102
RTVSPropertyOp57
 70
     1
102
RTVSPost2010Prop28
280
     0
102
RTVSPost2010PropOp28
 70
     1
102
RTVSPost2010Prop29
280
     1
102
RTVSPost2010PropOp29
 70
     1
102
RTVSPost2010Prop30
280
     1
102
RTVSPost2010PropOp30
 70
     1
102
RTVSPost2010Prop31
280
     0
102
RTVSPost2010PropOp31
 70
     1
102
RTVSPost2010Prop32
280
     0
102
RTVSPost2010PropOp32
 70
     1
102
RTVSPost2010Prop33
280
     0
102
RTVSPost2010PropOp33
 70
     1
102
RTVSPost2010Prop34
280
     0
102
RTVSPost2010PropOp34
 70
     1
102
RTVSPost2010Prop35
280
     0
102
RTVSPost2010PropOp35
 70
     1
102
RTVSPost2010Prop36
280
     0
102
RTVSPost2010PropOp36
 70
     1
102
RTVSPost2010Prop37
 90
       50
102
RTVSPost2010PropOp37
 70
     1
102
RTVSPost2010Prop38
140
0.0
102
RTVSPost2010PropOp38
 70
     1
102
RTVSPost2010Prop39
140
1.0
102
RTVSPost2010PropOp39
 70
     1
102
RTVSPost2010Prop40
 90
        0
102
RTVSPost2010PropOp40
 70
     1
102
RTVSPost2010Prop41ColorIndex
 90
       18
102
RTVSPost2010Prop41ColorRGB
 90
        0
102
RTVSPost2010PropOp41
 70
     1
102
RTVSPost2010Prop42
 90
       50
102
RTVSPost2010PropOp42
 70
     1
102
RTVSPost2010Prop43
 90
        3
102
RTVSPost2010PropOp43
 70
     1
102
RTVSPost2010Prop44ColorIndex
 90
        5
102
RTVSPost2010Prop44ColorRGB
 90
      255
102
RTVSPost2010PropOp44
 70
     1
102
RTVSPost2010Prop45
280
     0
102
RTVSPost2010PropOp45
 70
     1
102
RTVSPost2010Prop46
 90
       50
102
RTVSPost2010PropOp46
 70
     1
102
RTVSPost2010Prop47
 90
       50
102
RTVSPost2010PropOp47
 70
     1
102
RTVSPost2010Prop48
 90
       50
102
RTVSPost2010PropOp48
 70
     1
102
RTVSPost2010Prop49
280
     0
102
RTVSPost2010PropOp49
 70
     1
102
RTVSPost2010Prop50
 90
       50
102
RTVSPost2010PropOp50
 70
     1
102
RTVSPost2010Prop51ColorIndex
 90
      256
102
RTVSPost2010Prop51ColorRGB
 90
-16777216
102
RTVSPost2010PropOp51
 70
     0
102
RTVSPost2010Prop52
140
1.0
102
RTVSPost2010PropOp52
 70
     0
102
RTVSPost2010Prop53
 90
        2
102
RTVSPost2010PropOp53
 70
     1
102
RTVSPost2010Prop54
  1
strokes_ogs.tif
102
RTVSPost2010PropOp54
 70
     1
102
RTVSPost2010Prop55
280
     0
102
RTVSPost2010PropOp55
 70
     1
102
RTVSPost2010Prop56
140
1.0
102
RTVSPost2010PropOp56
 70
     1
102
RTVSPost2010Prop57
140
1.0
102
RTVSPost2010PropOp57
 70
     1
  0
XRECORD
  5
391
102
{ACAD_REACTORS
330
390
102
}
330
390
100
AcDbXrecord
280
     1
102
RTVSPropertyOp0
 70
     1
102
RTVSPropertyOp1
 70
     1
102
RTVSPropertyOp2
 70
     1
102
RTVSPropertyOp3
 70
     1
102
RTVSPropertyOp4
 70
     1
102
RTVSPropertyOp5
 70
     1
102
RTVSPropertyOp6
 70
     1
102
RTVSPropertyOp7
 70
     1
102
RTVSPropertyOp8
 70
     1
102
RTVSPropertyOp9
 70
     1
102
RTVSPropertyOp10
 70
     1
102
RTVSPropertyOp11
 70
     1
102
RTVSPropertyOp12
 70
     1
102
RTVSPropertyOp13
 70
     1
102
RTVSPropertyOp14
 70
     1
102
RTVSPropertyOp15
 70
     1
102
RTVSPropertyOp16
 70
     1
102
RTVSPropertyOp17
 70
     1
102
RTVSPropertyOp18
 70
     1
102
RTVSPropertyOp19
 70
     1
102
RTVSPropertyOp20
 70
     1
102
RTVSPropertyOp21
 70
     1
102
RTVSPropertyOp22
 70
     1
102
RTVSPropertyOp23
 70
     1
102
RTVSPropertyOp24
 70
     1
102
RTVSPropertyOp25
 70
     1
102
RTVSPropertyOp26
 70
     1
102
RTVSPropertyOp27
 70
     1
102
RTVSPropertyOp28
 70
     1
102
RTVSPropertyOp29
 70
     1
102
RTVSPropertyOp30
 70
     1
102
RTVSPropertyOp31
 70
     1
102
RTVSPropertyOp32
 70
     1
102
RTVSPropertyOp33
 70
     1
102
RTVSPropertyOp34
 70
     1
102
RTVSPropertyOp35
 70
     1
102
RTVSPropertyOp36
 70
     1
102
RTVSPropertyOp37
 70
     1
102
RTVSPropertyOp38
 70
     1
102
RTVSPropertyOp39
 70
     1
102
RTVSPropertyOp40
 70
     1
102
RTVSPropertyOp41
 70
     1
102
RTVSPropertyOp42
 70
     1
102
RTVSPropertyOp43
 70
     1
102
RTVSPropertyOp44
 70
     1
102
RTVSPropertyOp45
 70
     1
102
RTVSPropertyOp46
 70
     1
102
RTVSPropertyOp47
 70
     1
102
RTVSPropertyOp48
 70
     1
102
RTVSPropertyOp49
 70
     1
102
RTVSPropertyOp50
 70
     1
102
RTVSPropertyOp51
 70
     0
102
RTVSPropertyOp52
 70
     0
102
RTVSPropertyOp53
 70
     1
102
RTVSPropertyOp54
 70
     1
102
RTVSPropertyOp55
 70
     1
102
RTVSPropertyOp56
 70
     1
102
RTVSPropertyOp57
 70
     1
102
RTVSPost2010Prop28
280
     0
102
RTVSPost2010PropOp28
 70
     1
102
RTVSPost2010Prop29
280
     1
102
RTVSPost2010PropOp29
 70
     1
102
RTVSPost2010Prop30
280
     1
102
RTVSPost2010PropOp30
 70
     1
102
RTVSPost2010Prop31
280
     0
102
RTVSPost2010PropOp31
 70
     1
102
RTVSPost2010Prop32
280
     0
102
RTVSPost2010PropOp32
 70
     1
102
RTVSPost2010Prop33
280
     0
102
RTVSPost2010PropOp33
 70
     1
102
RTVSPost2010Prop34
280
     0
102
RTVSPost2010PropOp34
 70
     1
102
RTVSPost2010Prop35
280
     0
102
RTVSPost2010PropOp35
 70
     1
102
RTVSPost2010Prop36
280
     0
102
RTVSPost2010PropOp36
 70
     1
102
RTVSPost2010Prop37
 90
       50
102
RTVSPost2010PropOp37
 70
     1
102
RTVSPost2010Prop38
140
0.0
102
RTVSPost2010PropOp38
 70
     1
102
RTVSPost2010Prop39
140
1.0
102
RTVSPost2010PropOp39
 70
     1
102
RTVSPost2010Prop40
 90
        0
102
RTVSPost2010PropOp40
 70
     1
102
RTVSPost2010Prop41ColorIndex
 90
       18
102
RTVSPost2010Prop41ColorRGB
 90
        0
102
RTVSPost2010PropOp41
 70
     1
102
RTVSPost2010Prop42
 90
       50
102
RTVSPost2010PropOp42
 70
     1
102
RTVSPost2010Prop43
 90
        3
102
RTVSPost2010PropOp43
 70
     1
102
RTVSPost2010Prop44ColorIndex
 90
        5
102
RTVSPost2010Prop44ColorRGB
 90
      255
102
RTVSPost2010PropOp44
 70
     1
102
RTVSPost2010Prop45
280
     0
102
RTVSPost2010PropOp45
 70
     1
102
RTVSPost2010Prop46
 90
       50
102
RTVSPost2010PropOp46
 70
     1
102
RTVSPost2010Prop47
 90
       50
102
RTVSPost2010PropOp47
 70
     1
102
RTVSPost2010Prop48
 90
       50
102
RTVSPost2010PropOp48
 70
     1
102
RTVSPost2010Prop49
280
     0
102
RTVSPost2010PropOp49
 70
     1
102
RTVSPost2010Prop50
 90
       50
102
RTVSPost2010PropOp50
 70
     1
102
RTVSPost2010Prop51ColorIndex
 90
      256
102
RTVSPost2010Prop51ColorRGB
 90
-16777216
102
RTVSPost2010PropOp51
 70
     0
102
RTVSPost2010Prop52
140
1.0
102
RTVSPost2010PropOp52
 70
     0
102
RTVSPost2010Prop53
 90
        2
102
RTVSPost2010PropOp53
 70
     1
102
RTVSPost2010Prop54
  1
strokes_ogs.tif
102
RTVSPost2010PropOp54
 70
     1
102
RTVSPost2010Prop55
280
     0
102
RTVSPost2010PropOp55
 70
     1
102
RTVSPost2010Prop56
140
1.0
102
RTVSPost2010PropOp56
 70
     1
102
RTVSPost2010Prop57
140
1.0
102
RTVSPost2010PropOp57
 70
     1
  0
XRECORD
  5
3A1
102
{ACAD_REACTORS
330
3A0
102
}
330
3A0
100
AcDbXrecord
280
     1
102
RTVSPropertyOp0
 70
     0
102
RTVSPropertyOp1
 70
     0
102
RTVSPropertyOp2
 70
     0
102
RTVSPropertyOp3
 70
     0
102
RTVSPropertyOp4
 70
     0
102
RTVSPropertyOp5
 70
     0
102
RTVSPropertyOp6
 70
     0
102
RTVSPropertyOp7
 70
     0
102
RTVSPropertyOp8
 70
     0
102
RTVSPropertyOp9
 70
     0
102
RTVSPropertyOp10
 70
     0
102
RTVSPropertyOp11
 70
     0
102
RTVSPropertyOp12
 70
     0
102
RTVSPropertyOp13
 70
     0
102
RTVSPropertyOp14
 70
     2
102
RTVSPropertyOp15
 70
     0
102
RTVSPropertyOp16
 70
     0
102
RTVSPropertyOp17
 70
     0
102
RTVSPropertyOp18
 70
     0
102
RTVSPropertyOp19
 70
     0
102
RTVSPropertyOp20
 70
     0
102
RTVSPropertyOp21
 70
     0
102
RTVSPropertyOp22
 70
     0
102
RTVSPropertyOp23
 70
     0
102
RTVSPropertyOp24
 70
     0
102
RTVSPropertyOp25
 70
     0
102
RTVSPropertyOp26
 70
     0
102
RTVSPropertyOp27
 70
     0
102
RTVSPropertyOp28
 70
     0
102
RTVSPropertyOp29
 70
     0
102
RTVSPropertyOp30
 70
     0
102
RTVSPropertyOp31
 70
     0
102
RTVSPropertyOp32
 70
     0
102
RTVSPropertyOp33
 70
     0
102
RTVSPropertyOp34
 70
     0
102
RTVSPropertyOp35
 70
     0
102
RTVSPropertyOp36
 70
     0
102
RTVSPropertyOp37
 70
     0
102
RTVSPropertyOp38
 70
     0
102
RTVSPropertyOp39
 70
     0
102
RTVSPropertyOp40
 70
     0
102
RTVSPropertyOp41
 70
     0
102
RTVSPropertyOp42
 70
     0
102
RTVSPropertyOp43
 70
     0
102
RTVSPropertyOp44
 70
     0
102
RTVSPropertyOp45
 70
     0
102
RTVSPropertyOp46
 70
     0
102
RTVSPropertyOp47
 70
     0
102
RTVSPropertyOp48
 70
     0
102
RTVSPropertyOp49
 70
     0
102
RTVSPropertyOp50
 70
     0
102
RTVSPropertyOp51
 70
     0
102
RTVSPropertyOp52
 70
     0
102
RTVSPropertyOp53
 70
     0
102
RTVSPropertyOp54
 70
     0
102
RTVSPropertyOp55
 70
     0
102
RTVSPropertyOp56
 70
     0
102
RTVSPropertyOp57
 70
     0
102
RTVSPost2010Prop28
280
     0
102
RTVSPost2010PropOp28
 70
     0
102
RTVSPost2010Prop29
280
     1
102
RTVSPost2010PropOp29
 70
     0
102
RTVSPost2010Prop30
280
     1
102
RTVSPost2010PropOp30
 70
     0
102
RTVSPost2010Prop31
280
     0
102
RTVSPost2010PropOp31
 70
     0
102
RTVSPost2010Prop32
280
     0
102
RTVSPost2010PropOp32
 70
     0
102
RTVSPost2010Prop33
280
     0
102
RTVSPost2010PropOp33
 70
     0
102
RTVSPost2010Prop34
280
     0
102
RTVSPost2010PropOp34
 70
     0
102
RTVSPost2010Prop35
280
     0
102
RTVSPost2010PropOp35
 70
     0
102
RTVSPost2010Prop36
280
     0
102
RTVSPost2010PropOp36
 70
     0
102
RTVSPost2010Prop37
 90
       50
102
RTVSPost2010PropOp37
 70
     0
102
RTVSPost2010Prop38
140
0.0
102
RTVSPost2010PropOp38
 70
     0
102
RTVSPost2010Prop39
140
1.0
102
RTVSPost2010PropOp39
 70
     0
102
RTVSPost2010Prop40
 90
        0
102
RTVSPost2010PropOp40
 70
     0
102
RTVSPost2010Prop41ColorIndex
 90
       18
102
RTVSPost2010Prop41ColorRGB
 90
        0
102
RTVSPost2010PropOp41
 70
     0
102
RTVSPost2010Prop42
 90
       50
102
RTVSPost2010PropOp42
 70
     0
102
RTVSPost2010Prop43
 90
        3
102
RTVSPost2010PropOp43
 70
     0
102
RTVSPost2010Prop44ColorIndex
 90
        5
102
RTVSPost2010Prop44ColorRGB
 90
      255
102
RTVSPost2010PropOp44
 70
     0
102
RTVSPost2010Prop45
280
     0
102
RTVSPost2010PropOp45
 70
     0
102
RTVSPost2010Prop46
 90
       50
102
RTVSPost2010PropOp46
 70
     0
102
RTVSPost2010Prop47
 90
       50
102
RTVSPost2010PropOp47
 70
     0
102
RTVSPost2010Prop48
 90
       50
102
RTVSPost2010PropOp48
 70
     0
102
RTVSPost2010Prop49
280
     0
102
RTVSPost2010PropOp49
 70
     0
102
RTVSPost2010Prop50
 90
       50
102
RTVSPost2010PropOp50
 70
     0
102
RTVSPost2010Prop51ColorIndex
 90
      256
102
RTVSPost2010Prop51ColorRGB
 90
-16777216
102
RTVSPost2010PropOp51
 70
     0
102
RTVSPost2010Prop52
140
1.0
102
RTVSPost2010PropOp52
 70
     0
102
RTVSPost2010Prop53
 90
        2
102
RTVSPost2010PropOp53
 70
     0
102
RTVSPost2010Prop54
  1
strokes_ogs.tif
102
RTVSPost2010PropOp54
 70
     0
102
RTVSPost2010Prop55
280
     0
102
RTVSPost2010PropOp55
 70
     0
102
RTVSPost2010Prop56
140
1.0
102
RTVSPost2010PropOp56
 70
     0
102
RTVSPost2010Prop57
140
1.0
102
RTVSPost2010PropOp57
 70
     0
  0
XRECORD
  5
399
102
{ACAD_REACTORS
330
398
102
}
330
398
100
AcDbXrecord
280
     1
102
RTVSPropertyOp0
 70
     1
102
RTVSPropertyOp1
 70
     1
102
RTVSPropertyOp2
 70
     1
102
RTVSPropertyOp3
 70
     1
102
RTVSPropertyOp4
 70
     1
102
RTVSPropertyOp5
 70
     1
102
RTVSPropertyOp6
 70
     1
102
RTVSPropertyOp7
 70
     1
102
RTVSPropertyOp8
 70
     1
102
RTVSPropertyOp9
 70
     1
102
RTVSPropertyOp10
 70
     1
102
RTVSPropertyOp11
 70
     1
102
RTVSPropertyOp12
 70
     1
102
RTVSPropertyOp13
 70
     1
102
RTVSPropertyOp14
 70
     1
102
RTVSPropertyOp15
 70
     1
102
RTVSPropertyOp16
 70
     1
102
RTVSPropertyOp17
 70
     1
102
RTVSPropertyOp18
 70
     1
102
RTVSPropertyOp19
 70
     1
102
RTVSPropertyOp20
 70
     1
102
RTVSPropertyOp21
 70
     1
102
RTVSPropertyOp22
 70
     1
102
RTVSPropertyOp23
 70
     1
102
RTVSPropertyOp24
 70
     1
102
RTVSPropertyOp25
 70
     1
102
RTVSPropertyOp26
 70
     1
102
RTVSPropertyOp27
 70
     1
102
RTVSPropertyOp28
 70
     1
102
RTVSPropertyOp29
 70
     1
102
RTVSPropertyOp30
 70
     1
102
RTVSPropertyOp31
 70
     1
102
RTVSPropertyOp32
 70
     1
102
RTVSPropertyOp33
 70
     1
102
RTVSPropertyOp34
 70
     1
102
RTVSPropertyOp35
 70
     1
102
RTVSPropertyOp36
 70
     1
102
RTVSPropertyOp37
 70
     1
102
RTVSPropertyOp38
 70
     1
102
RTVSPropertyOp39
 70
     1
102
RTVSPropertyOp40
 70
     1
102
RTVSPropertyOp41
 70
     1
102
RTVSPropertyOp42
 70
     1
102
RTVSPropertyOp43
 70
     1
102
RTVSPropertyOp44
 70
     1
102
RTVSPropertyOp45
 70
     1
102
RTVSPropertyOp46
 70
     1
102
RTVSPropertyOp47
 70
     1
102
RTVSPropertyOp48
 70
     1
102
RTVSPropertyOp49
 70
     1
102
RTVSPropertyOp50
 70
     1
102
RTVSPropertyOp51
 70
     0
102
RTVSPropertyOp52
 70
     0
102
RTVSPropertyOp53
 70
     1
102
RTVSPropertyOp54
 70
     1
102
RTVSPropertyOp55
 70
     1
102
RTVSPropertyOp56
 70
     1
102
RTVSPropertyOp57
 70
     1
102
RTVSPost2010Prop28
280
     0
102
RTVSPost2010PropOp28
 70
     1
102
RTVSPost2010Prop29
280
     1
102
RTVSPost2010PropOp29
 70
     1
102
RTVSPost2010Prop30
280
     1
102
RTVSPost2010PropOp30
 70
     1
102
RTVSPost2010Prop31
280
     0
102
RTVSPost2010PropOp31
 70
     1
102
RTVSPost2010Prop32
280
     0
102
RTVSPost2010PropOp32
 70
     1
102
RTVSPost2010Prop33
280
     0
102
RTVSPost2010PropOp33
 70
     1
102
RTVSPost2010Prop34
280
     0
102
RTVSPost2010PropOp34
 70
     1
102
RTVSPost2010Prop35
280
     0
102
RTVSPost2010PropOp35
 70
     1
102
RTVSPost2010Prop36
280
     0
102
RTVSPost2010PropOp36
 70
     1
102
RTVSPost2010Prop37
 90
       50
102
RTVSPost2010PropOp37
 70
     1
102
RTVSPost2010Prop38
140
0.0
102
RTVSPost2010PropOp38
 70
     1
102
RTVSPost2010Prop39
140
1.0
102
RTVSPost2010PropOp39
 70
     1
102
RTVSPost2010Prop40
 90
        0
102
RTVSPost2010PropOp40
 70
     1
102
RTVSPost2010Prop41ColorIndex
 90
       18
102
RTVSPost2010Prop41ColorRGB
 90
        0
102
RTVSPost2010PropOp41
 70
     1
102
RTVSPost2010Prop42
 90
       50
102
RTVSPost2010PropOp42
 70
     1
102
RTVSPost2010Prop43
 90
        3
102
RTVSPost2010PropOp43
 70
     1
102
RTVSPost2010Prop44ColorIndex
 90
        5
102
RTVSPost2010Prop44ColorRGB
 90
      255
102
RTVSPost2010PropOp44
 70
     1
102
RTVSPost2010Prop45
280
     0
102
RTVSPost2010PropOp45
 70
     1
102
RTVSPost2010Prop46
 90
       50
102
RTVSPost2010PropOp46
 70
     1
102
RTVSPost2010Prop47
 90
       50
102
RTVSPost2010PropOp47
 70
     1
102
RTVSPost2010Prop48
 90
       50
102
RTVSPost2010PropOp48
 70
     1
102
RTVSPost2010Prop49
280
     0
102
RTVSPost2010PropOp49
 70
     1
102
RTVSPost2010Prop50
 90
       50
102
RTVSPost2010PropOp50
 70
     1
102
RTVSPost2010Prop51ColorIndex
 90
      256
102
RTVSPost2010Prop51ColorRGB
 90
-16777216
102
RTVSPost2010PropOp51
 70
     0
102
RTVSPost2010Prop52
140
1.0
102
RTVSPost2010PropOp52
 70
     0
102
RTVSPost2010Prop53
 90
        2
102
RTVSPost2010PropOp53
 70
     1
102
RTVSPost2010Prop54
  1
strokes_ogs.tif
102
RTVSPost2010PropOp54
 70
     1
102
RTVSPost2010Prop55
280
     0
102
RTVSPost2010PropOp55
 70
     1
102
RTVSPost2010Prop56
140
1.0
102
RTVSPost2010PropOp56
 70
     1
102
RTVSPost2010Prop57
140
1.0
102
RTVSPost2010PropOp57
 70
     1
  0
XRECORD
  5
37D
102
{ACAD_REACTORS
330
37C
102
}
330
37C
100
AcDbXrecord
280
     1
102
RTVSPropertyOp0
 70
     1
102
RTVSPropertyOp1
 70
     1
102
RTVSPropertyOp2
 70
     1
102
RTVSPropertyOp3
 70
     1
102
RTVSPropertyOp4
 70
     1
102
RTVSPropertyOp5
 70
     1
102
RTVSPropertyOp6
 70
     1
102
RTVSPropertyOp7
 70
     1
102
RTVSPropertyOp8
 70
     1
102
RTVSPropertyOp9
 70
     1
102
RTVSPropertyOp10
 70
     1
102
RTVSPropertyOp11
 70
     1
102
RTVSPropertyOp12
 70
     1
102
RTVSPropertyOp13
 70
     1
102
RTVSPropertyOp14
 70
     1
102
RTVSPropertyOp15
 70
     1
102
RTVSPropertyOp16
 70
     1
102
RTVSPropertyOp17
 70
     1
102
RTVSPropertyOp18
 70
     1
102
RTVSPropertyOp19
 70
     1
102
RTVSPropertyOp20
 70
     1
102
RTVSPropertyOp21
 70
     1
102
RTVSPropertyOp22
 70
     1
102
RTVSPropertyOp23
 70
     1
102
RTVSPropertyOp24
 70
     1
102
RTVSPropertyOp25
 70
     1
102
RTVSPropertyOp26
 70
     1
102
RTVSPropertyOp27
 70
     1
102
RTVSPropertyOp28
 70
     1
102
RTVSPropertyOp29
 70
     1
102
RTVSPropertyOp30
 70
     1
102
RTVSPropertyOp31
 70
     1
102
RTVSPropertyOp32
 70
     1
102
RTVSPropertyOp33
 70
     1
102
RTVSPropertyOp34
 70
     1
102
RTVSPropertyOp35
 70
     1
102
RTVSPropertyOp36
 70
     1
102
RTVSPropertyOp37
 70
     1
102
RTVSPropertyOp38
 70
     1
102
RTVSPropertyOp39
 70
     1
102
RTVSPropertyOp40
 70
     1
102
RTVSPropertyOp41
 70
     1
102
RTVSPropertyOp42
 70
     1
102
RTVSPropertyOp43
 70
     1
102
RTVSPropertyOp44
 70
     1
102
RTVSPropertyOp45
 70
     1
102
RTVSPropertyOp46
 70
     1
102
RTVSPropertyOp47
 70
     1
102
RTVSPropertyOp48
 70
     1
102
RTVSPropertyOp49
 70
     1
102
RTVSPropertyOp50
 70
     1
102
RTVSPropertyOp51
 70
     0
102
RTVSPropertyOp52
 70
     0
102
RTVSPropertyOp53
 70
     1
102
RTVSPropertyOp54
 70
     1
102
RTVSPropertyOp55
 70
     1
102
RTVSPropertyOp56
 70
     1
102
RTVSPropertyOp57
 70
     1
102
RTVSPost2010Prop28
280
     0
102
RTVSPost2010PropOp28
 70
     1
102
RTVSPost2010Prop29
280
     1
102
RTVSPost2010PropOp29
 70
     1
102
RTVSPost2010Prop30
280
     1
102
RTVSPost2010PropOp30
 70
     1
102
RTVSPost2010Prop31
280
     0
102
RTVSPost2010PropOp31
 70
     1
102
RTVSPost2010Prop32
280
     0
102
RTVSPost2010PropOp32
 70
     1
102
RTVSPost2010Prop33
280
     0
102
RTVSPost2010PropOp33
 70
     1
102
RTVSPost2010Prop34
280
     0
102
RTVSPost2010PropOp34
 70
     1
102
RTVSPost2010Prop35
280
     0
102
RTVSPost2010PropOp35
 70
     1
102
RTVSPost2010Prop36
280
     0
102
RTVSPost2010PropOp36
 70
     1
102
RTVSPost2010Prop37
 90
       50
102
RTVSPost2010PropOp37
 70
     1
102
RTVSPost2010Prop38
140
0.0
102
RTVSPost2010PropOp38
 70
     1
102
RTVSPost2010Prop39
140
1.0
102
RTVSPost2010PropOp39
 70
     1
102
RTVSPost2010Prop40
 90
        0
102
RTVSPost2010PropOp40
 70
     1
102
RTVSPost2010Prop41ColorIndex
 90
       18
102
RTVSPost2010Prop41ColorRGB
 90
        0
102
RTVSPost2010PropOp41
 70
     1
102
RTVSPost2010Prop42
 90
       50
102
RTVSPost2010PropOp42
 70
     1
102
RTVSPost2010Prop43
 90
        3
102
RTVSPost2010PropOp43
 70
     1
102
RTVSPost2010Prop44ColorIndex
 90
        5
102
RTVSPost2010Prop44ColorRGB
 90
      255
102
RTVSPost2010PropOp44
 70
     1
102
RTVSPost2010Prop45
280
     0
102
RTVSPost2010PropOp45
 70
     1
102
RTVSPost2010Prop46
 90
       50
102
RTVSPost2010PropOp46
 70
     1
102
RTVSPost2010Prop47
 90
       50
102
RTVSPost2010PropOp47
 70
     1
102
RTVSPost2010Prop48
 90
       50
102
RTVSPost2010PropOp48
 70
     1
102
RTVSPost2010Prop49
280
     0
102
RTVSPost2010PropOp49
 70
     1
102
RTVSPost2010Prop50
 90
       50
102
RTVSPost2010PropOp50
 70
     1
102
RTVSPost2010Prop51ColorIndex
 90
      256
102
RTVSPost2010Prop51ColorRGB
 90
-16777216
102
RTVSPost2010PropOp51
 70
     0
102
RTVSPost2010Prop52
140
1.0
102
RTVSPost2010PropOp52
 70
     0
102
RTVSPost2010Prop53
 90
        2
102
RTVSPost2010PropOp53
 70
     1
102
RTVSPost2010Prop54
  1
strokes_ogs.tif
102
RTVSPost2010PropOp54
 70
     1
102
RTVSPost2010Prop55
280
     0
102
RTVSPost2010PropOp55
 70
     1
102
RTVSPost2010Prop56
140
1.0
102
RTVSPost2010PropOp56
 70
     1
102
RTVSPost2010Prop57
140
1.0
102
RTVSPost2010PropOp57
 70
     1
  0
XRECORD
  5
37F
102
{ACAD_REACTORS
330
37E
102
}
330
37E
100
AcDbXrecord
280
     1
102
RTVSPropertyOp0
 70
     1
102
RTVSPropertyOp1
 70
     1
102
RTVSPropertyOp2
 70
     1
102
RTVSPropertyOp3
 70
     1
102
RTVSPropertyOp4
 70
     1
102
RTVSPropertyOp5
 70
     1
102
RTVSPropertyOp6
 70
     1
102
RTVSPropertyOp7
 70
     1
102
RTVSPropertyOp8
 70
     1
102
RTVSPropertyOp9
 70
     1
102
RTVSPropertyOp10
 70
     1
102
RTVSPropertyOp11
 70
     1
102
RTVSPropertyOp12
 70
     1
102
RTVSPropertyOp13
 70
     1
102
RTVSPropertyOp14
 70
     1
102
RTVSPropertyOp15
 70
     1
102
RTVSPropertyOp16
 70
     1
102
RTVSPropertyOp17
 70
     1
102
RTVSPropertyOp18
 70
     1
102
RTVSPropertyOp19
 70
     1
102
RTVSPropertyOp20
 70
     1
102
RTVSPropertyOp21
 70
     1
102
RTVSPropertyOp22
 70
     1
102
RTVSPropertyOp23
 70
     1
102
RTVSPropertyOp24
 70
     1
102
RTVSPropertyOp25
 70
     1
102
RTVSPropertyOp26
 70
     1
102
RTVSPropertyOp27
 70
     1
102
RTVSPropertyOp28
 70
     1
102
RTVSPropertyOp29
 70
     1
102
RTVSPropertyOp30
 70
     1
102
RTVSPropertyOp31
 70
     1
102
RTVSPropertyOp32
 70
     1
102
RTVSPropertyOp33
 70
     1
102
RTVSPropertyOp34
 70
     1
102
RTVSPropertyOp35
 70
     1
102
RTVSPropertyOp36
 70
     1
102
RTVSPropertyOp37
 70
     1
102
RTVSPropertyOp38
 70
     1
102
RTVSPropertyOp39
 70
     1
102
RTVSPropertyOp40
 70
     1
102
RTVSPropertyOp41
 70
     1
102
RTVSPropertyOp42
 70
     1
102
RTVSPropertyOp43
 70
     1
102
RTVSPropertyOp44
 70
     1
102
RTVSPropertyOp45
 70
     1
102
RTVSPropertyOp46
 70
     1
102
RTVSPropertyOp47
 70
     1
102
RTVSPropertyOp48
 70
     1
102
RTVSPropertyOp49
 70
     1
102
RTVSPropertyOp50
 70
     1
102
RTVSPropertyOp51
 70
     0
102
RTVSPropertyOp52
 70
     0
102
RTVSPropertyOp53
 70
     1
102
RTVSPropertyOp54
 70
     1
102
RTVSPropertyOp55
 70
     1
102
RTVSPropertyOp56
 70
     1
102
RTVSPropertyOp57
 70
     1
102
RTVSPost2010Prop28
280
     0
102
RTVSPost2010PropOp28
 70
     1
102
RTVSPost2010Prop29
280
     1
102
RTVSPost2010PropOp29
 70
     1
102
RTVSPost2010Prop30
280
     1
102
RTVSPost2010PropOp30
 70
     1
102
RTVSPost2010Prop31
280
     0
102
RTVSPost2010PropOp31
 70
     1
102
RTVSPost2010Prop32
280
     0
102
RTVSPost2010PropOp32
 70
     1
102
RTVSPost2010Prop33
280
     0
102
RTVSPost2010PropOp33
 70
     1
102
RTVSPost2010Prop34
280
     0
102
RTVSPost2010PropOp34
 70
     1
102
RTVSPost2010Prop35
280
     0
102
RTVSPost2010PropOp35
 70
     1
102
RTVSPost2010Prop36
280
     0
102
RTVSPost2010PropOp36
 70
     1
102
RTVSPost2010Prop37
 90
       50
102
RTVSPost2010PropOp37
 70
     1
102
RTVSPost2010Prop38
140
0.0
102
RTVSPost2010PropOp38
 70
     1
102
RTVSPost2010Prop39
140
1.0
102
RTVSPost2010PropOp39
 70
     1
102
RTVSPost2010Prop40
 90
        0
102
RTVSPost2010PropOp40
 70
     1
102
RTVSPost2010Prop41ColorIndex
 90
       18
102
RTVSPost2010Prop41ColorRGB
 90
        0
102
RTVSPost2010PropOp41
 70
     1
102
RTVSPost2010Prop42
 90
       50
102
RTVSPost2010PropOp42
 70
     1
102
RTVSPost2010Prop43
 90
        3
102
RTVSPost2010PropOp43
 70
     1
102
RTVSPost2010Prop44ColorIndex
 90
        5
102
RTVSPost2010Prop44ColorRGB
 90
      255
102
RTVSPost2010PropOp44
 70
     1
102
RTVSPost2010Prop45
280
     0
102
RTVSPost2010PropOp45
 70
     1
102
RTVSPost2010Prop46
 90
       50
102
RTVSPost2010PropOp46
 70
     1
102
RTVSPost2010Prop47
 90
       50
102
RTVSPost2010PropOp47
 70
     1
102
RTVSPost2010Prop48
 90
       50
102
RTVSPost2010PropOp48
 70
     1
102
RTVSPost2010Prop49
280
     0
102
RTVSPost2010PropOp49
 70
     1
102
RTVSPost2010Prop50
 90
       50
102
RTVSPost2010PropOp50
 70
     1
102
RTVSPost2010Prop51ColorIndex
 90
      256
102
RTVSPost2010Prop51ColorRGB
 90
-16777216
102
RTVSPost2010PropOp51
 70
     0
102
RTVSPost2010Prop52
140
1.0
102
RTVSPost2010PropOp52
 70
     0
102
RTVSPost2010Prop53
 90
        2
102
RTVSPost2010PropOp53
 70
     1
102
RTVSPost2010Prop54
  1
strokes_ogs.tif
102
RTVSPost2010PropOp54
 70
     1
102
RTVSPost2010Prop55
280
     0
102
RTVSPost2010PropOp55
 70
     1
102
RTVSPost2010Prop56
140
1.0
102
RTVSPost2010PropOp56
 70
     1
102
RTVSPost2010Prop57
140
1.0
102
RTVSPost2010PropOp57
 70
     1
  0
XRECORD
  5
381
102
{ACAD_REACTORS
330
380
102
}
330
380
100
AcDbXrecord
280
     1
102
RTVSPropertyOp0
 70
     1
102
RTVSPropertyOp1
 70
     1
102
RTVSPropertyOp2
 70
     1
102
RTVSPropertyOp3
 70
     1
102
RTVSPropertyOp4
 70
     1
102
RTVSPropertyOp5
 70
     1
102
RTVSPropertyOp6
 70
     1
102
RTVSPropertyOp7
 70
     1
102
RTVSPropertyOp8
 70
     1
102
RTVSPropertyOp9
 70
     1
102
RTVSPropertyOp10
 70
     1
102
RTVSPropertyOp11
 70
     1
102
RTVSPropertyOp12
 70
     1
102
RTVSPropertyOp13
 70
     1
102
RTVSPropertyOp14
 70
     1
102
RTVSPropertyOp15
 70
     1
102
RTVSPropertyOp16
 70
     1
102
RTVSPropertyOp17
 70
     1
102
RTVSPropertyOp18
 70
     1
102
RTVSPropertyOp19
 70
     1
102
RTVSPropertyOp20
 70
     1
102
RTVSPropertyOp21
 70
     1
102
RTVSPropertyOp22
 70
     1
102
RTVSPropertyOp23
 70
     1
102
RTVSPropertyOp24
 70
     1
102
RTVSPropertyOp25
 70
     1
102
RTVSPropertyOp26
 70
     1
102
RTVSPropertyOp27
 70
     1
102
RTVSPropertyOp28
 70
     1
102
RTVSPropertyOp29
 70
     1
102
RTVSPropertyOp30
 70
     1
102
RTVSPropertyOp31
 70
     1
102
RTVSPropertyOp32
 70
     1
102
RTVSPropertyOp33
 70
     1
102
RTVSPropertyOp34
 70
     1
102
RTVSPropertyOp35
 70
     1
102
RTVSPropertyOp36
 70
     1
102
RTVSPropertyOp37
 70
     1
102
RTVSPropertyOp38
 70
     1
102
RTVSPropertyOp39
 70
     1
102
RTVSPropertyOp40
 70
     1
102
RTVSPropertyOp41
 70
     1
102
RTVSPropertyOp42
 70
     1
102
RTVSPropertyOp43
 70
     1
102
RTVSPropertyOp44
 70
     1
102
RTVSPropertyOp45
 70
     1
102
RTVSPropertyOp46
 70
     1
102
RTVSPropertyOp47
 70
     1
102
RTVSPropertyOp48
 70
     1
102
RTVSPropertyOp49
 70
     1
102
RTVSPropertyOp50
 70
     1
102
RTVSPropertyOp51
 70
     0
102
RTVSPropertyOp52
 70
     0
102
RTVSPropertyOp53
 70
     1
102
RTVSPropertyOp54
 70
     1
102
RTVSPropertyOp55
 70
     1
102
RTVSPropertyOp56
 70
     1
102
RTVSPropertyOp57
 70
     1
102
RTVSPost2010Prop28
280
     0
102
RTVSPost2010PropOp28
 70
     1
102
RTVSPost2010Prop29
280
     1
102
RTVSPost2010PropOp29
 70
     1
102
RTVSPost2010Prop30
280
     1
102
RTVSPost2010PropOp30
 70
     1
102
RTVSPost2010Prop31
280
     0
102
RTVSPost2010PropOp31
 70
     1
102
RTVSPost2010Prop32
280
     0
102
RTVSPost2010PropOp32
 70
     1
102
RTVSPost2010Prop33
280
     0
102
RTVSPost2010PropOp33
 70
     1
102
RTVSPost2010Prop34
280
     0
102
RTVSPost2010PropOp34
 70
     1
102
RTVSPost2010Prop35
280
     0
102
RTVSPost2010PropOp35
 70
     1
102
RTVSPost2010Prop36
280
     0
102
RTVSPost2010PropOp36
 70
     1
102
RTVSPost2010Prop37
 90
       50
102
RTVSPost2010PropOp37
 70
     1
102
RTVSPost2010Prop38
140
0.0
102
RTVSPost2010PropOp38
 70
     1
102
RTVSPost2010Prop39
140
1.0
102
RTVSPost2010PropOp39
 70
     1
102
RTVSPost2010Prop40
 90
        0
102
RTVSPost2010PropOp40
 70
     1
102
RTVSPost2010Prop41ColorIndex
 90
       18
102
RTVSPost2010Prop41ColorRGB
 90
        0
102
RTVSPost2010PropOp41
 70
     1
102
RTVSPost2010Prop42
 90
       50
102
RTVSPost2010PropOp42
 70
     1
102
RTVSPost2010Prop43
 90
        3
102
RTVSPost2010PropOp43
 70
     1
102
RTVSPost2010Prop44ColorIndex
 90
        5
102
RTVSPost2010Prop44ColorRGB
 90
      255
102
RTVSPost2010PropOp44
 70
     1
102
RTVSPost2010Prop45
280
     0
102
RTVSPost2010PropOp45
 70
     1
102
RTVSPost2010Prop46
 90
       50
102
RTVSPost2010PropOp46
 70
     1
102
RTVSPost2010Prop47
 90
       50
102
RTVSPost2010PropOp47
 70
     1
102
RTVSPost2010Prop48
 90
       50
102
RTVSPost2010PropOp48
 70
     1
102
RTVSPost2010Prop49
280
     0
102
RTVSPost2010PropOp49
 70
     1
102
RTVSPost2010Prop50
 90
       50
102
RTVSPost2010PropOp50
 70
     1
102
RTVSPost2010Prop51ColorIndex
 90
      256
102
RTVSPost2010Prop51ColorRGB
 90
-16777216
102
RTVSPost2010PropOp51
 70
     0
102
RTVSPost2010Prop52
140
1.0
102
RTVSPost2010PropOp52
 70
     0
102
RTVSPost2010Prop53
 90
        2
102
RTVSPost2010PropOp53
 70
     1
102
RTVSPost2010Prop54
  1
strokes_ogs.tif
102
RTVSPost2010PropOp54
 70
     1
102
RTVSPost2010Prop55
280
     0
102
RTVSPost2010PropOp55
 70
     1
102
RTVSPost2010Prop56
140
1.0
102
RTVSPost2010PropOp56
 70
     1
102
RTVSPost2010Prop57
140
1.0
102
RTVSPost2010PropOp57
 70
     1
  0
XRECORD
  5
383
102
{ACAD_REACTORS
330
382
102
}
330
382
100
AcDbXrecord
280
     1
102
RTVSPropertyOp0
 70
     1
102
RTVSPropertyOp1
 70
     1
102
RTVSPropertyOp2
 70
     1
102
RTVSPropertyOp3
 70
     1
102
RTVSPropertyOp4
 70
     1
102
RTVSPropertyOp5
 70
     1
102
RTVSPropertyOp6
 70
     1
102
RTVSPropertyOp7
 70
     1
102
RTVSPropertyOp8
 70
     1
102
RTVSPropertyOp9
 70
     1
102
RTVSPropertyOp10
 70
     1
102
RTVSPropertyOp11
 70
     1
102
RTVSPropertyOp12
 70
     1
102
RTVSPropertyOp13
 70
     1
102
RTVSPropertyOp14
 70
     1
102
RTVSPropertyOp15
 70
     1
102
RTVSPropertyOp16
 70
     1
102
RTVSPropertyOp17
 70
     1
102
RTVSPropertyOp18
 70
     1
102
RTVSPropertyOp19
 70
     1
102
RTVSPropertyOp20
 70
     1
102
RTVSPropertyOp21
 70
     1
102
RTVSPropertyOp22
 70
     1
102
RTVSPropertyOp23
 70
     1
102
RTVSPropertyOp24
 70
     1
102
RTVSPropertyOp25
 70
     1
102
RTVSPropertyOp26
 70
     1
102
RTVSPropertyOp27
 70
     1
102
RTVSPropertyOp28
 70
     1
102
RTVSPropertyOp29
 70
     1
102
RTVSPropertyOp30
 70
     1
102
RTVSPropertyOp31
 70
     1
102
RTVSPropertyOp32
 70
     1
102
RTVSPropertyOp33
 70
     1
102
RTVSPropertyOp34
 70
     1
102
RTVSPropertyOp35
 70
     1
102
RTVSPropertyOp36
 70
     1
102
RTVSPropertyOp37
 70
     1
102
RTVSPropertyOp38
 70
     1
102
RTVSPropertyOp39
 70
     1
102
RTVSPropertyOp40
 70
     1
102
RTVSPropertyOp41
 70
     1
102
RTVSPropertyOp42
 70
     1
102
RTVSPropertyOp43
 70
     1
102
RTVSPropertyOp44
 70
     1
102
RTVSPropertyOp45
 70
     1
102
RTVSPropertyOp46
 70
     1
102
RTVSPropertyOp47
 70
     1
102
RTVSPropertyOp48
 70
     1
102
RTVSPropertyOp49
 70
     1
102
RTVSPropertyOp50
 70
     1
102
RTVSPropertyOp51
 70
     0
102
RTVSPropertyOp52
 70
     0
102
RTVSPropertyOp53
 70
     1
102
RTVSPropertyOp54
 70
     1
102
RTVSPropertyOp55
 70
     1
102
RTVSPropertyOp56
 70
     1
102
RTVSPropertyOp57
 70
     1
102
RTVSPost2010Prop28
280
     0
102
RTVSPost2010PropOp28
 70
     1
102
RTVSPost2010Prop29
280
     1
102
RTVSPost2010PropOp29
 70
     1
102
RTVSPost2010Prop30
280
     1
102
RTVSPost2010PropOp30
 70
     1
102
RTVSPost2010Prop31
280
     0
102
RTVSPost2010PropOp31
 70
     1
102
RTVSPost2010Prop32
280
     0
102
RTVSPost2010PropOp32
 70
     1
102
RTVSPost2010Prop33
280
     0
102
RTVSPost2010PropOp33
 70
     1
102
RTVSPost2010Prop34
280
     0
102
RTVSPost2010PropOp34
 70
     1
102
RTVSPost2010Prop35
280
     0
102
RTVSPost2010PropOp35
 70
     1
102
RTVSPost2010Prop36
280
     0
102
RTVSPost2010PropOp36
 70
     1
102
RTVSPost2010Prop37
 90
       50
102
RTVSPost2010PropOp37
 70
     1
102
RTVSPost2010Prop38
140
0.0
102
RTVSPost2010PropOp38
 70
     1
102
RTVSPost2010Prop39
140
1.0
102
RTVSPost2010PropOp39
 70
     1
102
RTVSPost2010Prop40
 90
        0
102
RTVSPost2010PropOp40
 70
     1
102
RTVSPost2010Prop41ColorIndex
 90
       18
102
RTVSPost2010Prop41ColorRGB
 90
        0
102
RTVSPost2010PropOp41
 70
     1
102
RTVSPost2010Prop42
 90
       50
102
RTVSPost2010PropOp42
 70
     1
102
RTVSPost2010Prop43
 90
        3
102
RTVSPost2010PropOp43
 70
     1
102
RTVSPost2010Prop44ColorIndex
 90
        5
102
RTVSPost2010Prop44ColorRGB
 90
      255
102
RTVSPost2010PropOp44
 70
     1
102
RTVSPost2010Prop45
280
     0
102
RTVSPost2010PropOp45
 70
     1
102
RTVSPost2010Prop46
 90
       50
102
RTVSPost2010PropOp46
 70
     1
102
RTVSPost2010Prop47
 90
       50
102
RTVSPost2010PropOp47
 70
     1
102
RTVSPost2010Prop48
 90
       50
102
RTVSPost2010PropOp48
 70
     1
102
RTVSPost2010Prop49
280
     0
102
RTVSPost2010PropOp49
 70
     1
102
RTVSPost2010Prop50
 90
       50
102
RTVSPost2010PropOp50
 70
     1
102
RTVSPost2010Prop51ColorIndex
 90
      256
102
RTVSPost2010Prop51ColorRGB
 90
-16777216
102
RTVSPost2010PropOp51
 70
     0
102
RTVSPost2010Prop52
140
1.0
102
RTVSPost2010PropOp52
 70
     0
102
RTVSPost2010Prop53
 90
        2
102
RTVSPost2010PropOp53
 70
     1
102
RTVSPost2010Prop54
  1
strokes_ogs.tif
102
RTVSPost2010PropOp54
 70
     1
102
RTVSPost2010Prop55
280
     0
102
RTVSPost2010PropOp55
 70
     1
102
RTVSPost2010Prop56
140
1.0
102
RTVSPost2010PropOp56
 70
     1
102
RTVSPost2010Prop57
140
1.0
102
RTVSPost2010PropOp57
 70
     1
  0
XRECORD
  5
389
102
{ACAD_REACTORS
330
388
102
}
330
388
100
AcDbXrecord
280
     1
102
RTVSPropertyOp0
 70
     1
102
RTVSPropertyOp1
 70
     1
102
RTVSPropertyOp2
 70
     1
102
RTVSPropertyOp3
 70
     1
102
RTVSPropertyOp4
 70
     1
102
RTVSPropertyOp5
 70
     1
102
RTVSPropertyOp6
 70
     1
102
RTVSPropertyOp7
 70
     1
102
RTVSPropertyOp8
 70
     1
102
RTVSPropertyOp9
 70
     1
102
RTVSPropertyOp10
 70
     1
102
RTVSPropertyOp11
 70
     1
102
RTVSPropertyOp12
 70
     1
102
RTVSPropertyOp13
 70
     1
102
RTVSPropertyOp14
 70
     1
102
RTVSPropertyOp15
 70
     1
102
RTVSPropertyOp16
 70
     1
102
RTVSPropertyOp17
 70
     1
102
RTVSPropertyOp18
 70
     1
102
RTVSPropertyOp19
 70
     1
102
RTVSPropertyOp20
 70
     1
102
RTVSPropertyOp21
 70
     1
102
RTVSPropertyOp22
 70
     1
102
RTVSPropertyOp23
 70
     1
102
RTVSPropertyOp24
 70
     1
102
RTVSPropertyOp25
 70
     1
102
RTVSPropertyOp26
 70
     1
102
RTVSPropertyOp27
 70
     1
102
RTVSPropertyOp28
 70
     1
102
RTVSPropertyOp29
 70
     1
102
RTVSPropertyOp30
 70
     1
102
RTVSPropertyOp31
 70
     1
102
RTVSPropertyOp32
 70
     1
102
RTVSPropertyOp33
 70
     1
102
RTVSPropertyOp34
 70
     1
102
RTVSPropertyOp35
 70
     1
102
RTVSPropertyOp36
 70
     1
102
RTVSPropertyOp37
 70
     1
102
RTVSPropertyOp38
 70
     1
102
RTVSPropertyOp39
 70
     1
102
RTVSPropertyOp40
 70
     1
102
RTVSPropertyOp41
 70
     1
102
RTVSPropertyOp42
 70
     1
102
RTVSPropertyOp43
 70
     1
102
RTVSPropertyOp44
 70
     1
102
RTVSPropertyOp45
 70
     1
102
RTVSPropertyOp46
 70
     1
102
RTVSPropertyOp47
 70
     1
102
RTVSPropertyOp48
 70
     1
102
RTVSPropertyOp49
 70
     1
102
RTVSPropertyOp50
 70
     1
102
RTVSPropertyOp51
 70
     0
102
RTVSPropertyOp52
 70
     0
102
RTVSPropertyOp53
 70
     1
102
RTVSPropertyOp54
 70
     1
102
RTVSPropertyOp55
 70
     1
102
RTVSPropertyOp56
 70
     1
102
RTVSPropertyOp57
 70
     1
102
RTVSPost2010Prop28
280
     0
102
RTVSPost2010PropOp28
 70
     1
102
RTVSPost2010Prop29
280
     1
102
RTVSPost2010PropOp29
 70
     1
102
RTVSPost2010Prop30
280
     1
102
RTVSPost2010PropOp30
 70
     1
102
RTVSPost2010Prop31
280
     0
102
RTVSPost2010PropOp31
 70
     1
102
RTVSPost2010Prop32
280
     0
102
RTVSPost2010PropOp32
 70
     1
102
RTVSPost2010Prop33
280
     0
102
RTVSPost2010PropOp33
 70
     1
102
RTVSPost2010Prop34
280
     0
102
RTVSPost2010PropOp34
 70
     1
102
RTVSPost2010Prop35
280
     0
102
RTVSPost2010PropOp35
 70
     1
102
RTVSPost2010Prop36
280
     0
102
RTVSPost2010PropOp36
 70
     1
102
RTVSPost2010Prop37
 90
       50
102
RTVSPost2010PropOp37
 70
     1
102
RTVSPost2010Prop38
140
0.0
102
RTVSPost2010PropOp38
 70
     1
102
RTVSPost2010Prop39
140
1.0
102
RTVSPost2010PropOp39
 70
     1
102
RTVSPost2010Prop40
 90
        0
102
RTVSPost2010PropOp40
 70
     1
102
RTVSPost2010Prop41ColorIndex
 90
       18
102
RTVSPost2010Prop41ColorRGB
 90
        0
102
RTVSPost2010PropOp41
 70
     1
102
RTVSPost2010Prop42
 90
       50
102
RTVSPost2010PropOp42
 70
     1
102
RTVSPost2010Prop43
 90
        3
102
RTVSPost2010PropOp43
 70
     1
102
RTVSPost2010Prop44ColorIndex
 90
        5
102
RTVSPost2010Prop44ColorRGB
 90
      255
102
RTVSPost2010PropOp44
 70
     1
102
RTVSPost2010Prop45
280
     0
102
RTVSPost2010PropOp45
 70
     1
102
RTVSPost2010Prop46
 90
       50
102
RTVSPost2010PropOp46
 70
     1
102
RTVSPost2010Prop47
 90
       50
102
RTVSPost2010PropOp47
 70
     1
102
RTVSPost2010Prop48
 90
       50
102
RTVSPost2010PropOp48
 70
     1
102
RTVSPost2010Prop49
280
     0
102
RTVSPost2010PropOp49
 70
     1
102
RTVSPost2010Prop50
 90
       50
102
RTVSPost2010PropOp50
 70
     1
102
RTVSPost2010Prop51ColorIndex
 90
      256
102
RTVSPost2010Prop51ColorRGB
 90
-16777216
102
RTVSPost2010PropOp51
 70
     0
102
RTVSPost2010Prop52
140
1.0
102
RTVSPost2010PropOp52
 70
     0
102
RTVSPost2010Prop53
 90
        2
102
RTVSPost2010PropOp53
 70
     1
102
RTVSPost2010Prop54
  1
strokes_ogs.tif
102
RTVSPost2010PropOp54
 70
     1
102
RTVSPost2010Prop55
280
     0
102
RTVSPost2010PropOp55
 70
     1
102
RTVSPost2010Prop56
140
1.0
102
RTVSPost2010PropOp56
 70
     1
102
RTVSPost2010Prop57
140
1.0
102
RTVSPost2010PropOp57
 70
     1
  0
XRECORD
  5
39D
102
{ACAD_REACTORS
330
39C
102
}
330
39C
100
AcDbXrecord
280
     1
102
RTVSPropertyOp0
 70
     0
102
RTVSPropertyOp1
 70
     0
102
RTVSPropertyOp2
 70
     0
102
RTVSPropertyOp3
 70
     0
102
RTVSPropertyOp4
 70
     0
102
RTVSPropertyOp5
 70
     0
102
RTVSPropertyOp6
 70
     0
102
RTVSPropertyOp7
 70
     0
102
RTVSPropertyOp8
 70
     0
102
RTVSPropertyOp9
 70
     0
102
RTVSPropertyOp10
 70
     0
102
RTVSPropertyOp11
 70
     0
102
RTVSPropertyOp12
 70
     0
102
RTVSPropertyOp13
 70
     0
102
RTVSPropertyOp14
 70
     2
102
RTVSPropertyOp15
 70
     0
102
RTVSPropertyOp16
 70
     0
102
RTVSPropertyOp17
 70
     0
102
RTVSPropertyOp18
 70
     0
102
RTVSPropertyOp19
 70
     0
102
RTVSPropertyOp20
 70
     0
102
RTVSPropertyOp21
 70
     0
102
RTVSPropertyOp22
 70
     0
102
RTVSPropertyOp23
 70
     0
102
RTVSPropertyOp24
 70
     0
102
RTVSPropertyOp25
 70
     0
102
RTVSPropertyOp26
 70
     0
102
RTVSPropertyOp27
 70
     0
102
RTVSPropertyOp28
 70
     0
102
RTVSPropertyOp29
 70
     0
102
RTVSPropertyOp30
 70
     0
102
RTVSPropertyOp31
 70
     0
102
RTVSPropertyOp32
 70
     0
102
RTVSPropertyOp33
 70
     0
102
RTVSPropertyOp34
 70
     0
102
RTVSPropertyOp35
 70
     0
102
RTVSPropertyOp36
 70
     0
102
RTVSPropertyOp37
 70
     0
102
RTVSPropertyOp38
 70
     0
102
RTVSPropertyOp39
 70
     0
102
RTVSPropertyOp40
 70
     0
102
RTVSPropertyOp41
 70
     0
102
RTVSPropertyOp42
 70
     0
102
RTVSPropertyOp43
 70
     0
102
RTVSPropertyOp44
 70
     0
102
RTVSPropertyOp45
 70
     0
102
RTVSPropertyOp46
 70
     0
102
RTVSPropertyOp47
 70
     0
102
RTVSPropertyOp48
 70
     0
102
RTVSPropertyOp49
 70
     0
102
RTVSPropertyOp50
 70
     0
102
RTVSPropertyOp51
 70
     0
102
RTVSPropertyOp52
 70
     0
102
RTVSPropertyOp53
 70
     0
102
RTVSPropertyOp54
 70
     0
102
RTVSPropertyOp55
 70
     0
102
RTVSPropertyOp56
 70
     0
102
RTVSPropertyOp57
 70
     0
102
RTVSPost2010Prop28
280
     0
102
RTVSPost2010PropOp28
 70
     0
102
RTVSPost2010Prop29
280
     1
102
RTVSPost2010PropOp29
 70
     0
102
RTVSPost2010Prop30
280
     1
102
RTVSPost2010PropOp30
 70
     0
102
RTVSPost2010Prop31
280
     0
102
RTVSPost2010PropOp31
 70
     0
102
RTVSPost2010Prop32
280
     0
102
RTVSPost2010PropOp32
 70
     0
102
RTVSPost2010Prop33
280
     0
102
RTVSPost2010PropOp33
 70
     0
102
RTVSPost2010Prop34
280
     0
102
RTVSPost2010PropOp34
 70
     0
102
RTVSPost2010Prop35
280
     0
102
RTVSPost2010PropOp35
 70
     0
102
RTVSPost2010Prop36
280
     0
102
RTVSPost2010PropOp36
 70
     0
102
RTVSPost2010Prop37
 90
       50
102
RTVSPost2010PropOp37
 70
     0
102
RTVSPost2010Prop38
140
0.0
102
RTVSPost2010PropOp38
 70
     0
102
RTVSPost2010Prop39
140
1.0
102
RTVSPost2010PropOp39
 70
     0
102
RTVSPost2010Prop40
 90
        0
102
RTVSPost2010PropOp40
 70
     0
102
RTVSPost2010Prop41ColorIndex
 90
       18
102
RTVSPost2010Prop41ColorRGB
 90
        0
102
RTVSPost2010PropOp41
 70
     0
102
RTVSPost2010Prop42
 90
       50
102
RTVSPost2010PropOp42
 70
     0
102
RTVSPost2010Prop43
 90
        3
102
RTVSPost2010PropOp43
 70
     0
102
RTVSPost2010Prop44ColorIndex
 90
        5
102
RTVSPost2010Prop44ColorRGB
 90
      255
102
RTVSPost2010PropOp44
 70
     0
102
RTVSPost2010Prop45
280
     0
102
RTVSPost2010PropOp45
 70
     0
102
RTVSPost2010Prop46
 90
       50
102
RTVSPost2010PropOp46
 70
     0
102
RTVSPost2010Prop47
 90
       50
102
RTVSPost2010PropOp47
 70
     0
102
RTVSPost2010Prop48
 90
       50
102
RTVSPost2010PropOp48
 70
     0
102
RTVSPost2010Prop49
280
     0
102
RTVSPost2010PropOp49
 70
     0
102
RTVSPost2010Prop50
 90
       50
102
RTVSPost2010PropOp50
 70
     0
102
RTVSPost2010Prop51ColorIndex
 90
      256
102
RTVSPost2010Prop51ColorRGB
 90
-16777216
102
RTVSPost2010PropOp51
 70
     0
102
RTVSPost2010Prop52
140
1.0
102
RTVSPost2010PropOp52
 70
     0
102
RTVSPost2010Prop53
 90
        2
102
RTVSPost2010PropOp53
 70
     0
102
RTVSPost2010Prop54
  1
strokes_ogs.tif
102
RTVSPost2010PropOp54
 70
     0
102
RTVSPost2010Prop55
280
     0
102
RTVSPost2010PropOp55
 70
     0
102
RTVSPost2010Prop56
140
1.0
102
RTVSPost2010PropOp56
 70
     0
102
RTVSPost2010Prop57
140
1.0
102
RTVSPost2010PropOp57
 70
     0
  0
XRECORD
  5
397
102
{ACAD_REACTORS
330
396
102
}
330
396
100
AcDbXrecord
280
     1
102
RTVSPropertyOp0
 70
     1
102
RTVSPropertyOp1
 70
     1
102
RTVSPropertyOp2
 70
     1
102
RTVSPropertyOp3
 70
     1
102
RTVSPropertyOp4
 70
     1
102
RTVSPropertyOp5
 70
     1
102
RTVSPropertyOp6
 70
     1
102
RTVSPropertyOp7
 70
     1
102
RTVSPropertyOp8
 70
     1
102
RTVSPropertyOp9
 70
     1
102
RTVSPropertyOp10
 70
     1
102
RTVSPropertyOp11
 70
     1
102
RTVSPropertyOp12
 70
     1
102
RTVSPropertyOp13
 70
     1
102
RTVSPropertyOp14
 70
     1
102
RTVSPropertyOp15
 70
     1
102
RTVSPropertyOp16
 70
     1
102
RTVSPropertyOp17
 70
     1
102
RTVSPropertyOp18
 70
     1
102
RTVSPropertyOp19
 70
     1
102
RTVSPropertyOp20
 70
     1
102
RTVSPropertyOp21
 70
     1
102
RTVSPropertyOp22
 70
     1
102
RTVSPropertyOp23
 70
     1
102
RTVSPropertyOp24
 70
     1
102
RTVSPropertyOp25
 70
     1
102
RTVSPropertyOp26
 70
     1
102
RTVSPropertyOp27
 70
     1
102
RTVSPropertyOp28
 70
     1
102
RTVSPropertyOp29
 70
     1
102
RTVSPropertyOp30
 70
     1
102
RTVSPropertyOp31
 70
     1
102
RTVSPropertyOp32
 70
     1
102
RTVSPropertyOp33
 70
     1
102
RTVSPropertyOp34
 70
     1
102
RTVSPropertyOp35
 70
     1
102
RTVSPropertyOp36
 70
     1
102
RTVSPropertyOp37
 70
     1
102
RTVSPropertyOp38
 70
     1
102
RTVSPropertyOp39
 70
     1
102
RTVSPropertyOp40
 70
     1
102
RTVSPropertyOp41
 70
     1
102
RTVSPropertyOp42
 70
     1
102
RTVSPropertyOp43
 70
     1
102
RTVSPropertyOp44
 70
     1
102
RTVSPropertyOp45
 70
     1
102
RTVSPropertyOp46
 70
     1
102
RTVSPropertyOp47
 70
     1
102
RTVSPropertyOp48
 70
     1
102
RTVSPropertyOp49
 70
     1
102
RTVSPropertyOp50
 70
     1
102
RTVSPropertyOp51
 70
     0
102
RTVSPropertyOp52
 70
     0
102
RTVSPropertyOp53
 70
     1
102
RTVSPropertyOp54
 70
     1
102
RTVSPropertyOp55
 70
     1
102
RTVSPropertyOp56
 70
     1
102
RTVSPropertyOp57
 70
     1
102
RTVSPost2010Prop28
280
     0
102
RTVSPost2010PropOp28
 70
     1
102
RTVSPost2010Prop29
280
     1
102
RTVSPost2010PropOp29
 70
     1
102
RTVSPost2010Prop30
280
     1
102
RTVSPost2010PropOp30
 70
     1
102
RTVSPost2010Prop31
280
     0
102
RTVSPost2010PropOp31
 70
     1
102
RTVSPost2010Prop32
280
     0
102
RTVSPost2010PropOp32
 70
     1
102
RTVSPost2010Prop33
280
     0
102
RTVSPost2010PropOp33
 70
     1
102
RTVSPost2010Prop34
280
     0
102
RTVSPost2010PropOp34
 70
     1
102
RTVSPost2010Prop35
280
     0
102
RTVSPost2010PropOp35
 70
     1
102
RTVSPost2010Prop36
280
     0
102
RTVSPost2010PropOp36
 70
     1
102
RTVSPost2010Prop37
 90
       50
102
RTVSPost2010PropOp37
 70
     1
102
RTVSPost2010Prop38
140
0.0
102
RTVSPost2010PropOp38
 70
     1
102
RTVSPost2010Prop39
140
1.0
102
RTVSPost2010PropOp39
 70
     1
102
RTVSPost2010Prop40
 90
        0
102
RTVSPost2010PropOp40
 70
     1
102
RTVSPost2010Prop41ColorIndex
 90
       18
102
RTVSPost2010Prop41ColorRGB
 90
        0
102
RTVSPost2010PropOp41
 70
     1
102
RTVSPost2010Prop42
 90
       50
102
RTVSPost2010PropOp42
 70
     1
102
RTVSPost2010Prop43
 90
        3
102
RTVSPost2010PropOp43
 70
     1
102
RTVSPost2010Prop44ColorIndex
 90
        5
102
RTVSPost2010Prop44ColorRGB
 90
      255
102
RTVSPost2010PropOp44
 70
     1
102
RTVSPost2010Prop45
280
     0
102
RTVSPost2010PropOp45
 70
     1
102
RTVSPost2010Prop46
 90
       50
102
RTVSPost2010PropOp46
 70
     1
102
RTVSPost2010Prop47
 90
       50
102
RTVSPost2010PropOp47
 70
     1
102
RTVSPost2010Prop48
 90
       50
102
RTVSPost2010PropOp48
 70
     1
102
RTVSPost2010Prop49
280
     0
102
RTVSPost2010PropOp49
 70
     1
102
RTVSPost2010Prop50
 90
       50
102
RTVSPost2010PropOp50
 70
     1
102
RTVSPost2010Prop51ColorIndex
 90
      256
102
RTVSPost2010Prop51ColorRGB
 90
-16777216
102
RTVSPost2010PropOp51
 70
     0
102
RTVSPost2010Prop52
140
1.0
102
RTVSPost2010PropOp52
 70
     0
102
RTVSPost2010Prop53
 90
        2
102
RTVSPost2010PropOp53
 70
     1
102
RTVSPost2010Prop54
  1
strokes_ogs.tif
102
RTVSPost2010PropOp54
 70
     1
102
RTVSPost2010Prop55
280
     0
102
RTVSPost2010PropOp55
 70
     1
102
RTVSPost2010Prop56
140
1.0
102
RTVSPost2010PropOp56
 70
     1
102
RTVSPost2010Prop57
140
1.0
102
RTVSPost2010PropOp57
 70
     1
  0
XRECORD
  5
39F
102
{ACAD_REACTORS
330
39E
102
}
330
39E
100
AcDbXrecord
280
     1
102
RTVSPropertyOp0
 70
     0
102
RTVSPropertyOp1
 70
     0
102
RTVSPropertyOp2
 70
     0
102
RTVSPropertyOp3
 70
     0
102
RTVSPropertyOp4
 70
     0
102
RTVSPropertyOp5
 70
     0
102
RTVSPropertyOp6
 70
     0
102
RTVSPropertyOp7
 70
     0
102
RTVSPropertyOp8
 70
     0
102
RTVSPropertyOp9
 70
     0
102
RTVSPropertyOp10
 70
     0
102
RTVSPropertyOp11
 70
     0
102
RTVSPropertyOp12
 70
     0
102
RTVSPropertyOp13
 70
     0
102
RTVSPropertyOp14
 70
     2
102
RTVSPropertyOp15
 70
     0
102
RTVSPropertyOp16
 70
     0
102
RTVSPropertyOp17
 70
     0
102
RTVSPropertyOp18
 70
     0
102
RTVSPropertyOp19
 70
     0
102
RTVSPropertyOp20
 70
     0
102
RTVSPropertyOp21
 70
     0
102
RTVSPropertyOp22
 70
     0
102
RTVSPropertyOp23
 70
     0
102
RTVSPropertyOp24
 70
     0
102
RTVSPropertyOp25
 70
     0
102
RTVSPropertyOp26
 70
     0
102
RTVSPropertyOp27
 70
     0
102
RTVSPropertyOp28
 70
     0
102
RTVSPropertyOp29
 70
     0
102
RTVSPropertyOp30
 70
     0
102
RTVSPropertyOp31
 70
     0
102
RTVSPropertyOp32
 70
     0
102
RTVSPropertyOp33
 70
     0
102
RTVSPropertyOp34
 70
     0
102
RTVSPropertyOp35
 70
     0
102
RTVSPropertyOp36
 70
     0
102
RTVSPropertyOp37
 70
     0
102
RTVSPropertyOp38
 70
     0
102
RTVSPropertyOp39
 70
     0
102
RTVSPropertyOp40
 70
     0
102
RTVSPropertyOp41
 70
     0
102
RTVSPropertyOp42
 70
     0
102
RTVSPropertyOp43
 70
     0
102
RTVSPropertyOp44
 70
     0
102
RTVSPropertyOp45
 70
     0
102
RTVSPropertyOp46
 70
     0
102
RTVSPropertyOp47
 70
     0
102
RTVSPropertyOp48
 70
     0
102
RTVSPropertyOp49
 70
     0
102
RTVSPropertyOp50
 70
     0
102
RTVSPropertyOp51
 70
     0
102
RTVSPropertyOp52
 70
     0
102
RTVSPropertyOp53
 70
     0
102
RTVSPropertyOp54
 70
     0
102
RTVSPropertyOp55
 70
     0
102
RTVSPropertyOp56
 70
     0
102
RTVSPropertyOp57
 70
     0
102
RTVSPost2010Prop28
280
     0
102
RTVSPost2010PropOp28
 70
     0
102
RTVSPost2010Prop29
280
     1
102
RTVSPost2010PropOp29
 70
     0
102
RTVSPost2010Prop30
280
     1
102
RTVSPost2010PropOp30
 70
     0
102
RTVSPost2010Prop31
280
     0
102
RTVSPost2010PropOp31
 70
     0
102
RTVSPost2010Prop32
280
     0
102
RTVSPost2010PropOp32
 70
     0
102
RTVSPost2010Prop33
280
     0
102
RTVSPost2010PropOp33
 70
     0
102
RTVSPost2010Prop34
280
     0
102
RTVSPost2010PropOp34
 70
     0
102
RTVSPost2010Prop35
280
     0
102
RTVSPost2010PropOp35
 70
     0
102
RTVSPost2010Prop36
280
     0
102
RTVSPost2010PropOp36
 70
     0
102
RTVSPost2010Prop37
 90
       50
102
RTVSPost2010PropOp37
 70
     0
102
RTVSPost2010Prop38
140
0.0
102
RTVSPost2010PropOp38
 70
     0
102
RTVSPost2010Prop39
140
1.0
102
RTVSPost2010PropOp39
 70
     0
102
RTVSPost2010Prop40
 90
        0
102
RTVSPost2010PropOp40
 70
     0
102
RTVSPost2010Prop41ColorIndex
 90
       18
102
RTVSPost2010Prop41ColorRGB
 90
        0
102
RTVSPost2010PropOp41
 70
     0
102
RTVSPost2010Prop42
 90
       50
102
RTVSPost2010PropOp42
 70
     0
102
RTVSPost2010Prop43
 90
        3
102
RTVSPost2010PropOp43
 70
     0
102
RTVSPost2010Prop44ColorIndex
 90
        5
102
RTVSPost2010Prop44ColorRGB
 90
      255
102
RTVSPost2010PropOp44
 70
     0
102
RTVSPost2010Prop45
280
     0
102
RTVSPost2010PropOp45
 70
     0
102
RTVSPost2010Prop46
 90
       50
102
RTVSPost2010PropOp46
 70
     0
102
RTVSPost2010Prop47
 90
       50
102
RTVSPost2010PropOp47
 70
     0
102
RTVSPost2010Prop48
 90
       50
102
RTVSPost2010PropOp48
 70
     0
102
RTVSPost2010Prop49
280
     0
102
RTVSPost2010PropOp49
 70
     0
102
RTVSPost2010Prop50
 90
       50
102
RTVSPost2010PropOp50
 70
     0
102
RTVSPost2010Prop51ColorIndex
 90
      256
102
RTVSPost2010Prop51ColorRGB
 90
-16777216
102
RTVSPost2010PropOp51
 70
     0
102
RTVSPost2010Prop52
140
1.0
102
RTVSPost2010PropOp52
 70
     0
102
RTVSPost2010Prop53
 90
        2
102
RTVSPost2010PropOp53
 70
     0
102
RTVSPost2010Prop54
  1
strokes_ogs.tif
102
RTVSPost2010PropOp54
 70
     0
102
RTVSPost2010Prop55
280
     0
102
RTVSPost2010PropOp55
 70
     0
102
RTVSPost2010Prop56
140
1.0
102
RTVSPost2010PropOp56
 70
     0
102
RTVSPost2010Prop57
140
1.0
102
RTVSPost2010PropOp57
 70
     0
  0
XRECORD
  5
38D
102
{ACAD_REACTORS
330
38C
102
}
330
38C
100
AcDbXrecord
280
     1
102
RTVSPropertyOp0
 70
     1
102
RTVSPropertyOp1
 70
     1
102
RTVSPropertyOp2
 70
     1
102
RTVSPropertyOp3
 70
     1
102
RTVSPropertyOp4
 70
     1
102
RTVSPropertyOp5
 70
     1
102
RTVSPropertyOp6
 70
     1
102
RTVSPropertyOp7
 70
     1
102
RTVSPropertyOp8
 70
     1
102
RTVSPropertyOp9
 70
     1
102
RTVSPropertyOp10
 70
     1
102
RTVSPropertyOp11
 70
     1
102
RTVSPropertyOp12
 70
     1
102
RTVSPropertyOp13
 70
     1
102
RTVSPropertyOp14
 70
     1
102
RTVSPropertyOp15
 70
     1
102
RTVSPropertyOp16
 70
     1
102
RTVSPropertyOp17
 70
     1
102
RTVSPropertyOp18
 70
     1
102
RTVSPropertyOp19
 70
     1
102
RTVSPropertyOp20
 70
     1
102
RTVSPropertyOp21
 70
     1
102
RTVSPropertyOp22
 70
     1
102
RTVSPropertyOp23
 70
     1
102
RTVSPropertyOp24
 70
     1
102
RTVSPropertyOp25
 70
     1
102
RTVSPropertyOp26
 70
     1
102
RTVSPropertyOp27
 70
     1
102
RTVSPropertyOp28
 70
     1
102
RTVSPropertyOp29
 70
     1
102
RTVSPropertyOp30
 70
     1
102
RTVSPropertyOp31
 70
     1
102
RTVSPropertyOp32
 70
     1
102
RTVSPropertyOp33
 70
     1
102
RTVSPropertyOp34
 70
     1
102
RTVSPropertyOp35
 70
     1
102
RTVSPropertyOp36
 70
     1
102
RTVSPropertyOp37
 70
     1
102
RTVSPropertyOp38
 70
     1
102
RTVSPropertyOp39
 70
     1
102
RTVSPropertyOp40
 70
     1
102
RTVSPropertyOp41
 70
     1
102
RTVSPropertyOp42
 70
     1
102
RTVSPropertyOp43
 70
     1
102
RTVSPropertyOp44
 70
     1
102
RTVSPropertyOp45
 70
     1
102
RTVSPropertyOp46
 70
     1
102
RTVSPropertyOp47
 70
     1
102
RTVSPropertyOp48
 70
     1
102
RTVSPropertyOp49
 70
     1
102
RTVSPropertyOp50
 70
     1
102
RTVSPropertyOp51
 70
     0
102
RTVSPropertyOp52
 70
     0
102
RTVSPropertyOp53
 70
     1
102
RTVSPropertyOp54
 70
     1
102
RTVSPropertyOp55
 70
     1
102
RTVSPropertyOp56
 70
     1
102
RTVSPropertyOp57
 70
     1
102
RTVSPost2010Prop28
280
     0
102
RTVSPost2010PropOp28
 70
     1
102
RTVSPost2010Prop29
280
     1
102
RTVSPost2010PropOp29
 70
     1
102
RTVSPost2010Prop30
280
     1
102
RTVSPost2010PropOp30
 70
     1
102
RTVSPost2010Prop31
280
     0
102
RTVSPost2010PropOp31
 70
     1
102
RTVSPost2010Prop32
280
     0
102
RTVSPost2010PropOp32
 70
     1
102
RTVSPost2010Prop33
280
     0
102
RTVSPost2010PropOp33
 70
     1
102
RTVSPost2010Prop34
280
     0
102
RTVSPost2010PropOp34
 70
     1
102
RTVSPost2010Prop35
280
     0
102
RTVSPost2010PropOp35
 70
     1
102
RTVSPost2010Prop36
280
     0
102
RTVSPost2010PropOp36
 70
     1
102
RTVSPost2010Prop37
 90
       50
102
RTVSPost2010PropOp37
 70
     1
102
RTVSPost2010Prop38
140
0.0
102
RTVSPost2010PropOp38
 70
     1
102
RTVSPost2010Prop39
140
1.0
102
RTVSPost2010PropOp39
 70
     1
102
RTVSPost2010Prop40
 90
        0
102
RTVSPost2010PropOp40
 70
     1
102
RTVSPost2010Prop41ColorIndex
 90
       18
102
RTVSPost2010Prop41ColorRGB
 90
        0
102
RTVSPost2010PropOp41
 70
     1
102
RTVSPost2010Prop42
 90
       50
102
RTVSPost2010PropOp42
 70
     1
102
RTVSPost2010Prop43
 90
        3
102
RTVSPost2010PropOp43
 70
     1
102
RTVSPost2010Prop44ColorIndex
 90
        5
102
RTVSPost2010Prop44ColorRGB
 90
      255
102
RTVSPost2010PropOp44
 70
     1
102
RTVSPost2010Prop45
280
     0
102
RTVSPost2010PropOp45
 70
     1
102
RTVSPost2010Prop46
 90
       50
102
RTVSPost2010PropOp46
 70
     1
102
RTVSPost2010Prop47
 90
       50
102
RTVSPost2010PropOp47
 70
     1
102
RTVSPost2010Prop48
 90
       50
102
RTVSPost2010PropOp48
 70
     1
102
RTVSPost2010Prop49
280
     0
102
RTVSPost2010PropOp49
 70
     1
102
RTVSPost2010Prop50
 90
       50
102
RTVSPost2010PropOp50
 70
     1
102
RTVSPost2010Prop51ColorIndex
 90
      256
102
RTVSPost2010Prop51ColorRGB
 90
-16777216
102
RTVSPost2010PropOp51
 70
     0
102
RTVSPost2010Prop52
140
1.0
102
RTVSPost2010PropOp52
 70
     0
102
RTVSPost2010Prop53
 90
        2
102
RTVSPost2010PropOp53
 70
     1
102
RTVSPost2010Prop54
  1
strokes_ogs.tif
102
RTVSPost2010PropOp54
 70
     1
102
RTVSPost2010Prop55
280
     0
102
RTVSPost2010PropOp55
 70
     1
102
RTVSPost2010Prop56
140
1.0
102
RTVSPost2010PropOp56
 70
     1
102
RTVSPost2010Prop57
140
1.0
102
RTVSPost2010PropOp57
 70
     1
  0
XRECORD
  5
3AB
102
{ACAD_REACTORS
330
3AA
102
}
330
3AA
100
AcDbXrecord
280
     1
102
RTVSPropertyOp0
 70
     1
102
RTVSPropertyOp1
 70
     1
102
RTVSPropertyOp2
 70
     1
102
RTVSPropertyOp3
 70
     1
102
RTVSPropertyOp4
 70
     1
102
RTVSPropertyOp5
 70
     1
102
RTVSPropertyOp6
 70
     1
102
RTVSPropertyOp7
 70
     1
102
RTVSPropertyOp8
 70
     1
102
RTVSPropertyOp9
 70
     1
102
RTVSPropertyOp10
 70
     1
102
RTVSPropertyOp11
 70
     1
102
RTVSPropertyOp12
 70
     1
102
RTVSPropertyOp13
 70
     1
102
RTVSPropertyOp14
 70
     1
102
RTVSPropertyOp15
 70
     1
102
RTVSPropertyOp16
 70
     1
102
RTVSPropertyOp17
 70
     1
102
RTVSPropertyOp18
 70
     1
102
RTVSPropertyOp19
 70
     1
102
RTVSPropertyOp20
 70
     1
102
RTVSPropertyOp21
 70
     1
102
RTVSPropertyOp22
 70
     1
102
RTVSPropertyOp23
 70
     1
102
RTVSPropertyOp24
 70
     1
102
RTVSPropertyOp25
 70
     1
102
RTVSPropertyOp26
 70
     1
102
RTVSPropertyOp27
 70
     1
102
RTVSPropertyOp28
 70
     1
102
RTVSPropertyOp29
 70
     1
102
RTVSPropertyOp30
 70
     1
102
RTVSPropertyOp31
 70
     1
102
RTVSPropertyOp32
 70
     1
102
RTVSPropertyOp33
 70
     1
102
RTVSPropertyOp34
 70
     1
102
RTVSPropertyOp35
 70
     1
102
RTVSPropertyOp36
 70
     1
102
RTVSPropertyOp37
 70
     1
102
RTVSPropertyOp38
 70
     1
102
RTVSPropertyOp39
 70
     1
102
RTVSPropertyOp40
 70
     1
102
RTVSPropertyOp41
 70
     1
102
RTVSPropertyOp42
 70
     1
102
RTVSPropertyOp43
 70
     1
102
RTVSPropertyOp44
 70
     1
102
RTVSPropertyOp45
 70
     1
102
RTVSPropertyOp46
 70
     1
102
RTVSPropertyOp47
 70
     1
102
RTVSPropertyOp48
 70
     1
102
RTVSPropertyOp49
 70
     1
102
RTVSPropertyOp50
 70
     1
102
RTVSPropertyOp51
 70
     0
102
RTVSPropertyOp52
 70
     0
102
RTVSPropertyOp53
 70
     1
102
RTVSPropertyOp54
 70
     1
102
RTVSPropertyOp55
 70
     1
102
RTVSPropertyOp56
 70
     1
102
RTVSPropertyOp57
 70
     1
102
RTVSPost2010Prop28
280
     0
102
RTVSPost2010PropOp28
 70
     1
102
RTVSPost2010Prop29
280
     1
102
RTVSPost2010PropOp29
 70
     1
102
RTVSPost2010Prop30
280
     1
102
RTVSPost2010PropOp30
 70
     1
102
RTVSPost2010Prop31
280
     0
102
RTVSPost2010PropOp31
 70
     1
102
RTVSPost2010Prop32
280
     0
102
RTVSPost2010PropOp32
 70
     1
102
RTVSPost2010Prop33
280
     0
102
RTVSPost2010PropOp33
 70
     1
102
RTVSPost2010Prop34
280
     0
102
RTVSPost2010PropOp34
 70
     1
102
RTVSPost2010Prop35
280
     0
102
RTVSPost2010PropOp35
 70
     1
102
RTVSPost2010Prop36
280
     0
102
RTVSPost2010PropOp36
 70
     1
102
RTVSPost2010Prop37
 90
       50
102
RTVSPost2010PropOp37
 70
     1
102
RTVSPost2010Prop38
140
0.0
102
RTVSPost2010PropOp38
 70
     1
102
RTVSPost2010Prop39
140
1.0
102
RTVSPost2010PropOp39
 70
     1
102
RTVSPost2010Prop40
 90
        0
102
RTVSPost2010PropOp40
 70
     1
102
RTVSPost2010Prop41ColorIndex
 90
       18
102
RTVSPost2010Prop41ColorRGB
 90
        0
102
RTVSPost2010PropOp41
 70
     1
102
RTVSPost2010Prop42
 90
       50
102
RTVSPost2010PropOp42
 70
     1
102
RTVSPost2010Prop43
 90
        3
102
RTVSPost2010PropOp43
 70
     1
102
RTVSPost2010Prop44ColorIndex
 90
        5
102
RTVSPost2010Prop44ColorRGB
 90
      255
102
RTVSPost2010PropOp44
 70
     1
102
RTVSPost2010Prop45
280
     0
102
RTVSPost2010PropOp45
 70
     1
102
RTVSPost2010Prop46
 90
       50
102
RTVSPost2010PropOp46
 70
     1
102
RTVSPost2010Prop47
 90
       50
102
RTVSPost2010PropOp47
 70
     1
102
RTVSPost2010Prop48
 90
       50
102
RTVSPost2010PropOp48
 70
     1
102
RTVSPost2010Prop49
280
     0
102
RTVSPost2010PropOp49
 70
     1
102
RTVSPost2010Prop50
 90
       50
102
RTVSPost2010PropOp50
 70
     1
102
RTVSPost2010Prop51ColorIndex
 90
      256
102
RTVSPost2010Prop51ColorRGB
 90
-16777216
102
RTVSPost2010PropOp51
 70
     0
102
RTVSPost2010Prop52
140
1.0
102
RTVSPost2010PropOp52
 70
     0
102
RTVSPost2010Prop53
 90
        2
102
RTVSPost2010PropOp53
 70
     1
102
RTVSPost2010Prop54
  1
strokes_ogs.tif
102
RTVSPost2010PropOp54
 70
     1
102
RTVSPost2010Prop55
280
     0
102
RTVSPost2010PropOp55
 70
     1
102
RTVSPost2010Prop56
140
1.0
102
RTVSPost2010PropOp56
 70
     1
102
RTVSPost2010Prop57
140
1.0
102
RTVSPost2010PropOp57
 70
     1
  0
XRECORD
  5
3A9
102
{ACAD_REACTORS
330
3A8
102
}
330
3A8
100
AcDbXrecord
280
     1
102
RTVSPropertyOp0
 70
     1
102
RTVSPropertyOp1
 70
     1
102
RTVSPropertyOp2
 70
     1
102
RTVSPropertyOp3
 70
     1
102
RTVSPropertyOp4
 70
     1
102
RTVSPropertyOp5
 70
     1
102
RTVSPropertyOp6
 70
     1
102
RTVSPropertyOp7
 70
     1
102
RTVSPropertyOp8
 70
     1
102
RTVSPropertyOp9
 70
     1
102
RTVSPropertyOp10
 70
     1
102
RTVSPropertyOp11
 70
     1
102
RTVSPropertyOp12
 70
     1
102
RTVSPropertyOp13
 70
     1
102
RTVSPropertyOp14
 70
     1
102
RTVSPropertyOp15
 70
     1
102
RTVSPropertyOp16
 70
     1
102
RTVSPropertyOp17
 70
     1
102
RTVSPropertyOp18
 70
     1
102
RTVSPropertyOp19
 70
     1
102
RTVSPropertyOp20
 70
     1
102
RTVSPropertyOp21
 70
     1
102
RTVSPropertyOp22
 70
     1
102
RTVSPropertyOp23
 70
     1
102
RTVSPropertyOp24
 70
     1
102
RTVSPropertyOp25
 70
     1
102
RTVSPropertyOp26
 70
     1
102
RTVSPropertyOp27
 70
     1
102
RTVSPropertyOp28
 70
     1
102
RTVSPropertyOp29
 70
     1
102
RTVSPropertyOp30
 70
     1
102
RTVSPropertyOp31
 70
     1
102
RTVSPropertyOp32
 70
     1
102
RTVSPropertyOp33
 70
     1
102
RTVSPropertyOp34
 70
     1
102
RTVSPropertyOp35
 70
     1
102
RTVSPropertyOp36
 70
     1
102
RTVSPropertyOp37
 70
     1
102
RTVSPropertyOp38
 70
     1
102
RTVSPropertyOp39
 70
     1
102
RTVSPropertyOp40
 70
     1
102
RTVSPropertyOp41
 70
     1
102
RTVSPropertyOp42
 70
     1
102
RTVSPropertyOp43
 70
     1
102
RTVSPropertyOp44
 70
     1
102
RTVSPropertyOp45
 70
     1
102
RTVSPropertyOp46
 70
     1
102
RTVSPropertyOp47
 70
     1
102
RTVSPropertyOp48
 70
     1
102
RTVSPropertyOp49
 70
     1
102
RTVSPropertyOp50
 70
     1
102
RTVSPropertyOp51
 70
     0
102
RTVSPropertyOp52
 70
     0
102
RTVSPropertyOp53
 70
     1
102
RTVSPropertyOp54
 70
     1
102
RTVSPropertyOp55
 70
     1
102
RTVSPropertyOp56
 70
     1
102
RTVSPropertyOp57
 70
     1
102
RTVSPost2010Prop28
280
     0
102
RTVSPost2010PropOp28
 70
     1
102
RTVSPost2010Prop29
280
     1
102
RTVSPost2010PropOp29
 70
     1
102
RTVSPost2010Prop30
280
     1
102
RTVSPost2010PropOp30
 70
     1
102
RTVSPost2010Prop31
280
     0
102
RTVSPost2010PropOp31
 70
     1
102
RTVSPost2010Prop32
280
     0
102
RTVSPost2010PropOp32
 70
     1
102
RTVSPost2010Prop33
280
     0
102
RTVSPost2010PropOp33
 70
     1
102
RTVSPost2010Prop34
280
     0
102
RTVSPost2010PropOp34
 70
     1
102
RTVSPost2010Prop35
280
     0
102
RTVSPost2010PropOp35
 70
     1
102
RTVSPost2010Prop36
280
     0
102
RTVSPost2010PropOp36
 70
     1
102
RTVSPost2010Prop37
 90
       50
102
RTVSPost2010PropOp37
 70
     1
102
RTVSPost2010Prop38
140
0.0
102
RTVSPost2010PropOp38
 70
     1
102
RTVSPost2010Prop39
140
1.0
102
RTVSPost2010PropOp39
 70
     1
102
RTVSPost2010Prop40
 90
        0
102
RTVSPost2010PropOp40
 70
     1
102
RTVSPost2010Prop41ColorIndex
 90
       18
102
RTVSPost2010Prop41ColorRGB
 90
        0
102
RTVSPost2010PropOp41
 70
     1
102
RTVSPost2010Prop42
 90
       50
102
RTVSPost2010PropOp42
 70
     1
102
RTVSPost2010Prop43
 90
        3
102
RTVSPost2010PropOp43
 70
     1
102
RTVSPost2010Prop44ColorIndex
 90
        5
102
RTVSPost2010Prop44ColorRGB
 90
      255
102
RTVSPost2010PropOp44
 70
     1
102
RTVSPost2010Prop45
280
     0
102
RTVSPost2010PropOp45
 70
     1
102
RTVSPost2010Prop46
 90
       50
102
RTVSPost2010PropOp46
 70
     1
102
RTVSPost2010Prop47
 90
       50
102
RTVSPost2010PropOp47
 70
     1
102
RTVSPost2010Prop48
 90
       50
102
RTVSPost2010PropOp48
 70
     1
102
RTVSPost2010Prop49
280
     0
102
RTVSPost2010PropOp49
 70
     1
102
RTVSPost2010Prop50
 90
       50
102
RTVSPost2010PropOp50
 70
     1
102
RTVSPost2010Prop51ColorIndex
 90
      256
102
RTVSPost2010Prop51ColorRGB
 90
-16777216
102
RTVSPost2010PropOp51
 70
     0
102
RTVSPost2010Prop52
140
1.0
102
RTVSPost2010PropOp52
 70
     0
102
RTVSPost2010Prop53
 90
        2
102
RTVSPost2010PropOp53
 70
     1
102
RTVSPost2010Prop54
  1
strokes_ogs.tif
102
RTVSPost2010PropOp54
 70
     1
102
RTVSPost2010Prop55
280
     0
102
RTVSPost2010PropOp55
 70
     1
102
RTVSPost2010Prop56
140
1.0
102
RTVSPost2010PropOp56
 70
     1
102
RTVSPost2010Prop57
140
1.0
102
RTVSPost2010PropOp57
 70
     1
  0
XRECORD
  5
3A3
102
{ACAD_REACTORS
330
3A2
102
}
330
3A2
100
AcDbXrecord
280
     1
102
RTVSPropertyOp0
 70
     1
102
RTVSPropertyOp1
 70
     1
102
RTVSPropertyOp2
 70
     1
102
RTVSPropertyOp3
 70
     1
102
RTVSPropertyOp4
 70
     1
102
RTVSPropertyOp5
 70
     1
102
RTVSPropertyOp6
 70
     1
102
RTVSPropertyOp7
 70
     1
102
RTVSPropertyOp8
 70
     1
102
RTVSPropertyOp9
 70
     1
102
RTVSPropertyOp10
 70
     1
102
RTVSPropertyOp11
 70
     1
102
RTVSPropertyOp12
 70
     1
102
RTVSPropertyOp13
 70
     1
102
RTVSPropertyOp14
 70
     1
102
RTVSPropertyOp15
 70
     1
102
RTVSPropertyOp16
 70
     1
102
RTVSPropertyOp17
 70
     1
102
RTVSPropertyOp18
 70
     1
102
RTVSPropertyOp19
 70
     1
102
RTVSPropertyOp20
 70
     1
102
RTVSPropertyOp21
 70
     1
102
RTVSPropertyOp22
 70
     1
102
RTVSPropertyOp23
 70
     1
102
RTVSPropertyOp24
 70
     1
102
RTVSPropertyOp25
 70
     1
102
RTVSPropertyOp26
 70
     1
102
RTVSPropertyOp27
 70
     1
102
RTVSPropertyOp28
 70
     1
102
RTVSPropertyOp29
 70
     1
102
RTVSPropertyOp30
 70
     1
102
RTVSPropertyOp31
 70
     1
102
RTVSPropertyOp32
 70
     1
102
RTVSPropertyOp33
 70
     1
102
RTVSPropertyOp34
 70
     1
102
RTVSPropertyOp35
 70
     1
102
RTVSPropertyOp36
 70
     1
102
RTVSPropertyOp37
 70
     1
102
RTVSPropertyOp38
 70
     1
102
RTVSPropertyOp39
 70
     1
102
RTVSPropertyOp40
 70
     1
102
RTVSPropertyOp41
 70
     1
102
RTVSPropertyOp42
 70
     1
102
RTVSPropertyOp43
 70
     1
102
RTVSPropertyOp44
 70
     1
102
RTVSPropertyOp45
 70
     1
102
RTVSPropertyOp46
 70
     1
102
RTVSPropertyOp47
 70
     1
102
RTVSPropertyOp48
 70
     1
102
RTVSPropertyOp49
 70
     1
102
RTVSPropertyOp50
 70
     1
102
RTVSPropertyOp51
 70
     0
102
RTVSPropertyOp52
 70
     0
102
RTVSPropertyOp53
 70
     1
102
RTVSPropertyOp54
 70
     1
102
RTVSPropertyOp55
 70
     1
102
RTVSPropertyOp56
 70
     1
102
RTVSPropertyOp57
 70
     1
102
RTVSPost2010Prop28
280
     0
102
RTVSPost2010PropOp28
 70
     1
102
RTVSPost2010Prop29
280
     1
102
RTVSPost2010PropOp29
 70
     1
102
RTVSPost2010Prop30
280
     1
102
RTVSPost2010PropOp30
 70
     1
102
RTVSPost2010Prop31
280
     0
102
RTVSPost2010PropOp31
 70
     1
102
RTVSPost2010Prop32
280
     0
102
RTVSPost2010PropOp32
 70
     1
102
RTVSPost2010Prop33
280
     0
102
RTVSPost2010PropOp33
 70
     1
102
RTVSPost2010Prop34
280
     0
102
RTVSPost2010PropOp34
 70
     1
102
RTVSPost2010Prop35
280
     0
102
RTVSPost2010PropOp35
 70
     1
102
RTVSPost2010Prop36
280
     0
102
RTVSPost2010PropOp36
 70
     1
102
RTVSPost2010Prop37
 90
       50
102
RTVSPost2010PropOp37
 70
     1
102
RTVSPost2010Prop38
140
0.0
102
RTVSPost2010PropOp38
 70
     1
102
RTVSPost2010Prop39
140
1.0
102
RTVSPost2010PropOp39
 70
     1
102
RTVSPost2010Prop40
 90
        0
102
RTVSPost2010PropOp40
 70
     1
102
RTVSPost2010Prop41ColorIndex
 90
       18
102
RTVSPost2010Prop41ColorRGB
 90
        0
102
RTVSPost2010PropOp41
 70
     1
102
RTVSPost2010Prop42
 90
       50
102
RTVSPost2010PropOp42
 70
     1
102
RTVSPost2010Prop43
 90
        3
102
RTVSPost2010PropOp43
 70
     1
102
RTVSPost2010Prop44ColorIndex
 90
        5
102
RTVSPost2010Prop44ColorRGB
 90
      255
102
RTVSPost2010PropOp44
 70
     1
102
RTVSPost2010Prop45
280
     0
102
RTVSPost2010PropOp45
 70
     1
102
RTVSPost2010Prop46
 90
       50
102
RTVSPost2010PropOp46
 70
     1
102
RTVSPost2010Prop47
 90
       50
102
RTVSPost2010PropOp47
 70
     1
102
RTVSPost2010Prop48
 90
       50
102
RTVSPost2010PropOp48
 70
     1
102
RTVSPost2010Prop49
280
     0
102
RTVSPost2010PropOp49
 70
     1
102
RTVSPost2010Prop50
 90
       50
102
RTVSPost2010PropOp50
 70
     1
102
RTVSPost2010Prop51ColorIndex
 90
      256
102
RTVSPost2010Prop51ColorRGB
 90
-16777216
102
RTVSPost2010PropOp51
 70
     0
102
RTVSPost2010Prop52
140
1.0
102
RTVSPost2010PropOp52
 70
     0
102
RTVSPost2010Prop53
 90
        2
102
RTVSPost2010PropOp53
 70
     1
102
RTVSPost2010Prop54
  1
strokes_ogs.tif
102
RTVSPost2010PropOp54
 70
     1
102
RTVSPost2010Prop55
280
     0
102
RTVSPost2010PropOp55
 70
     1
102
RTVSPost2010Prop56
140
1.0
102
RTVSPost2010PropOp56
 70
     1
102
RTVSPost2010Prop57
140
1.0
102
RTVSPost2010PropOp57
 70
     1
  0
XRECORD
  5
3A5
102
{ACAD_REACTORS
330
3A4
102
}
330
3A4
100
AcDbXrecord
280
     1
102
RTVSPropertyOp0
 70
     1
102
RTVSPropertyOp1
 70
     1
102
RTVSPropertyOp2
 70
     1
102
RTVSPropertyOp3
 70
     1
102
RTVSPropertyOp4
 70
     1
102
RTVSPropertyOp5
 70
     1
102
RTVSPropertyOp6
 70
     1
102
RTVSPropertyOp7
 70
     1
102
RTVSPropertyOp8
 70
     1
102
RTVSPropertyOp9
 70
     1
102
RTVSPropertyOp10
 70
     1
102
RTVSPropertyOp11
 70
     1
102
RTVSPropertyOp12
 70
     1
102
RTVSPropertyOp13
 70
     1
102
RTVSPropertyOp14
 70
     1
102
RTVSPropertyOp15
 70
     1
102
RTVSPropertyOp16
 70
     1
102
RTVSPropertyOp17
 70
     1
102
RTVSPropertyOp18
 70
     1
102
RTVSPropertyOp19
 70
     1
102
RTVSPropertyOp20
 70
     1
102
RTVSPropertyOp21
 70
     1
102
RTVSPropertyOp22
 70
     1
102
RTVSPropertyOp23
 70
     1
102
RTVSPropertyOp24
 70
     1
102
RTVSPropertyOp25
 70
     1
102
RTVSPropertyOp26
 70
     1
102
RTVSPropertyOp27
 70
     1
102
RTVSPropertyOp28
 70
     1
102
RTVSPropertyOp29
 70
     1
102
RTVSPropertyOp30
 70
     1
102
RTVSPropertyOp31
 70
     1
102
RTVSPropertyOp32
 70
     1
102
RTVSPropertyOp33
 70
     1
102
RTVSPropertyOp34
 70
     1
102
RTVSPropertyOp35
 70
     1
102
RTVSPropertyOp36
 70
     1
102
RTVSPropertyOp37
 70
     1
102
RTVSPropertyOp38
 70
     1
102
RTVSPropertyOp39
 70
     1
102
RTVSPropertyOp40
 70
     1
102
RTVSPropertyOp41
 70
     1
102
RTVSPropertyOp42
 70
     1
102
RTVSPropertyOp43
 70
     1
102
RTVSPropertyOp44
 70
     1
102
RTVSPropertyOp45
 70
     1
102
RTVSPropertyOp46
 70
     1
102
RTVSPropertyOp47
 70
     1
102
RTVSPropertyOp48
 70
     1
102
RTVSPropertyOp49
 70
     1
102
RTVSPropertyOp50
 70
     1
102
RTVSPropertyOp51
 70
     0
102
RTVSPropertyOp52
 70
     0
102
RTVSPropertyOp53
 70
     1
102
RTVSPropertyOp54
 70
     1
102
RTVSPropertyOp55
 70
     1
102
RTVSPropertyOp56
 70
     1
102
RTVSPropertyOp57
 70
     1
102
RTVSPost2010Prop28
280
     0
102
RTVSPost2010PropOp28
 70
     1
102
RTVSPost2010Prop29
280
     1
102
RTVSPost2010PropOp29
 70
     1
102
RTVSPost2010Prop30
280
     1
102
RTVSPost2010PropOp30
 70
     1
102
RTVSPost2010Prop31
280
     0
102
RTVSPost2010PropOp31
 70
     1
102
RTVSPost2010Prop32
280
     0
102
RTVSPost2010PropOp32
 70
     1
102
RTVSPost2010Prop33
280
     0
102
RTVSPost2010PropOp33
 70
     1
102
RTVSPost2010Prop34
280
     0
102
RTVSPost2010PropOp34
 70
     1
102
RTVSPost2010Prop35
280
     0
102
RTVSPost2010PropOp35
 70
     1
102
RTVSPost2010Prop36
280
     0
102
RTVSPost2010PropOp36
 70
     1
102
RTVSPost2010Prop37
 90
       50
102
RTVSPost2010PropOp37
 70
     1
102
RTVSPost2010Prop38
140
0.0
102
RTVSPost2010PropOp38
 70
     1
102
RTVSPost2010Prop39
140
1.0
102
RTVSPost2010PropOp39
 70
     1
102
RTVSPost2010Prop40
 90
        0
102
RTVSPost2010PropOp40
 70
     1
102
RTVSPost2010Prop41ColorIndex
 90
       18
102
RTVSPost2010Prop41ColorRGB
 90
        0
102
RTVSPost2010PropOp41
 70
     1
102
RTVSPost2010Prop42
 90
       50
102
RTVSPost2010PropOp42
 70
     1
102
RTVSPost2010Prop43
 90
        3
102
RTVSPost2010PropOp43
 70
     1
102
RTVSPost2010Prop44ColorIndex
 90
        5
102
RTVSPost2010Prop44ColorRGB
 90
      255
102
RTVSPost2010PropOp44
 70
     1
102
RTVSPost2010Prop45
280
     0
102
RTVSPost2010PropOp45
 70
     1
102
RTVSPost2010Prop46
 90
       50
102
RTVSPost2010PropOp46
 70
     1
102
RTVSPost2010Prop47
 90
       50
102
RTVSPost2010PropOp47
 70
     1
102
RTVSPost2010Prop48
 90
       50
102
RTVSPost2010PropOp48
 70
     1
102
RTVSPost2010Prop49
280
     0
102
RTVSPost2010PropOp49
 70
     1
102
RTVSPost2010Prop50
 90
       50
102
RTVSPost2010PropOp50
 70
     1
102
RTVSPost2010Prop51ColorIndex
 90
      256
102
RTVSPost2010Prop51ColorRGB
 90
-16777216
102
RTVSPost2010PropOp51
 70
     0
102
RTVSPost2010Prop52
140
1.0
102
RTVSPost2010PropOp52
 70
     0
102
RTVSPost2010Prop53
 90
        2
102
RTVSPost2010PropOp53
 70
     1
102
RTVSPost2010Prop54
  1
strokes_ogs.tif
102
RTVSPost2010PropOp54
 70
     1
102
RTVSPost2010Prop55
280
     0
102
RTVSPost2010PropOp55
 70
     1
102
RTVSPost2010Prop56
140
1.0
102
RTVSPost2010PropOp56
 70
     1
102
RTVSPost2010Prop57
140
1.0
102
RTVSPost2010PropOp57
 70
     1
  0
XRECORD
  5
395
102
{ACAD_REACTORS
330
394
102
}
330
394
100
AcDbXrecord
280
     1
102
RTVSPropertyOp0
 70
     1
102
RTVSPropertyOp1
 70
     1
102
RTVSPropertyOp2
 70
     1
102
RTVSPropertyOp3
 70
     1
102
RTVSPropertyOp4
 70
     1
102
RTVSPropertyOp5
 70
     1
102
RTVSPropertyOp6
 70
     1
102
RTVSPropertyOp7
 70
     1
102
RTVSPropertyOp8
 70
     1
102
RTVSPropertyOp9
 70
     1
102
RTVSPropertyOp10
 70
     1
102
RTVSPropertyOp11
 70
     1
102
RTVSPropertyOp12
 70
     1
102
RTVSPropertyOp13
 70
     1
102
RTVSPropertyOp14
 70
     1
102
RTVSPropertyOp15
 70
     1
102
RTVSPropertyOp16
 70
     1
102
RTVSPropertyOp17
 70
     1
102
RTVSPropertyOp18
 70
     1
102
RTVSPropertyOp19
 70
     1
102
RTVSPropertyOp20
 70
     1
102
RTVSPropertyOp21
 70
     1
102
RTVSPropertyOp22
 70
     1
102
RTVSPropertyOp23
 70
     1
102
RTVSPropertyOp24
 70
     1
102
RTVSPropertyOp25
 70
     1
102
RTVSPropertyOp26
 70
     1
102
RTVSPropertyOp27
 70
     1
102
RTVSPropertyOp28
 70
     1
102
RTVSPropertyOp29
 70
     1
102
RTVSPropertyOp30
 70
     1
102
RTVSPropertyOp31
 70
     1
102
RTVSPropertyOp32
 70
     1
102
RTVSPropertyOp33
 70
     1
102
RTVSPropertyOp34
 70
     1
102
RTVSPropertyOp35
 70
     1
102
RTVSPropertyOp36
 70
     1
102
RTVSPropertyOp37
 70
     1
102
RTVSPropertyOp38
 70
     1
102
RTVSPropertyOp39
 70
     1
102
RTVSPropertyOp40
 70
     1
102
RTVSPropertyOp41
 70
     1
102
RTVSPropertyOp42
 70
     1
102
RTVSPropertyOp43
 70
     1
102
RTVSPropertyOp44
 70
     1
102
RTVSPropertyOp45
 70
     1
102
RTVSPropertyOp46
 70
     1
102
RTVSPropertyOp47
 70
     1
102
RTVSPropertyOp48
 70
     1
102
RTVSPropertyOp49
 70
     1
102
RTVSPropertyOp50
 70
     1
102
RTVSPropertyOp51
 70
     0
102
RTVSPropertyOp52
 70
     0
102
RTVSPropertyOp53
 70
     1
102
RTVSPropertyOp54
 70
     1
102
RTVSPropertyOp55
 70
     1
102
RTVSPropertyOp56
 70
     1
102
RTVSPropertyOp57
 70
     1
102
RTVSPost2010Prop28
280
     0
102
RTVSPost2010PropOp28
 70
     1
102
RTVSPost2010Prop29
280
     1
102
RTVSPost2010PropOp29
 70
     1
102
RTVSPost2010Prop30
280
     1
102
RTVSPost2010PropOp30
 70
     1
102
RTVSPost2010Prop31
280
     0
102
RTVSPost2010PropOp31
 70
     1
102
RTVSPost2010Prop32
280
     0
102
RTVSPost2010PropOp32
 70
     1
102
RTVSPost2010Prop33
280
     0
102
RTVSPost2010PropOp33
 70
     1
102
RTVSPost2010Prop34
280
     0
102
RTVSPost2010PropOp34
 70
     1
102
RTVSPost2010Prop35
280
     0
102
RTVSPost2010PropOp35
 70
     1
102
RTVSPost2010Prop36
280
     0
102
RTVSPost2010PropOp36
 70
     1
102
RTVSPost2010Prop37
 90
       50
102
RTVSPost2010PropOp37
 70
     1
102
RTVSPost2010Prop38
140
0.0
102
RTVSPost2010PropOp38
 70
     1
102
RTVSPost2010Prop39
140
1.0
102
RTVSPost2010PropOp39
 70
     1
102
RTVSPost2010Prop40
 90
        0
102
RTVSPost2010PropOp40
 70
     1
102
RTVSPost2010Prop41ColorIndex
 90
       18
102
RTVSPost2010Prop41ColorRGB
 90
        0
102
RTVSPost2010PropOp41
 70
     1
102
RTVSPost2010Prop42
 90
       50
102
RTVSPost2010PropOp42
 70
     1
102
RTVSPost2010Prop43
 90
        3
102
RTVSPost2010PropOp43
 70
     1
102
RTVSPost2010Prop44ColorIndex
 90
        5
102
RTVSPost2010Prop44ColorRGB
 90
      255
102
RTVSPost2010PropOp44
 70
     1
102
RTVSPost2010Prop45
280
     0
102
RTVSPost2010PropOp45
 70
     1
102
RTVSPost2010Prop46
 90
       50
102
RTVSPost2010PropOp46
 70
     1
102
RTVSPost2010Prop47
 90
       50
102
RTVSPost2010PropOp47
 70
     1
102
RTVSPost2010Prop48
 90
       50
102
RTVSPost2010PropOp48
 70
     1
102
RTVSPost2010Prop49
280
     0
102
RTVSPost2010PropOp49
 70
     1
102
RTVSPost2010Prop50
 90
       50
102
RTVSPost2010PropOp50
 70
     1
102
RTVSPost2010Prop51ColorIndex
 90
      256
102
RTVSPost2010Prop51ColorRGB
 90
-16777216
102
RTVSPost2010PropOp51
 70
     0
102
RTVSPost2010Prop52
140
1.0
102
RTVSPost2010PropOp52
 70
     0
102
RTVSPost2010Prop53
 90
        2
102
RTVSPost2010PropOp53
 70
     1
102
RTVSPost2010Prop54
  1
strokes_ogs.tif
102
RTVSPost2010PropOp54
 70
     1
102
RTVSPost2010Prop55
280
     0
102
RTVSPost2010PropOp55
 70
     1
102
RTVSPost2010Prop56
140
1.0
102
RTVSPost2010PropOp56
 70
     1
102
RTVSPost2010Prop57
140
1.0
102
RTVSPost2010PropOp57
 70
     1
  0
XRECORD
  5
387
102
{ACAD_REACTORS
330
386
102
}
330
386
100
AcDbXrecord
280
     1
102
RTVSPropertyOp0
 70
     1
102
RTVSPropertyOp1
 70
     1
102
RTVSPropertyOp2
 70
     1
102
RTVSPropertyOp3
 70
     1
102
RTVSPropertyOp4
 70
     1
102
RTVSPropertyOp5
 70
     1
102
RTVSPropertyOp6
 70
     1
102
RTVSPropertyOp7
 70
     1
102
RTVSPropertyOp8
 70
     1
102
RTVSPropertyOp9
 70
     1
102
RTVSPropertyOp10
 70
     1
102
RTVSPropertyOp11
 70
     1
102
RTVSPropertyOp12
 70
     1
102
RTVSPropertyOp13
 70
     1
102
RTVSPropertyOp14
 70
     1
102
RTVSPropertyOp15
 70
     1
102
RTVSPropertyOp16
 70
     1
102
RTVSPropertyOp17
 70
     1
102
RTVSPropertyOp18
 70
     1
102
RTVSPropertyOp19
 70
     1
102
RTVSPropertyOp20
 70
     1
102
RTVSPropertyOp21
 70
     1
102
RTVSPropertyOp22
 70
     1
102
RTVSPropertyOp23
 70
     1
102
RTVSPropertyOp24
 70
     1
102
RTVSPropertyOp25
 70
     1
102
RTVSPropertyOp26
 70
     1
102
RTVSPropertyOp27
 70
     1
102
RTVSPropertyOp28
 70
     1
102
RTVSPropertyOp29
 70
     1
102
RTVSPropertyOp30
 70
     1
102
RTVSPropertyOp31
 70
     1
102
RTVSPropertyOp32
 70
     1
102
RTVSPropertyOp33
 70
     1
102
RTVSPropertyOp34
 70
     1
102
RTVSPropertyOp35
 70
     1
102
RTVSPropertyOp36
 70
     1
102
RTVSPropertyOp37
 70
     1
102
RTVSPropertyOp38
 70
     1
102
RTVSPropertyOp39
 70
     1
102
RTVSPropertyOp40
 70
     1
102
RTVSPropertyOp41
 70
     1
102
RTVSPropertyOp42
 70
     1
102
RTVSPropertyOp43
 70
     1
102
RTVSPropertyOp44
 70
     1
102
RTVSPropertyOp45
 70
     1
102
RTVSPropertyOp46
 70
     1
102
RTVSPropertyOp47
 70
     1
102
RTVSPropertyOp48
 70
     1
102
RTVSPropertyOp49
 70
     1
102
RTVSPropertyOp50
 70
     1
102
RTVSPropertyOp51
 70
     0
102
RTVSPropertyOp52
 70
     0
102
RTVSPropertyOp53
 70
     1
102
RTVSPropertyOp54
 70
     1
102
RTVSPropertyOp55
 70
     1
102
RTVSPropertyOp56
 70
     1
102
RTVSPropertyOp57
 70
     1
102
RTVSPost2010Prop28
280
     0
102
RTVSPost2010PropOp28
 70
     1
102
RTVSPost2010Prop29
280
     1
102
RTVSPost2010PropOp29
 70
     1
102
RTVSPost2010Prop30
280
     1
102
RTVSPost2010PropOp30
 70
     1
102
RTVSPost2010Prop31
280
     0
102
RTVSPost2010PropOp31
 70
     1
102
RTVSPost2010Prop32
280
     0
102
RTVSPost2010PropOp32
 70
     1
102
RTVSPost2010Prop33
280
     0
102
RTVSPost2010PropOp33
 70
     1
102
RTVSPost2010Prop34
280
     0
102
RTVSPost2010PropOp34
 70
     1
102
RTVSPost2010Prop35
280
     0
102
RTVSPost2010PropOp35
 70
     1
102
RTVSPost2010Prop36
280
     0
102
RTVSPost2010PropOp36
 70
     1
102
RTVSPost2010Prop37
 90
       50
102
RTVSPost2010PropOp37
 70
     1
102
RTVSPost2010Prop38
140
0.0
102
RTVSPost2010PropOp38
 70
     1
102
RTVSPost2010Prop39
140
1.0
102
RTVSPost2010PropOp39
 70
     1
102
RTVSPost2010Prop40
 90
        0
102
RTVSPost2010PropOp40
 70
     1
102
RTVSPost2010Prop41ColorIndex
 90
       18
102
RTVSPost2010Prop41ColorRGB
 90
        0
102
RTVSPost2010PropOp41
 70
     1
102
RTVSPost2010Prop42
 90
       50
102
RTVSPost2010PropOp42
 70
     1
102
RTVSPost2010Prop43
 90
        3
102
RTVSPost2010PropOp43
 70
     1
102
RTVSPost2010Prop44ColorIndex
 90
        5
102
RTVSPost2010Prop44ColorRGB
 90
      255
102
RTVSPost2010PropOp44
 70
     1
102
RTVSPost2010Prop45
280
     0
102
RTVSPost2010PropOp45
 70
     1
102
RTVSPost2010Prop46
 90
       50
102
RTVSPost2010PropOp46
 70
     1
102
RTVSPost2010Prop47
 90
       50
102
RTVSPost2010PropOp47
 70
     1
102
RTVSPost2010Prop48
 90
       50
102
RTVSPost2010PropOp48
 70
     1
102
RTVSPost2010Prop49
280
     0
102
RTVSPost2010PropOp49
 70
     1
102
RTVSPost2010Prop50
 90
       50
102
RTVSPost2010PropOp50
 70
     1
102
RTVSPost2010Prop51ColorIndex
 90
      256
102
RTVSPost2010Prop51ColorRGB
 90
-16777216
102
RTVSPost2010PropOp51
 70
     0
102
RTVSPost2010Prop52
140
1.0
102
RTVSPost2010PropOp52
 70
     0
102
RTVSPost2010Prop53
 90
        2
102
RTVSPost2010PropOp53
 70
     1
102
RTVSPost2010Prop54
  1
strokes_ogs.tif
102
RTVSPost2010PropOp54
 70
     1
102
RTVSPost2010Prop55
280
     0
102
RTVSPost2010PropOp55
 70
     1
102
RTVSPost2010Prop56
140
1.0
102
RTVSPost2010PropOp56
 70
     1
102
RTVSPost2010Prop57
140
1.0
102
RTVSPost2010PropOp57
 70
     1
  0
XRECORD
  5
3A7
102
{ACAD_REACTORS
330
3A6
102
}
330
3A6
100
AcDbXrecord
280
     1
102
RTVSPropertyOp0
 70
     1
102
RTVSPropertyOp1
 70
     1
102
RTVSPropertyOp2
 70
     1
102
RTVSPropertyOp3
 70
     1
102
RTVSPropertyOp4
 70
     1
102
RTVSPropertyOp5
 70
     1
102
RTVSPropertyOp6
 70
     1
102
RTVSPropertyOp7
 70
     1
102
RTVSPropertyOp8
 70
     1
102
RTVSPropertyOp9
 70
     1
102
RTVSPropertyOp10
 70
     1
102
RTVSPropertyOp11
 70
     1
102
RTVSPropertyOp12
 70
     1
102
RTVSPropertyOp13
 70
     1
102
RTVSPropertyOp14
 70
     1
102
RTVSPropertyOp15
 70
     1
102
RTVSPropertyOp16
 70
     1
102
RTVSPropertyOp17
 70
     1
102
RTVSPropertyOp18
 70
     1
102
RTVSPropertyOp19
 70
     1
102
RTVSPropertyOp20
 70
     1
102
RTVSPropertyOp21
 70
     1
102
RTVSPropertyOp22
 70
     1
102
RTVSPropertyOp23
 70
     1
102
RTVSPropertyOp24
 70
     1
102
RTVSPropertyOp25
 70
     1
102
RTVSPropertyOp26
 70
     1
102
RTVSPropertyOp27
 70
     1
102
RTVSPropertyOp28
 70
     1
102
RTVSPropertyOp29
 70
     1
102
RTVSPropertyOp30
 70
     1
102
RTVSPropertyOp31
 70
     1
102
RTVSPropertyOp32
 70
     1
102
RTVSPropertyOp33
 70
     1
102
RTVSPropertyOp34
 70
     1
102
RTVSPropertyOp35
 70
     1
102
RTVSPropertyOp36
 70
     1
102
RTVSPropertyOp37
 70
     1
102
RTVSPropertyOp38
 70
     1
102
RTVSPropertyOp39
 70
     1
102
RTVSPropertyOp40
 70
     1
102
RTVSPropertyOp41
 70
     1
102
RTVSPropertyOp42
 70
     1
102
RTVSPropertyOp43
 70
     1
102
RTVSPropertyOp44
 70
     1
102
RTVSPropertyOp45
 70
     1
102
RTVSPropertyOp46
 70
     1
102
RTVSPropertyOp47
 70
     1
102
RTVSPropertyOp48
 70
     1
102
RTVSPropertyOp49
 70
     1
102
RTVSPropertyOp50
 70
     1
102
RTVSPropertyOp51
 70
     0
102
RTVSPropertyOp52
 70
     0
102
RTVSPropertyOp53
 70
     1
102
RTVSPropertyOp54
 70
     1
102
RTVSPropertyOp55
 70
     1
102
RTVSPropertyOp56
 70
     1
102
RTVSPropertyOp57
 70
     1
102
RTVSPost2010Prop28
280
     0
102
RTVSPost2010PropOp28
 70
     1
102
RTVSPost2010Prop29
280
     1
102
RTVSPost2010PropOp29
 70
     1
102
RTVSPost2010Prop30
280
     1
102
RTVSPost2010PropOp30
 70
     1
102
RTVSPost2010Prop31
280
     0
102
RTVSPost2010PropOp31
 70
     1
102
RTVSPost2010Prop32
280
     0
102
RTVSPost2010PropOp32
 70
     1
102
RTVSPost2010Prop33
280
     0
102
RTVSPost2010PropOp33
 70
     1
102
RTVSPost2010Prop34
280
     0
102
RTVSPost2010PropOp34
 70
     1
102
RTVSPost2010Prop35
280
     0
102
RTVSPost2010PropOp35
 70
     1
102
RTVSPost2010Prop36
280
     0
102
RTVSPost2010PropOp36
 70
     1
102
RTVSPost2010Prop37
 90
       50
102
RTVSPost2010PropOp37
 70
     1
102
RTVSPost2010Prop38
140
0.0
102
RTVSPost2010PropOp38
 70
     1
102
RTVSPost2010Prop39
140
1.0
102
RTVSPost2010PropOp39
 70
     1
102
RTVSPost2010Prop40
 90
        0
102
RTVSPost2010PropOp40
 70
     1
102
RTVSPost2010Prop41ColorIndex
 90
       18
102
RTVSPost2010Prop41ColorRGB
 90
        0
102
RTVSPost2010PropOp41
 70
     1
102
RTVSPost2010Prop42
 90
       50
102
RTVSPost2010PropOp42
 70
     1
102
RTVSPost2010Prop43
 90
        3
102
RTVSPost2010PropOp43
 70
     1
102
RTVSPost2010Prop44ColorIndex
 90
        5
102
RTVSPost2010Prop44ColorRGB
 90
      255
102
RTVSPost2010PropOp44
 70
     1
102
RTVSPost2010Prop45
280
     0
102
RTVSPost2010PropOp45
 70
     1
102
RTVSPost2010Prop46
 90
       50
102
RTVSPost2010PropOp46
 70
     1
102
RTVSPost2010Prop47
 90
       50
102
RTVSPost2010PropOp47
 70
     1
102
RTVSPost2010Prop48
 90
       50
102
RTVSPost2010PropOp48
 70
     1
102
RTVSPost2010Prop49
280
     0
102
RTVSPost2010PropOp49
 70
     1
102
RTVSPost2010Prop50
 90
       50
102
RTVSPost2010PropOp50
 70
     1
102
RTVSPost2010Prop51ColorIndex
 90
      256
102
RTVSPost2010Prop51ColorRGB
 90
-16777216
102
RTVSPost2010PropOp51
 70
     0
102
RTVSPost2010Prop52
140
1.0
102
RTVSPost2010PropOp52
 70
     0
102
RTVSPost2010Prop53
 90
        2
102
RTVSPost2010PropOp53
 70
     1
102
RTVSPost2010Prop54
  1
strokes_ogs.tif
102
RTVSPost2010PropOp54
 70
     1
102
RTVSPost2010Prop55
280
     0
102
RTVSPost2010PropOp55
 70
     1
102
RTVSPost2010Prop56
140
1.0
102
RTVSPost2010PropOp56
 70
     1
102
RTVSPost2010Prop57
140
1.0
102
RTVSPost2010PropOp57
 70
     1
  0
ENDSEC
  0
EOF
