  0
SECTION
  2
HEADER
  9
$ACADVER
  1
AC1009
  9
$DWGCODEPAGE
  3
ansi_1252
  9
$INSBASE
 10
0.0
 20
0.0
 30
0.0
  9
$EXTMIN
 10
1.000000000000000E+20
 20
1.000000000000000E+20
 30
1.000000000000000E+20
  9
$EXTMAX
 10
-1.000000000000000E+20
 20
-1.000000000000000E+20
 30
-1.000000000000000E+20
  9
$LIMMIN
 10
0.0
 20
0.0
  9
$LIMMAX
 10
12.0
 20
9.0
  9
$ORTHOMODE
 70
     0
  9
$REGENMODE
 70
     1
  9
$FILLMODE
 70
     1
  9
$QTEXTMODE
 70
     0
  9
$MIRRTEXT
 70
     1
  9
$DRAGMODE
 70
     2
  9
$LTSCALE
 40
1.0
  9
$OSMODE
 70
    37
  9
$ATTMODE
 70
     1
  9
$TEXTSIZE
 40
0.2
  9
$TRACEWID
 40
0.05
  9
$TEXTSTYLE
  7
STANDARD
  9
$CLAYER
  8
0
  9
$CELTYPE
  6
BYLAYER
  9
$CECOLOR
 62
   256
  9
$DIMSCALE
 40
1.0
  9
$DIMASZ
 40
0.18
  9
$DIMEXO
 40
0.0625
  9
$DIMDLI
 40
0.38
  9
$DIMRND
 40
0.0
  9
$DIMDLE
 40
0.0
  9
$DIMEXE
 40
0.18
  9
$DIMTP
 40
0.0
  9
$DIMTM
 40
0.0
  9
$DIMTXT
 40
0.18
  9
$DIMCEN
 40
0.09
  9
$DIMTSZ
 40
0.0
  9
$DIMTOL
 70
     0
  9
$DIMLIM
 70
     0
  9
$DIMTIH
 70
     1
  9
$DIMTOH
 70
     1
  9
$DIMSE1
 70
     0
  9
$DIMSE2
 70
     0
  9
$DIMTAD
 70
     0
  9
$DIMZIN
 70
     0
  9
$DIMBLK
  1

  9
$DIMASO
 70
     1
  9
$DIMSHO
 70
     1
  9
$DIMPOST
  1

  9
$DIMAPOST
  1

  9
$DIMALT
 70
     0
  9
$DIMALTD
 70
     2
  9
$DIMALTF
 40
25.4
  9
$DIMLFAC
 40
1.0
  9
$DIMTOFL
 70
     0
  9
$DIMTVP
 40
0.0
  9
$DIMTIX
 70
     0
  9
$DIMSOXD
 70
     0
  9
$DIMSAH
 70
     0
  9
$DIMBLK1
  1

  9
$DIMBLK2
  1

  9
$DIMSTYLE
  2
STANDARD
  9
$DIMCLRD
 70
     0
  9
$DIMCLRE
 70
     0
  9
$DIMCLRT
 70
     0
  9
$DIMTFAC
 40
1.0
  9
$DIMGAP
 40
0.09
  9
$LUNITS
 70
     2
  9
$LUPREC
 70
     4
  9
$SKETCHINC
 40
0.1
  9
$FILLETRAD
 40
0.5
  9
$AUNITS
 70
     0
  9
$AUPREC
 70
     0
  9
$MENU
  1
.
  9
$ELEVATION
 40
0.0
  9
$PELEVATION
 40
0.0
  9
$THICKNESS
 40
0.0
  9
$LIMCHECK
 70
     0
  9
$CHAMFERA
 40
0.5
  9
$CHAMFERB
 40
0.5
  9
$SKPOLY
 70
     0
  9
$TDCREATE
 40
2456136.531112477
  9
$TDUPDATE
 40
2456136.531112477
  9
$TDINDWG
 40
0.0000000116
  9
$TDUSRTIMER
 40
0.0000000116
  9
$USRTIMER
 70
     1
  9
$ANGBASE
 50
0.0
  9
$ANGDIR
 70
     0
  9
$PDMODE
 70
     0
  9
$PDSIZE
 40
0.0
  9
$PLINEWID
 40
0.0
  9
$COORDS
 70
     1
  9
$SPLFRAME
 70
     0
  9
$SPLINETYPE
 70
     6
  9
$SPLINESEGS
 70
     8
  9
$ATTDIA
 70
     0
  9
$ATTREQ
 70
     1
  9
$HANDLING
 70
     1
  9
$HANDSEED
  5
A75
  9
$SURFTAB1
 70
     6
  9
$SURFTAB2
 70
     6
  9
$SURFTYPE
 70
     6
  9
$SURFU
 70
     6
  9
$SURFV
 70
     6
  9
$UCSNAME
  2

  9
$UCSORG
 10
0.0
 20
0.0
 30
0.0
  9
$UCSXDIR
 10
1.0
 20
0.0
 30
0.0
  9
$UCSYDIR
 10
0.0
 20
1.0
 30
0.0
  9
$PUCSNAME
  2

  9
$PUCSORG
 10
0.0
 20
0.0
 30
0.0
  9
$PUCSXDIR
 10
1.0
 20
0.0
 30
0.0
  9
$PUCSYDIR
 10
0.0
 20
1.0
 30
0.0
  9
$USERI1
 70
     0
  9
$USERI2
 70
     0
  9
$USERI3
 70
     0
  9
$USERI4
 70
     0
  9
$USERI5
 70
     0
  9
$USERR1
 40
0.0
  9
$USERR2
 40
0.0
  9
$USERR3
 40
0.0
  9
$USERR4
 40
0.0
  9
$USERR5
 40
0.0
  9
$WORLDVIEW
 70
     1
  9
$SHADEDGE
 70
     3
  9
$SHADEDIF
 70
    70
  9
$TILEMODE
 70
     1
  9
$MAXACTVP
 70
    64
  9
$PLIMCHECK
 70
     0
  9
$PEXTMIN
 10
1.000000000000000E+20
 20
1.000000000000000E+20
 30
1.000000000000000E+20
  9
$PEXTMAX
 10
-1.000000000000000E+20
 20
-1.000000000000000E+20
 30
-1.000000000000000E+20
  9
$PLIMMIN
 10
0.0
 20
0.0
  9
$PLIMMAX
 10
12.0
 20
9.0
  9
$UNITMODE
 70
     0
  9
$VISRETAIN
 70
     1
  9
$PLINEGEN
 70
     0
  9
$PSLTSCALE
 70
     1
  0
ENDSEC
  0
SECTION
  2
TABLES
  0
TABLE
  2
VPORT
 70
     1
  0
VPORT
  2
*ACTIVE
 70
     0
 10
0.0
 20
0.0
 11
1.0
 21
1.0
 12
0.0
 22
0.0
 13
0.0
 23
0.0
 14
0.5
 24
0.5
 15
0.5
 25
0.5
 16
694.5973510742188
 26
-694.5973510742188
 36
695.5144653320312
 17
41.25
 27
76.0
 37
0.0
 40
511.009105139321
 41
1.972972972850329
 42
50.0
 43
0.0
 44
0.0
 50
0.0
 51
0.0
 71
     0
 72
   100
 73
     1
 74
     3
 75
     0
 76
     0
 77
     0
 78
     0
  0
ENDTAB
  0
TABLE
  2
LTYPE
 70
     1
  0
LTYPE
  2
CONTINUOUS
 70
     0
  3
Solid line
 72
    65
 73
     0
 40
0.0
  0
ENDTAB
  0
TABLE
  2
LAYER
 70
     2
  0
LAYER
  2
0
 70
     0
 62
     7
  6
CONTINUOUS
  0
LAYER
  2
LAYER_1
 70
     0
 62
     7
  6
CONTINUOUS
  0
ENDTAB
  0
TABLE
  2
STYLE
 70
     1
  0
STYLE
  2
STANDARD
 70
     0
 40
0.0
 41
1.0
 50
0.0
 71
     0
 42
0.2
  3
txt
  4

  0
ENDTAB
  0
TABLE
  2
VIEW
 70
     0
  0
ENDTAB
  0
TABLE
  2
UCS
 70
     0
  0
ENDTAB
  0
TABLE
  2
APPID
 70
     1
  0
APPID
  2
ACAD
 70
     0
  0
ENDTAB
  0
TABLE
  2
DIMSTYLE
 70
     1
  0
DIMSTYLE
  2
STANDARD
 70
     0
  3

  4

  5

  6

  7

 40
1.0
 41
0.18
 42
0.0625
 43
0.38
 44
0.18
 45
0.0
 46
0.0
 47
0.0
 48
0.0
140
0.18
141
0.09
142
0.0
143
25.4
144
1.0
145
0.0
146
1.0
147
0.09
 71
     0
 72
     0
 73
     1
 74
     1
 75
     0
 76
     0
 77
     0
 78
     0
170
     0
171
     2
172
     0
173
     0
174
     0
175
     0
176
     0
177
     0
178
     0
  0
ENDTAB
  0
ENDSEC
  0
SECTION
  2
BLOCKS
  0
BLOCK
  8
0
  2
$MODEL_SPACE
 70
     0
 10
0.0
 20
0.0
 30
0.0
  3
$MODEL_SPACE
  1

  0
ENDBLK
  5
21
  8
0
  0
BLOCK
 67
     1
  8
0
  2
$PAPER_SPACE
 70
     0
 10
0.0
 20
0.0
 30
0.0
  3
$PAPER_SPACE
  1

  0
ENDBLK
  5
1D
 67
     1
  8
0
  0
BLOCK
  8
0
  2
____MSBR
 70
     0
 10
0.0
 20
0.0
 30
0.0
  3
____MSBR
  1

  0
POLYLINE
  5
3C
  8
0
 62
   123
 66
     1
 10
0.0
 20
0.0
 30
0.0
 70
    64
 71
    24
 72
    24
  0
VERTEX
  5
3D
  8
0
 10
69.5
 20
366.0
 30
5.750002384185791
 70
   192
  0
VERTEX
  5
3E
  8
0
 10
69.5
 20
-214.0
 30
5.750002384185791
 70
   192
  0
VERTEX
  5
3F
  8
0
 10
72.94999694824219
 20
-214.0
 30
4.600002288818359
 70
   192
  0
VERTEX
  5
40
  8
0
 10
74.80769348144531
 20
-214.0
 30
2.211540937423706
 70
   192
  0
VERTEX
  5
41
  8
0
 10
72.94999694824219
 20
366.0
 30
4.600002288818359
 70
   192
  0
VERTEX
  5
42
  8
0
 10
75.25
 20
-214.0
 30
0.0000023966640583
 70
   192
  0
VERTEX
  5
43
  8
0
 10
74.80769348144531
 20
366.0
 30
2.211540937423706
 70
   192
  0
VERTEX
  5
44
  8
0
 10
75.25
 20
366.0
 30
0.0000023966640583
 70
   192
  0
VERTEX
  5
45
  8
0
 10
66.05000305175781
 20
366.0
 30
4.600002288818359
 70
   192
  0
VERTEX
  5
46
  8
0
 10
64.19230651855469
 20
366.0
 30
2.211540937423706
 70
   192
  0
VERTEX
  5
47
  8
0
 10
66.05000305175781
 20
-214.0
 30
4.600002288818359
 70
   192
  0
VERTEX
  5
48
  8
0
 10
64.19230651855469
 20
-214.0
 30
2.211540937423706
 70
   192
  0
VERTEX
  5
49
  8
0
 10
63.75
 20
366.0
 30
0.0000023966640583
 70
   192
  0
VERTEX
  5
4A
  8
0
 10
63.75
 20
-214.0
 30
0.0000023966640583
 70
   192
  0
VERTEX
  5
4B
  8
0
 10
74.80769348144531
 20
-214.0
 30
-2.211536169052124
 70
   192
  0
VERTEX
  5
4C
  8
0
 10
66.05000305175781
 20
-214.0
 30
-4.599997520446777
 70
   192
  0
VERTEX
  5
4D
  8
0
 10
69.5
 20
366.0
 30
-5.749997615814209
 70
   192
  0
VERTEX
  5
4E
  8
0
 10
69.5
 20
-214.0
 30
-5.749997615814209
 70
   192
  0
VERTEX
  5
4F
  8
0
 10
72.94999694824219
 20
-214.0
 30
-4.599997520446777
 70
   192
  0
VERTEX
  5
50
  8
0
 10
72.94999694824219
 20
366.0
 30
-4.599997520446777
 70
   192
  0
VERTEX
  5
51
  8
0
 10
74.80769348144531
 20
366.0
 30
-2.211536169052124
 70
   192
  0
VERTEX
  5
52
  8
0
 10
64.19230651855469
 20
366.0
 30
-2.211536169052124
 70
   192
  0
VERTEX
  5
53
  8
0
 10
64.19230651855469
 20
-214.0
 30
-2.211536169052124
 70
   192
  0
VERTEX
  5
54
  8
0
 10
66.05000305175781
 20
366.0
 30
-4.599997520446777
 70
   192
  0
VERTEX
  5
55
  8
0
 62
   123
 10
0.0
 20
0.0
 30
0.0
 70
   128
 71
     3
 72
     2
 73
     1
  0
VERTEX
  5
56
  8
0
 62
   123
 10
0.0
 20
0.0
 30
0.0
 70
   128
 71
     3
 72
     5
 73
     4
  0
VERTEX
  5
57
  8
0
 62
   123
 10
0.0
 20
0.0
 30
0.0
 70
   128
 71
     5
 72
     3
 73
     1
  0
VERTEX
  5
58
  8
0
 62
   123
 10
0.0
 20
0.0
 30
0.0
 70
   128
 71
     7
 72
     6
 73
     4
  0
VERTEX
  5
59
  8
0
 62
   123
 10
0.0
 20
0.0
 30
0.0
 70
   128
 71
     4
 72
     5
 73
     7
  0
VERTEX
  5
5A
  8
0
 62
   123
 10
0.0
 20
0.0
 30
0.0
 70
   128
 71
     7
 72
     8
 73
     6
  0
VERTEX
  5
5B
  8
0
 62
   123
 10
0.0
 20
0.0
 30
0.0
 70
   128
 71
     1
 72
     2
 73
     9
  0
VERTEX
  5
5C
  8
0
 62
   123
 10
0.0
 20
0.0
 30
0.0
 70
   128
 71
    11
 72
    10
 73
     9
  0
VERTEX
  5
5D
  8
0
 62
   123
 10
0.0
 20
0.0
 30
0.0
 70
   128
 71
     9
 72
     2
 73
    11
  0
VERTEX
  5
5E
  8
0
 62
   123
 10
0.0
 20
0.0
 30
0.0
 70
   128
 71
    13
 72
    10
 73
    12
  0
VERTEX
  5
5F
  8
0
 62
   123
 10
0.0
 20
0.0
 30
0.0
 70
   128
 71
    11
 72
    12
 73
    10
  0
VERTEX
  5
60
  8
0
 62
   123
 10
0.0
 20
0.0
 30
0.0
 70
   128
 71
    14
 72
    13
 73
    12
  0
VERTEX
  5
61
  8
0
 62
   123
 10
0.0
 20
0.0
 30
0.0
 70
   128
 71
     6
 72
     8
 73
    15
  0
VERTEX
  5
62
  8
0
 62
   123
 10
0.0
 20
0.0
 30
0.0
 70
   128
 71
    18
 72
    17
 73
    16
  0
VERTEX
  5
63
  8
0
 62
   123
 10
0.0
 20
0.0
 30
0.0
 70
   128
 71
    21
 72
    20
 73
    19
  0
VERTEX
  5
64
  8
0
 62
   123
 10
0.0
 20
0.0
 30
0.0
 70
   128
 71
    23
 72
    22
 73
    14
  0
VERTEX
  5
65
  8
0
 62
   123
 10
0.0
 20
0.0
 30
0.0
 70
   128
 71
    22
 72
    23
 73
    24
  0
VERTEX
  5
66
  8
0
 62
   123
 10
0.0
 20
0.0
 30
0.0
 70
   128
 71
    14
 72
    22
 73
    13
  0
VERTEX
  5
67
  8
0
 62
   123
 10
0.0
 20
0.0
 30
0.0
 70
   128
 71
    16
 72
    17
 73
    24
  0
VERTEX
  5
68
  8
0
 62
   123
 10
0.0
 20
0.0
 30
0.0
 70
   128
 71
    23
 72
    16
 73
    24
  0
VERTEX
  5
69
  8
0
 62
   123
 10
0.0
 20
0.0
 30
0.0
 70
   128
 71
    19
 72
    20
 73
    18
  0
VERTEX
  5
6A
  8
0
 62
   123
 10
0.0
 20
0.0
 30
0.0
 70
   128
 71
    18
 72
    20
 73
    17
  0
VERTEX
  5
6B
  8
0
 62
   123
 10
0.0
 20
0.0
 30
0.0
 70
   128
 71
     8
 72
    21
 73
    15
  0
VERTEX
  5
6C
  8
0
 62
   123
 10
0.0
 20
0.0
 30
0.0
 70
   128
 71
    15
 72
    21
 73
    19
  0
SEQEND
  5
6D
  8
0
 62
   123
  0
ENDBLK
  5
71
  8
0
  0
BLOCK
  8
0
  2
____MSBR_1_
 70
     0
 10
0.0
 20
0.0
 30
0.0
  3
____MSBR_1_
  1

  0
POLYLINE
  5
73
  8
0
 62
   123
 66
     1
 10
0.0
 20
0.0
 30
0.0
 70
    64
 71
    58
 72
    62
  0
VERTEX
  5
74
  8
0
 10
82.5
 20
361.6000061035156
 30
7.199999809265137
 70
   192
  0
VERTEX
  5
75
  8
0
 10
82.5
 20
365.0243835449219
 30
8.780488014221191
 70
   192
  0
VERTEX
  5
76
  8
0
 10
12.5
 20
361.6000061035156
 30
7.199999809265137
 70
   192
  0
VERTEX
  5
77
  8
0
 10
70.8063735961914
 20
359.9746398925781
 30
5.625319957733154
 70
   192
  0
VERTEX
  5
78
  8
0
 10
68.17427825927734
 20
359.9710083007812
 30
5.620790481567383
 70
   192
  0
VERTEX
  5
79
  8
0
 10
65.89204406738281
 20
359.211181640625
 30
4.509331703186035
 70
   192
  0
VERTEX
  5
7A
  8
0
 10
12.5
 20
359.3584899902344
 30
4.754716873168945
 70
   192
  0
VERTEX
  5
7B
  8
0
 10
12.5
 20
358.2769165039062
 30
2.215384721755981
 70
   192
  0
VERTEX
  5
7C
  8
0
 10
64.3128433227539
 20
358.365478515625
 30
2.538698434829712
 70
   192
  0
VERTEX
  5
7D
  8
0
 10
63.72499847412109
 20
358.0
 30
-0.0000000000000193
 70
   192
  0
VERTEX
  5
7E
  8
0
 10
12.5
 20
358.0
 30
-0.0000000000000193
 70
   192
  0
VERTEX
  5
7F
  8
0
 10
12.5
 20
365.0243835449219
 30
8.780488014221191
 70
   192
  0
VERTEX
  5
80
  8
0
 10
82.5
 20
368.9756164550781
 30
8.780488014221191
 70
   192
  0
VERTEX
  5
81
  8
0
 10
82.5
 20
359.3584899902344
 30
4.754716873168945
 70
   192
  0
VERTEX
  5
82
  8
0
 10
82.5
 20
372.3999938964844
 30
7.199999809265137
 70
   192
  0
VERTEX
  5
83
  8
0
 10
12.5
 20
368.9756164550781
 30
8.780488014221191
 70
   192
  0
VERTEX
  5
84
  8
0
 10
74.68350219726562
 20
358.36767578125
 30
2.546159505844116
 70
   192
  0
VERTEX
  5
85
  8
0
 10
75.2750015258789
 20
358.0
 30
-0.0000000000000193
 70
   192
  0
VERTEX
  5
86
  8
0
 10
82.5
 20
358.2769165039062
 30
2.215384721755981
 70
   192
  0
VERTEX
  5
87
  8
0
 10
73.10221862792969
 20
359.2138366699219
 30
4.513914585113525
 70
   192
  0
VERTEX
  5
88
  8
0
 10
82.5
 20
358.0
 30
-0.0000000000000193
 70
   192
  0
VERTEX
  5
89
  8
0
 10
12.5
 20
372.3999938964844
 30
7.199999809265137
 70
   192
  0
VERTEX
  5
8A
  8
0
 10
82.5
 20
374.6415100097656
 30
4.754716873168945
 70
   192
  0
VERTEX
  5
8B
  8
0
 10
12.5
 20
374.6415100097656
 30
4.754716873168945
 70
   192
  0
VERTEX
  5
8C
  8
0
 10
82.5
 20
375.7230834960938
 30
2.215384721755981
 70
   192
  0
VERTEX
  5
8D
  8
0
 10
12.5
 20
375.7230834960938
 30
2.215384721755981
 70
   192
  0
VERTEX
  5
8E
  8
0
 10
82.5
 20
376.0
 30
-0.0000000000000204
 70
   192
  0
VERTEX
  5
8F
  8
0
 10
12.5
 20
376.0
 30
-0.0000000000000204
 70
   192
  0
VERTEX
  5
90
  8
0
 10
12.5
 20
358.2769165039062
 30
-2.215384721755981
 70
   192
  0
VERTEX
  5
91
  8
0
 10
20.49996376037598
 20
365.0
 30
-8.5
 70
   192
  0
VERTEX
  5
92
  8
0
 10
12.5
 20
365.0243835449219
 30
-8.780488014221191
 70
   192
  0
VERTEX
  5
93
  8
0
 10
19.08917427062988
 20
365.5823974609375
 30
-8.5
 70
   192
  0
VERTEX
  5
94
  8
0
 10
68.1936264038086
 20
359.9746398925781
 30
-5.625319957733154
 70
   192
  0
VERTEX
  5
95
  8
0
 10
12.5
 20
361.6000061035156
 30
-7.199999809265137
 70
   192
  0
VERTEX
  5
96
  8
0
 10
82.5
 20
361.6000061035156
 30
-7.199999809265137
 70
   192
  0
VERTEX
  5
97
  8
0
 10
82.5
 20
372.3999938964844
 30
-7.199999809265137
 70
   192
  0
VERTEX
  5
98
  8
0
 10
12.5
 20
374.6415100097656
 30
-4.754716873168945
 70
   192
  0
VERTEX
  5
99
  8
0
 10
82.5
 20
374.6415100097656
 30
-4.754716873168945
 70
   192
  0
VERTEX
  5
9A
  8
0
 10
20.5
 20
369.0
 30
-8.5
 70
   192
  0
VERTEX
  5
9B
  8
0
 10
82.5
 20
368.9756164550781
 30
-8.780488014221191
 70
   192
  0
VERTEX
  5
9C
  8
0
 10
21.91192436218262
 20
368.41650390625
 30
-8.5
 70
   192
  0
VERTEX
  5
9D
  8
0
 10
82.5
 20
375.7230834960938
 30
-2.215384721755981
 70
   192
  0
VERTEX
  5
9E
  8
0
 10
12.5
 20
375.7230834960938
 30
-2.215384721755981
 70
   192
  0
VERTEX
  5
9F
  8
0
 10
12.5
 20
372.3999938964844
 30
-7.199999809265137
 70
   192
  0
VERTEX
  5
A0
  8
0
 10
12.5
 20
368.9756164550781
 30
-8.780488014221191
 70
   192
  0
VERTEX
  5
A1
  8
0
 10
19.08807563781738
 20
368.41650390625
 30
-8.5
 70
   192
  0
VERTEX
  5
A2
  8
0
 10
82.5
 20
365.0243835449219
 30
-8.780488014221191
 70
   192
  0
VERTEX
  5
A3
  8
0
 10
22.5
 20
367.0
 30
-8.5
 70
   192
  0
VERTEX
  5
A4
  8
0
 10
73.10795593261719
 20
359.211181640625
 30
-4.509331703186035
 70
   192
  0
VERTEX
  5
A5
  8
0
 10
70.82572174072266
 20
359.9710083007812
 30
-5.620790481567383
 70
   192
  0
VERTEX
  5
A6
  8
0
 10
82.5
 20
359.3584899902344
 30
-4.754716873168945
 70
   192
  0
VERTEX
  5
A7
  8
0
 10
64.31649780273438
 20
358.36767578125
 30
-2.546159267425537
 70
   192
  0
VERTEX
  5
A8
  8
0
 10
12.5
 20
359.3584899902344
 30
-4.754716873168945
 70
   192
  0
VERTEX
  5
A9
  8
0
 10
65.89778137207031
 20
359.2138366699219
 30
-4.513914585113525
 70
   192
  0
VERTEX
  5
AA
  8
0
 10
82.5
 20
358.2769165039062
 30
-2.215384721755981
 70
   192
  0
VERTEX
  5
AB
  8
0
 10
74.6871566772461
 20
358.365478515625
 30
-2.538698434829712
 70
   192
  0
VERTEX
  5
AC
  8
0
 10
18.5
 20
367.0
 30
-8.5
 70
   192
  0
VERTEX
  5
AD
  8
0
 10
21.91534042358398
 20
365.5869140625
 30
-8.5
 70
   192
  0
VERTEX
  5
AE
  8
0
 62
   123
 10
0.0
 20
0.0
 30
0.0
 70
   128
 71
     3
 72
     2
 73
     1
  0
VERTEX
  5
AF
  8
0
 62
   123
 10
0.0
 20
0.0
 30
0.0
 70
   128
 71
     5
 72
     3
 73
     4
  0
VERTEX
  5
B0
  8
0
 62
   123
 10
0.0
 20
0.0
 30
0.0
 70
   128
 71
     3
 72
     1
 73
     4
  0
VERTEX
  5
B1
  8
0
 62
   123
 10
0.0
 20
0.0
 30
0.0
 70
   128
 71
     7
 72
     5
 73
     6
  0
VERTEX
  5
B2
  8
0
 62
   123
 10
0.0
 20
0.0
 30
0.0
 70
   128
 71
     5
 72
     7
 73
     3
  0
VERTEX
  5
B3
  8
0
 62
   123
 10
0.0
 20
0.0
 30
0.0
 70
   128
 71
     9
 72
     8
 73
     7
  0
VERTEX
  5
B4
  8
0
 62
   123
 10
0.0
 20
0.0
 30
0.0
 70
   128
 71
     7
 72
     6
 73
     9
  0
VERTEX
  5
B5
  8
0
 62
   123
 10
0.0
 20
0.0
 30
0.0
 70
   128
 71
     9
 72
    10
 73
     8
  0
VERTEX
  5
B6
  8
0
 62
   123
 10
0.0
 20
0.0
 30
0.0
 70
   128
 71
    10
 72
    11
 73
     8
  0
VERTEX
  5
B7
  8
0
 62
   123
 10
0.0
 20
0.0
 30
0.0
 70
   128
 71
     3
 72
    12
 73
     2
  0
VERTEX
  5
B8
  8
0
 62
   123
 10
0.0
 20
0.0
 30
0.0
 70
   128
 71
     2
 72
    12
 73
    13
  0
VERTEX
  5
B9
  8
0
 62
   123
 10
0.0
 20
0.0
 30
0.0
 70
   128
 71
     1
 72
    14
 73
     4
  0
VERTEX
  5
BA
  8
0
 62
   123
 10
0.0
 20
0.0
 30
0.0
 70
   128
 71
    16
 72
    15
 73
    13
  0
VERTEX
  5
BB
  8
0
 62
   123
 10
0.0
 20
0.0
 30
0.0
 70
   128
 71
    12
 72
    16
 73
    13
  0
VERTEX
  5
BC
  8
0
 62
   123
 10
0.0
 20
0.0
 30
0.0
 70
   128
 71
    19
 72
    18
 73
    17
  0
VERTEX
  5
BD
  8
0
 62
   123
 10
0.0
 20
0.0
 30
0.0
 70
   128
 71
    20
 72
    14
 73
    17
  0
VERTEX
  5
BE
  8
0
 62
   123
 10
0.0
 20
0.0
 30
0.0
 70
   128
 71
    18
 72
    19
 73
    21
  0
VERTEX
  5
BF
  8
0
 62
   123
 10
0.0
 20
0.0
 30
0.0
 70
   128
 71
    19
 72
    17
 73
    14
  0
VERTEX
  5
C0
  8
0
 62
   123
 10
0.0
 20
0.0
 30
0.0
 70
   128
 71
     4
 72
    14
 73
    20
  0
VERTEX
  5
C1
  8
0
 62
   123
 10
0.0
 20
0.0
 30
0.0
 70
   128
 71
    22
 72
    15
 73
    16
  0
VERTEX
  5
C2
  8
0
 62
   123
 10
0.0
 20
0.0
 30
0.0
 70
   128
 71
    22
 72
    24
 73
    23
  0
VERTEX
  5
C3
  8
0
 62
   123
 10
0.0
 20
0.0
 30
0.0
 70
   128
 71
    23
 72
    15
 73
    22
  0
VERTEX
  5
C4
  8
0
 62
   123
 10
0.0
 20
0.0
 30
0.0
 70
   128
 71
    26
 72
    25
 73
    24
  0
VERTEX
  5
C5
  8
0
 62
   123
 10
0.0
 20
0.0
 30
0.0
 70
   128
 71
    23
 72
    24
 73
    25
  0
VERTEX
  5
C6
  8
0
 62
   123
 10
0.0
 20
0.0
 30
0.0
 70
   128
 71
    26
 72
    27
 73
    25
  0
VERTEX
  5
C7
  8
0
 62
   123
 10
0.0
 20
0.0
 30
0.0
 70
   128
 71
    28
 72
    27
 73
    26
  0
VERTEX
  5
C8
  8
0
 62
   123
 10
0.0
 20
0.0
 30
0.0
 70
   128
 71
    11
 72
    10
 73
    29
  0
VERTEX
  5
C9
  8
0
 62
   123
 10
0.0
 20
0.0
 30
0.0
 70
   128
 71
    32
 72
    31
 73
    30
  0
VERTEX
  5
CA
  8
0
 62
   123
 10
0.0
 20
0.0
 30
0.0
 70
   128
 71
    35
 72
    34
 73
    33
  0
VERTEX
  5
CB
  8
0
 62
   123
 10
0.0
 20
0.0
 30
0.0
 70
   128
 71
    38
 72
    37
 73
    36
  0
VERTEX
  5
CC
  8
0
 62
   123
 10
0.0
 20
0.0
 30
0.0
 70
   128
 71
    41
 72
    40
 73
    39
  0
VERTEX
  5
CD
  8
0
 62
   123
 10
0.0
 20
0.0
 30
0.0
 70
   128
 71
    43
 72
    38
 73
    42
  0
VERTEX
  5
CE
  8
0
 62
   123
 10
0.0
 20
0.0
 30
0.0
 70
   128
 71
    38
 72
    43
 73
    37
  0
VERTEX
  5
CF
  8
0
 62
   123
 10
0.0
 20
0.0
 30
0.0
 70
   128
 71
    42
 72
    27
 73
    28
  0
VERTEX
  5
D0
  8
0
 62
   123
 10
0.0
 20
0.0
 30
0.0
 70
   128
 71
    28
 72
    43
 73
    42
  0
VERTEX
  5
D1
  8
0
 62
   123
 10
0.0
 20
0.0
 30
0.0
 70
   128
 71
    36
 72
    37
 73
    44
  0
VERTEX
  5
D2
  8
0
 62
   123
 10
0.0
 20
0.0
 30
0.0
 70
   128
 71
    39
 72
    40
 73
    36
  0
VERTEX
  5
D3
  8
0
 62
   123
 10
0.0
 20
0.0
 30
0.0
 70
   128
 71
    46
 72
    39
 73
    45
  0
VERTEX
  5
D4
  8
0
 62
   123
 10
0.0
 20
0.0
 30
0.0
 70
   128
 71
    40
 72
    48
 73
    47
  0
VERTEX
  5
D5
  8
0
 62
   123
 10
0.0
 20
0.0
 30
0.0
 70
   128
 71
    51
 72
    50
 73
    49
  0
VERTEX
  5
D6
  8
0
 62
   123
 10
0.0
 20
0.0
 30
0.0
 70
   128
 71
    31
 72
    34
 73
    30
  0
VERTEX
  5
D7
  8
0
 62
   123
 10
0.0
 20
0.0
 30
0.0
 70
   128
 71
    54
 72
    53
 73
    52
  0
VERTEX
  5
D8
  8
0
 62
   123
 10
0.0
 20
0.0
 30
0.0
 70
   128
 71
    56
 72
    18
 73
    55
  0
VERTEX
  5
D9
  8
0
 62
   123
 10
0.0
 20
0.0
 30
0.0
 70
   128
 71
    21
 72
    55
 73
    18
  0
VERTEX
  5
DA
  8
0
 62
   123
 10
0.0
 20
0.0
 30
0.0
 70
   128
 71
    52
 72
    29
 73
    10
  0
VERTEX
  5
DB
  8
0
 62
   123
 10
0.0
 20
0.0
 30
0.0
 70
   128
 71
    56
 72
    51
 73
    49
  0
VERTEX
  5
DC
  8
0
 62
   123
 10
0.0
 20
0.0
 30
0.0
 70
   128
 71
    56
 72
    55
 73
    51
  0
VERTEX
  5
DD
  8
0
 62
   123
 10
0.0
 20
0.0
 30
0.0
 70
   128
 71
    53
 72
    54
 73
    33
  0
VERTEX
  5
DE
  8
0
 62
   123
 10
0.0
 20
0.0
 30
0.0
 70
   128
 71
    33
 72
    50
 73
    35
  0
VERTEX
  5
DF
  8
0
 62
   123
 10
0.0
 20
0.0
 30
0.0
 70
   128
 71
    50
 72
    51
 73
    35
  0
VERTEX
  5
E0
  8
0
 62
   123
 10
0.0
 20
0.0
 30
0.0
 70
   128
 71
    33
 72
    34
 73
    53
  0
VERTEX
  5
E1
  8
0
 62
   123
 10
0.0
 20
0.0
 30
0.0
 70
   128
 71
    52
 72
    53
 73
    29
  0
VERTEX
  5
E2
  8
0
 62
   123
 10
0.0
 20
0.0
 30
0.0
 70
   128
 71
    32
 72
    57
 73
    31
  0
VERTEX
  5
E3
  8
0
 62
   123
 10
0.0
 20
0.0
 30
0.0
 70
   128
 71
    57
 72
    46
 73
    45
  0
VERTEX
  5
E4
  8
0
 62
   123
 10
0.0
 20
0.0
 30
0.0
 70
   128
 71
    41
 72
    48
 73
    40
  0
VERTEX
  5
E5
  8
0
 62
   123
 10
0.0
 20
0.0
 30
0.0
 70
   128
 71
    39
 72
    44
 73
    45
  0
VERTEX
  5
E6
  8
0
 62
   123
 10
0.0
 20
0.0
 30
0.0
 70
   128
 71
    44
 72
    39
 73
    36
  0
VERTEX
  5
E7
  8
0
 62
   123
 10
0.0
 20
0.0
 30
0.0
 70
   128
 71
    57
 72
    45
 73
    31
  0
VERTEX
  5
E8
  8
0
 62
   123
 10
0.0
 20
0.0
 30
0.0
 70
   128
 71
    58
 72
    30
 73
    47
  0
VERTEX
  5
E9
  8
0
 62
   123
 10
0.0
 20
0.0
 30
0.0
 70
   128
 71
    30
 72
    35
 73
    47
  0
VERTEX
  5
EA
  8
0
 62
   123
 10
0.0
 20
0.0
 30
0.0
 70
   128
 71
    35
 72
    30
 73
    34
  0
VERTEX
  5
EB
  8
0
 62
   123
 10
0.0
 20
0.0
 30
0.0
 70
   128
 71
    58
 72
    47
 73
    48
  0
SEQEND
  5
EC
  8
0
 62
   123
  0
ENDBLK
  5
EF
  8
0
  0
BLOCK
  8
0
  2
____MSBR_2_
 70
     0
 10
0.0
 20
0.0
 30
0.0
  3
____MSBR_2_
  1

  0
POLYLINE
  5
F1
  8
0
 62
   123
 66
     1
 10
0.0
 20
0.0
 30
0.0
 70
    64
 71
    35
 72
    43
  0
VERTEX
  5
F2
  8
0
 10
20.5
 20
368.4433898925781
 30
-6.5
 70
   192
  0
VERTEX
  5
F3
  8
0
 10
20.5
 20
365.5566101074219
 30
-6.5
 70
   192
  0
VERTEX
  5
F4
  8
0
 10
19.25
 20
367.7216796875
 30
-6.5
 70
   192
  0
VERTEX
  5
F5
  8
0
 10
21.75
 20
367.7216796875
 30
-6.5
 70
   192
  0
VERTEX
  5
F6
  8
0
 10
21.75
 20
366.2783203125
 30
-6.5
 70
   192
  0
VERTEX
  5
F7
  8
0
 10
19.25
 20
366.2783203125
 30
-6.5
 70
   192
  0
VERTEX
  5
F8
  8
0
 10
20.5
 20
368.4433898925781
 30
-8.5
 70
   192
  0
VERTEX
  5
F9
  8
0
 10
21.75
 20
367.7216796875
 30
-8.5
 70
   192
  0
VERTEX
  5
FA
  8
0
 10
21.75
 20
366.2783203125
 30
-8.5
 70
   192
  0
VERTEX
  5
FB
  8
0
 10
20.5
 20
365.5566101074219
 30
-8.5
 70
   192
  0
VERTEX
  5
FC
  8
0
 10
19.25
 20
366.2783203125
 30
-8.5
 70
   192
  0
VERTEX
  5
FD
  8
0
 10
19.25
 20
367.7216796875
 30
-8.5
 70
   192
  0
VERTEX
  5
FE
  8
0
 10
19.5802173614502
 20
368.7759399414062
 30
-8.5
 70
   192
  0
VERTEX
  5
FF
  8
0
 10
18.79127883911133
 20
365.9606323242188
 30
-8.5
 70
   192
  0
VERTEX
  5
100
  8
0
 10
19.13475799560547
 20
365.5384521484375
 30
-8.5
 70
   192
  0
VERTEX
  5
101
  8
0
 10
20.0927906036377
 20
368.9580993652344
 30
-8.5
 70
   192
  0
VERTEX
  5
102
  8
0
 10
19.13475799560547
 20
368.4615478515625
 30
-8.5
 70
   192
  0
VERTEX
  5
103
  8
0
 10
18.79127883911133
 20
368.0393676757812
 30
-8.5
 70
   192
  0
VERTEX
  5
104
  8
0
 10
18.5
 20
367.0
 30
-8.5
 70
   192
  0
VERTEX
  5
105
  8
0
 10
20.63698196411133
 20
368.9953002929688
 30
-8.5
 70
   192
  0
VERTEX
  5
106
  8
0
 10
22.48129653930664
 20
367.2728576660156
 30
-8.5
 70
   192
  0
VERTEX
  5
107
  8
0
 10
18.57415008544922
 20
366.4604797363281
 30
-8.5
 70
   192
  0
VERTEX
  5
108
  8
0
 10
21.6538143157959
 20
365.3663940429688
 30
-8.5
 70
   192
  0
VERTEX
  5
109
  8
0
 10
22.05111503601074
 20
365.7374572753906
 30
-8.5
 70
   192
  0
VERTEX
  5
10A
  8
0
 10
20.0927906036377
 20
365.0419006347656
 30
-8.5
 70
   192
  0
VERTEX
  5
10B
  8
0
 10
19.5802173614502
 20
365.2240600585938
 30
-8.5
 70
   192
  0
VERTEX
  5
10C
  8
0
 10
20.63698196411133
 20
365.0046997070312
 30
-8.5
 70
   192
  0
VERTEX
  5
10D
  8
0
 10
21.16937637329102
 20
365.1153564453125
 30
-8.5
 70
   192
  0
VERTEX
  5
10E
  8
0
 10
22.48129653930664
 20
366.7271423339844
 30
-8.5
 70
   192
  0
VERTEX
  5
10F
  8
0
 10
22.05111503601074
 20
368.2625427246094
 30
-8.5
 70
   192
  0
VERTEX
  5
110
  8
0
 10
22.33464813232422
 20
367.7962951660156
 30
-8.5
 70
   192
  0
VERTEX
  5
111
  8
0
 10
21.6538143157959
 20
368.6336059570312
 30
-8.5
 70
   192
  0
VERTEX
  5
112
  8
0
 10
18.57415008544922
 20
367.5395202636719
 30
-8.5
 70
   192
  0
VERTEX
  5
113
  8
0
 10
21.16937637329102
 20
368.8846435546875
 30
-8.5
 70
   192
  0
VERTEX
  5
114
  8
0
 10
22.33464813232422
 20
366.2037048339844
 30
-8.5
 70
   192
  0
VERTEX
  5
115
  8
0
 62
   123
 10
0.0
 20
0.0
 30
0.0
 70
   128
 71
     3
 72
     2
 73
     1
  0
VERTEX
  5
116
  8
0
 62
   123
 10
0.0
 20
0.0
 30
0.0
 70
   128
 71
     5
 72
     4
 73
     1
  0
VERTEX
  5
117
  8
0
 62
   123
 10
0.0
 20
0.0
 30
0.0
 70
   128
 71
     1
 72
     2
 73
     5
  0
VERTEX
  5
118
  8
0
 62
   123
 10
0.0
 20
0.0
 30
0.0
 70
   128
 71
     6
 72
     2
 73
     3
  0
VERTEX
  5
119
  8
0
 62
   123
 10
0.0
 20
0.0
 30
0.0
 70
   128
 71
     4
 72
     8
 73
     7
  0
VERTEX
  5
11A
  8
0
 62
   123
 10
0.0
 20
0.0
 30
0.0
 70
   128
 71
     7
 72
     1
 73
     4
  0
VERTEX
  5
11B
  8
0
 62
   123
 10
0.0
 20
0.0
 30
0.0
 70
   128
 71
     2
 72
    10
 73
     9
  0
VERTEX
  5
11C
  8
0
 62
   123
 10
0.0
 20
0.0
 30
0.0
 70
   128
 71
     9
 72
     5
 73
     2
  0
VERTEX
  5
11D
  8
0
 62
   123
 10
0.0
 20
0.0
 30
0.0
 70
   128
 71
     6
 72
    11
 73
    10
  0
VERTEX
  5
11E
  8
0
 62
   123
 10
0.0
 20
0.0
 30
0.0
 70
   128
 71
    10
 72
     2
 73
     6
  0
VERTEX
  5
11F
  8
0
 62
   123
 10
0.0
 20
0.0
 30
0.0
 70
   128
 71
     3
 72
    12
 73
    11
  0
VERTEX
  5
120
  8
0
 62
   123
 10
0.0
 20
0.0
 30
0.0
 70
   128
 71
    11
 72
     6
 73
     3
  0
VERTEX
  5
121
  8
0
 62
   123
 10
0.0
 20
0.0
 30
0.0
 70
   128
 71
     1
 72
     7
 73
    12
  0
VERTEX
  5
122
  8
0
 62
   123
 10
0.0
 20
0.0
 30
0.0
 70
   128
 71
    12
 72
     3
 73
     1
  0
VERTEX
  5
123
  8
0
 62
   123
 10
0.0
 20
0.0
 30
0.0
 70
   128
 71
    12
 72
     7
 73
    13
  0
VERTEX
  5
124
  8
0
 62
   123
 10
0.0
 20
0.0
 30
0.0
 70
   128
 71
    15
 72
    11
 73
    14
  0
VERTEX
  5
125
  8
0
 62
   123
 10
0.0
 20
0.0
 30
0.0
 70
   128
 71
    16
 72
    13
 73
     7
  0
VERTEX
  5
126
  8
0
 62
   123
 10
0.0
 20
0.0
 30
0.0
 70
   128
 71
    12
 72
    13
 73
    17
  0
VERTEX
  5
127
  8
0
 62
   123
 10
0.0
 20
0.0
 30
0.0
 70
   128
 71
    17
 72
    18
 73
    12
  0
VERTEX
  5
128
  8
0
 62
   123
 10
0.0
 20
0.0
 30
0.0
 70
   128
 71
    11
 72
    12
 73
    19
  0
VERTEX
  5
129
  8
0
 62
   123
 10
0.0
 20
0.0
 30
0.0
 70
   128
 71
    16
 72
     7
 73
    20
  0
VERTEX
  5
12A
  8
0
 62
   123
 10
0.0
 20
0.0
 30
0.0
 70
   128
 71
    21
 72
     8
 73
     9
  0
VERTEX
  5
12B
  8
0
 62
   123
 10
0.0
 20
0.0
 30
0.0
 70
   128
 71
    11
 72
    22
 73
    14
  0
VERTEX
  5
12C
  8
0
 62
   123
 10
0.0
 20
0.0
 30
0.0
 70
   128
 71
    24
 72
     9
 73
    23
  0
VERTEX
  5
12D
  8
0
 62
   123
 10
0.0
 20
0.0
 30
0.0
 70
   128
 71
    26
 72
    25
 73
    10
  0
VERTEX
  5
12E
  8
0
 62
   123
 10
0.0
 20
0.0
 30
0.0
 70
   128
 71
     9
 72
    10
 73
    23
  0
VERTEX
  5
12F
  8
0
 62
   123
 10
0.0
 20
0.0
 30
0.0
 70
   128
 71
    10
 72
    25
 73
    27
  0
VERTEX
  5
130
  8
0
 62
   123
 10
0.0
 20
0.0
 30
0.0
 70
   128
 71
    28
 72
    10
 73
    27
  0
VERTEX
  5
131
  8
0
 62
   123
 10
0.0
 20
0.0
 30
0.0
 70
   128
 71
    21
 72
     9
 73
    29
  0
VERTEX
  5
132
  8
0
 62
   123
 10
0.0
 20
0.0
 30
0.0
 70
   128
 71
     8
 72
    31
 73
    30
  0
VERTEX
  5
133
  8
0
 62
   123
 10
0.0
 20
0.0
 30
0.0
 70
   128
 71
    26
 72
    10
 73
    11
  0
VERTEX
  5
134
  8
0
 62
   123
 10
0.0
 20
0.0
 30
0.0
 70
   128
 71
    32
 72
     8
 73
    30
  0
VERTEX
  5
135
  8
0
 62
   123
 10
0.0
 20
0.0
 30
0.0
 70
   128
 71
    19
 72
    12
 73
    33
  0
VERTEX
  5
136
  8
0
 62
   123
 10
0.0
 20
0.0
 30
0.0
 70
   128
 71
    11
 72
    19
 73
    22
  0
VERTEX
  5
137
  8
0
 62
   123
 10
0.0
 20
0.0
 30
0.0
 70
   128
 71
     7
 72
    34
 73
    20
  0
VERTEX
  5
138
  8
0
 62
   123
 10
0.0
 20
0.0
 30
0.0
 70
   128
 71
    32
 72
    34
 73
     7
  0
VERTEX
  5
139
  8
0
 62
   123
 10
0.0
 20
0.0
 30
0.0
 70
   128
 71
    33
 72
    12
 73
    18
  0
VERTEX
  5
13A
  8
0
 62
   123
 10
0.0
 20
0.0
 30
0.0
 70
   128
 71
    11
 72
    15
 73
    26
  0
VERTEX
  5
13B
  8
0
 62
   123
 10
0.0
 20
0.0
 30
0.0
 70
   128
 71
    10
 72
    28
 73
    23
  0
VERTEX
  5
13C
  8
0
 62
   123
 10
0.0
 20
0.0
 30
0.0
 70
   128
 71
     9
 72
    35
 73
    29
  0
VERTEX
  5
13D
  8
0
 62
   123
 10
0.0
 20
0.0
 30
0.0
 70
   128
 71
    35
 72
     9
 73
    24
  0
VERTEX
  5
13E
  8
0
 62
   123
 10
0.0
 20
0.0
 30
0.0
 70
   128
 71
    32
 72
     7
 73
     8
  0
VERTEX
  5
13F
  8
0
 62
   123
 10
0.0
 20
0.0
 30
0.0
 70
   128
 71
    31
 72
     8
 73
    21
  0
SEQEND
  5
140
  8
0
 62
   123
  0
ENDBLK
  5
143
  8
0
  0
BLOCK
  8
0
  2
____MSBR_3_
 70
     0
 10
0.0
 20
0.0
 30
0.0
  3
____MSBR_3_
  1

  0
POLYLINE
  5
145
  8
0
 62
   123
 66
     1
 10
0.0
 20
0.0
 30
0.0
 70
    64
 71
    48
 72
    70
  0
VERTEX
  5
146
  8
0
 10
84.5
 20
367.0
 30
9.0
 70
   192
  0
VERTEX
  5
147
  8
0
 10
82.5
 20
367.0
 30
9.0
 70
   192
  0
VERTEX
  5
148
  8
0
 10
82.5
 20
364.0810852050781
 30
8.513513565063477
 70
   192
  0
VERTEX
  5
149
  8
0
 10
82.5
 20
361.6000061035156
 30
7.199999809265137
 70
   192
  0
VERTEX
  5
14A
  8
0
 10
84.5
 20
364.6790161132812
 30
8.693190574645996
 70
   192
  0
VERTEX
  5
14B
  8
0
 10
82.5
 20
359.7999877929688
 30
5.400000095367432
 70
   192
  0
VERTEX
  5
14C
  8
0
 10
84.5
 20
362.5176086425781
 30
7.802450656890869
 70
   192
  0
VERTEX
  5
14D
  8
0
 10
84.5
 20
360.6534729003906
 30
6.376066207885742
 70
   192
  0
VERTEX
  5
14E
  8
0
 10
82.5
 20
358.6923217773438
 30
3.461538553237915
 70
   192
  0
VERTEX
  5
14F
  8
0
 10
82.5
 20
358.1475524902344
 30
1.622950792312622
 70
   192
  0
VERTEX
  5
150
  8
0
 10
84.5
 20
359.2085571289062
 30
4.505472660064697
 70
   192
  0
VERTEX
  5
151
  8
0
 10
82.5
 20
358.0
 30
-0.0000000000000193
 70
   192
  0
VERTEX
  5
152
  8
0
 10
84.5
 20
358.3105163574219
 30
2.340915679931641
 70
   192
  0
VERTEX
  5
153
  8
0
 10
84.5
 20
358.0
 30
-0.0000000000000193
 70
   192
  0
VERTEX
  5
154
  8
0
 10
84.5
 20
369.3409118652344
 30
8.68947982788086
 70
   192
  0
VERTEX
  5
155
  8
0
 10
84.5
 20
371.5054626464844
 30
7.791441917419434
 70
   192
  0
VERTEX
  5
156
  8
0
 10
82.5
 20
369.9189147949219
 30
8.513513565063477
 70
   192
  0
VERTEX
  5
157
  8
0
 10
82.5
 20
372.3999938964844
 30
7.199999809265137
 70
   192
  0
VERTEX
  5
158
  8
0
 10
84.5
 20
373.3760681152344
 30
6.346541881561279
 70
   192
  0
VERTEX
  5
159
  8
0
 10
84.5
 20
374.8024597167969
 30
4.482393741607666
 70
   192
  0
VERTEX
  5
15A
  8
0
 10
82.5
 20
374.2000122070312
 30
5.400000095367432
 70
   192
  0
VERTEX
  5
15B
  8
0
 10
84.5
 20
375.6894836425781
 30
2.340915679931641
 70
   192
  0
VERTEX
  5
15C
  8
0
 10
82.5
 20
375.3076782226562
 30
3.461538553237915
 70
   192
  0
VERTEX
  5
15D
  8
0
 10
82.5
 20
375.8524475097656
 30
1.622950792312622
 70
   192
  0
VERTEX
  5
15E
  8
0
 10
84.5
 20
376.0
 30
-0.0000000000000204
 70
   192
  0
VERTEX
  5
15F
  8
0
 10
82.5
 20
376.0
 30
-0.0000000000000204
 70
   192
  0
VERTEX
  5
160
  8
0
 10
84.5
 20
358.6923217773438
 30
-3.461538553237915
 70
   192
  0
VERTEX
  5
161
  8
0
 10
84.5
 20
358.1475524902344
 30
-1.622950792312622
 70
   192
  0
VERTEX
  5
162
  8
0
 10
84.5
 20
359.7999877929688
 30
-5.400000095367432
 70
   192
  0
VERTEX
  5
163
  8
0
 10
84.5
 20
361.6000061035156
 30
-7.199999809265137
 70
   192
  0
VERTEX
  5
164
  8
0
 10
84.5
 20
364.0810852050781
 30
-8.513513565063477
 70
   192
  0
VERTEX
  5
165
  8
0
 10
84.5
 20
367.0
 30
-9.0
 70
   192
  0
VERTEX
  5
166
  8
0
 10
84.5
 20
375.8524475097656
 30
-1.622950792312622
 70
   192
  0
VERTEX
  5
167
  8
0
 10
84.5
 20
369.9189147949219
 30
-8.513513565063477
 70
   192
  0
VERTEX
  5
168
  8
0
 10
84.5
 20
372.3999938964844
 30
-7.199999809265137
 70
   192
  0
VERTEX
  5
169
  8
0
 10
84.5
 20
375.3076782226562
 30
-3.461538553237915
 70
   192
  0
VERTEX
  5
16A
  8
0
 10
84.5
 20
374.2000122070312
 30
-5.400000095367432
 70
   192
  0
VERTEX
  5
16B
  8
0
 10
82.5
 20
358.1475524902344
 30
-1.622950792312622
 70
   192
  0
VERTEX
  5
16C
  8
0
 10
82.5
 20
361.6000061035156
 30
-7.199999809265137
 70
   192
  0
VERTEX
  5
16D
  8
0
 10
82.5
 20
359.7999877929688
 30
-5.400000095367432
 70
   192
  0
VERTEX
  5
16E
  8
0
 10
82.5
 20
358.6923217773438
 30
-3.461538553237915
 70
   192
  0
VERTEX
  5
16F
  8
0
 10
82.5
 20
367.0
 30
-9.0
 70
   192
  0
VERTEX
  5
170
  8
0
 10
82.5
 20
369.9189147949219
 30
-8.513513565063477
 70
   192
  0
VERTEX
  5
171
  8
0
 10
82.5
 20
364.0810852050781
 30
-8.513513565063477
 70
   192
  0
VERTEX
  5
172
  8
0
 10
82.5
 20
374.2000122070312
 30
-5.400000095367432
 70
   192
  0
VERTEX
  5
173
  8
0
 10
82.5
 20
375.3076782226562
 30
-3.461538553237915
 70
   192
  0
VERTEX
  5
174
  8
0
 10
82.5
 20
372.3999938964844
 30
-7.199999809265137
 70
   192
  0
VERTEX
  5
175
  8
0
 10
82.5
 20
375.8524475097656
 30
-1.622950792312622
 70
   192
  0
VERTEX
  5
176
  8
0
 62
   123
 10
0.0
 20
0.0
 30
0.0
 70
   128
 71
     3
 72
     2
 73
     1
  0
VERTEX
  5
177
  8
0
 62
   123
 10
0.0
 20
0.0
 30
0.0
 70
   128
 71
     3
 72
     5
 73
     4
  0
VERTEX
  5
178
  8
0
 62
   123
 10
0.0
 20
0.0
 30
0.0
 70
   128
 71
     5
 72
     3
 73
     1
  0
VERTEX
  5
179
  8
0
 62
   123
 10
0.0
 20
0.0
 30
0.0
 70
   128
 71
     7
 72
     6
 73
     4
  0
VERTEX
  5
17A
  8
0
 62
   123
 10
0.0
 20
0.0
 30
0.0
 70
   128
 71
     4
 72
     5
 73
     7
  0
VERTEX
  5
17B
  8
0
 62
   123
 10
0.0
 20
0.0
 30
0.0
 70
   128
 71
     9
 72
     6
 73
     8
  0
VERTEX
  5
17C
  8
0
 62
   123
 10
0.0
 20
0.0
 30
0.0
 70
   128
 71
     7
 72
     8
 73
     6
  0
VERTEX
  5
17D
  8
0
 62
   123
 10
0.0
 20
0.0
 30
0.0
 70
   128
 71
     9
 72
    11
 73
    10
  0
VERTEX
  5
17E
  8
0
 62
   123
 10
0.0
 20
0.0
 30
0.0
 70
   128
 71
    11
 72
     9
 73
     8
  0
VERTEX
  5
17F
  8
0
 62
   123
 10
0.0
 20
0.0
 30
0.0
 70
   128
 71
    13
 72
    12
 73
    10
  0
VERTEX
  5
180
  8
0
 62
   123
 10
0.0
 20
0.0
 30
0.0
 70
   128
 71
    10
 72
    11
 73
    13
  0
VERTEX
  5
181
  8
0
 62
   123
 10
0.0
 20
0.0
 30
0.0
 70
   128
 71
    13
 72
    14
 73
    12
  0
VERTEX
  5
182
  8
0
 62
   123
 10
0.0
 20
0.0
 30
0.0
 70
   128
 71
     1
 72
     2
 73
    15
  0
VERTEX
  5
183
  8
0
 62
   123
 10
0.0
 20
0.0
 30
0.0
 70
   128
 71
    17
 72
    16
 73
    15
  0
VERTEX
  5
184
  8
0
 62
   123
 10
0.0
 20
0.0
 30
0.0
 70
   128
 71
    15
 72
     2
 73
    17
  0
VERTEX
  5
185
  8
0
 62
   123
 10
0.0
 20
0.0
 30
0.0
 70
   128
 71
    19
 72
    16
 73
    18
  0
VERTEX
  5
186
  8
0
 62
   123
 10
0.0
 20
0.0
 30
0.0
 70
   128
 71
    17
 72
    18
 73
    16
  0
VERTEX
  5
187
  8
0
 62
   123
 10
0.0
 20
0.0
 30
0.0
 70
   128
 71
    19
 72
    21
 73
    20
  0
VERTEX
  5
188
  8
0
 62
   123
 10
0.0
 20
0.0
 30
0.0
 70
   128
 71
    21
 72
    19
 73
    18
  0
VERTEX
  5
189
  8
0
 62
   123
 10
0.0
 20
0.0
 30
0.0
 70
   128
 71
    23
 72
    22
 73
    20
  0
VERTEX
  5
18A
  8
0
 62
   123
 10
0.0
 20
0.0
 30
0.0
 70
   128
 71
    20
 72
    21
 73
    23
  0
VERTEX
  5
18B
  8
0
 62
   123
 10
0.0
 20
0.0
 30
0.0
 70
   128
 71
    25
 72
    22
 73
    24
  0
VERTEX
  5
18C
  8
0
 62
   123
 10
0.0
 20
0.0
 30
0.0
 70
   128
 71
    23
 72
    24
 73
    22
  0
VERTEX
  5
18D
  8
0
 62
   123
 10
0.0
 20
0.0
 30
0.0
 70
   128
 71
    26
 72
    25
 73
    24
  0
VERTEX
  5
18E
  8
0
 62
   123
 10
0.0
 20
0.0
 30
0.0
 70
   128
 71
    28
 72
    15
 73
    27
  0
VERTEX
  5
18F
  8
0
 62
   123
 10
0.0
 20
0.0
 30
0.0
 70
   128
 71
    14
 72
    13
 73
     5
  0
VERTEX
  5
190
  8
0
 62
   123
 10
0.0
 20
0.0
 30
0.0
 70
   128
 71
     5
 72
    13
 73
     8
  0
VERTEX
  5
191
  8
0
 62
   123
 10
0.0
 20
0.0
 30
0.0
 70
   128
 71
    15
 72
    14
 73
     1
  0
VERTEX
  5
192
  8
0
 62
   123
 10
0.0
 20
0.0
 30
0.0
 70
   128
 71
     7
 72
     5
 73
     8
  0
VERTEX
  5
193
  8
0
 62
   123
 10
0.0
 20
0.0
 30
0.0
 70
   128
 71
    11
 72
     8
 73
    13
  0
VERTEX
  5
194
  8
0
 62
   123
 10
0.0
 20
0.0
 30
0.0
 70
   128
 71
     1
 72
    14
 73
     5
  0
VERTEX
  5
195
  8
0
 62
   123
 10
0.0
 20
0.0
 30
0.0
 70
   128
 71
    27
 72
    15
 73
    16
  0
VERTEX
  5
196
  8
0
 62
   123
 10
0.0
 20
0.0
 30
0.0
 70
   128
 71
    28
 72
    14
 73
    15
  0
VERTEX
  5
197
  8
0
 62
   123
 10
0.0
 20
0.0
 30
0.0
 70
   128
 71
    29
 72
    27
 73
    19
  0
VERTEX
  5
198
  8
0
 62
   123
 10
0.0
 20
0.0
 30
0.0
 70
   128
 71
    16
 72
    19
 73
    27
  0
VERTEX
  5
199
  8
0
 62
   123
 10
0.0
 20
0.0
 30
0.0
 70
   128
 71
    19
 72
    30
 73
    29
  0
VERTEX
  5
19A
  8
0
 62
   123
 10
0.0
 20
0.0
 30
0.0
 70
   128
 71
    30
 72
    20
 73
    31
  0
VERTEX
  5
19B
  8
0
 62
   123
 10
0.0
 20
0.0
 30
0.0
 70
   128
 71
    20
 72
    30
 73
    19
  0
VERTEX
  5
19C
  8
0
 62
   123
 10
0.0
 20
0.0
 30
0.0
 70
   128
 71
    20
 72
    22
 73
    31
  0
VERTEX
  5
19D
  8
0
 62
   123
 10
0.0
 20
0.0
 30
0.0
 70
   128
 71
    32
 72
    22
 73
    25
  0
VERTEX
  5
19E
  8
0
 62
   123
 10
0.0
 20
0.0
 30
0.0
 70
   128
 71
    22
 72
    32
 73
    31
  0
VERTEX
  5
19F
  8
0
 62
   123
 10
0.0
 20
0.0
 30
0.0
 70
   128
 71
    35
 72
    34
 73
    33
  0
VERTEX
  5
1A0
  8
0
 62
   123
 10
0.0
 20
0.0
 30
0.0
 70
   128
 71
    34
 72
    32
 73
    25
  0
VERTEX
  5
1A1
  8
0
 62
   123
 10
0.0
 20
0.0
 30
0.0
 70
   128
 71
    33
 72
    36
 73
    35
  0
VERTEX
  5
1A2
  8
0
 62
   123
 10
0.0
 20
0.0
 30
0.0
 70
   128
 71
    36
 72
    37
 73
    35
  0
VERTEX
  5
1A3
  8
0
 62
   123
 10
0.0
 20
0.0
 30
0.0
 70
   128
 71
    34
 72
    25
 73
    33
  0
VERTEX
  5
1A4
  8
0
 62
   123
 10
0.0
 20
0.0
 30
0.0
 70
   128
 71
    12
 72
    14
 73
    38
  0
VERTEX
  5
1A5
  8
0
 62
   123
 10
0.0
 20
0.0
 30
0.0
 70
   128
 71
    40
 72
    29
 73
    39
  0
VERTEX
  5
1A6
  8
0
 62
   123
 10
0.0
 20
0.0
 30
0.0
 70
   128
 71
    28
 72
    27
 73
    41
  0
VERTEX
  5
1A7
  8
0
 62
   123
 10
0.0
 20
0.0
 30
0.0
 70
   128
 71
    43
 72
    42
 73
    32
  0
VERTEX
  5
1A8
  8
0
 62
   123
 10
0.0
 20
0.0
 30
0.0
 70
   128
 71
    31
 72
    44
 73
    30
  0
VERTEX
  5
1A9
  8
0
 62
   123
 10
0.0
 20
0.0
 30
0.0
 70
   128
 71
    37
 72
    46
 73
    45
  0
VERTEX
  5
1AA
  8
0
 62
   123
 10
0.0
 20
0.0
 30
0.0
 70
   128
 71
    34
 72
    35
 73
    47
  0
VERTEX
  5
1AB
  8
0
 62
   123
 10
0.0
 20
0.0
 30
0.0
 70
   128
 71
    48
 72
    46
 73
    36
  0
VERTEX
  5
1AC
  8
0
 62
   123
 10
0.0
 20
0.0
 30
0.0
 70
   128
 71
    37
 72
    36
 73
    46
  0
VERTEX
  5
1AD
  8
0
 62
   123
 10
0.0
 20
0.0
 30
0.0
 70
   128
 71
    48
 72
    33
 73
    26
  0
VERTEX
  5
1AE
  8
0
 62
   123
 10
0.0
 20
0.0
 30
0.0
 70
   128
 71
    33
 72
    48
 73
    36
  0
VERTEX
  5
1AF
  8
0
 62
   123
 10
0.0
 20
0.0
 30
0.0
 70
   128
 71
    26
 72
    33
 73
    25
  0
VERTEX
  5
1B0
  8
0
 62
   123
 10
0.0
 20
0.0
 30
0.0
 70
   128
 71
    35
 72
    45
 73
    47
  0
VERTEX
  5
1B1
  8
0
 62
   123
 10
0.0
 20
0.0
 30
0.0
 70
   128
 71
    35
 72
    37
 73
    45
  0
VERTEX
  5
1B2
  8
0
 62
   123
 10
0.0
 20
0.0
 30
0.0
 70
   128
 71
    34
 72
    43
 73
    32
  0
VERTEX
  5
1B3
  8
0
 62
   123
 10
0.0
 20
0.0
 30
0.0
 70
   128
 71
    34
 72
    47
 73
    43
  0
VERTEX
  5
1B4
  8
0
 62
   123
 10
0.0
 20
0.0
 30
0.0
 70
   128
 71
    42
 72
    44
 73
    31
  0
VERTEX
  5
1B5
  8
0
 62
   123
 10
0.0
 20
0.0
 30
0.0
 70
   128
 71
    32
 72
    42
 73
    31
  0
VERTEX
  5
1B6
  8
0
 62
   123
 10
0.0
 20
0.0
 30
0.0
 70
   128
 71
    39
 72
    29
 73
    30
  0
VERTEX
  5
1B7
  8
0
 62
   123
 10
0.0
 20
0.0
 30
0.0
 70
   128
 71
    44
 72
    39
 73
    30
  0
VERTEX
  5
1B8
  8
0
 62
   123
 10
0.0
 20
0.0
 30
0.0
 70
   128
 71
    41
 72
    27
 73
    40
  0
VERTEX
  5
1B9
  8
0
 62
   123
 10
0.0
 20
0.0
 30
0.0
 70
   128
 71
    40
 72
    27
 73
    29
  0
VERTEX
  5
1BA
  8
0
 62
   123
 10
0.0
 20
0.0
 30
0.0
 70
   128
 71
    14
 72
    28
 73
    38
  0
VERTEX
  5
1BB
  8
0
 62
   123
 10
0.0
 20
0.0
 30
0.0
 70
   128
 71
    38
 72
    28
 73
    41
  0
SEQEND
  5
1BC
  8
0
 62
   123
  0
ENDBLK
  5
1BF
  8
0
  0
BLOCK
  8
0
  2
____MSBR_4_
 70
     0
 10
0.0
 20
0.0
 30
0.0
  3
____MSBR_4_
  1

  0
POLYLINE
  5
1C1
  8
0
 62
   123
 66
     1
 10
0.0
 20
0.0
 30
0.0
 70
    64
 71
   292
 72
   590
  0
VERTEX
  5
1C2
  8
0
 10
-2.0
 20
-199.4140625
 30
-15.51376724243164
 70
   192
  0
VERTEX
  5
1C3
  8
0
 10
0.5
 20
-196.0461578369141
 30
-11.16922855377197
 70
   192
  0
VERTEX
  5
1C4
  8
0
 10
0.5
 20
-199.0689697265625
 30
-15.17241096496582
 70
   192
  0
VERTEX
  5
1C5
  8
0
 10
-2.0
 20
-193.0
 30
0.0000023966640583
 70
   192
  0
VERTEX
  5
1C6
  8
0
 10
-2.0
 20
-193.7590484619141
 30
5.722240924835205
 70
   192
  0
VERTEX
  5
1C7
  8
0
 10
0.5
 20
-193.2588195800781
 30
3.364708185195923
 70
   192
  0
VERTEX
  5
1C8
  8
0
 10
0.5
 20
-203.3773651123047
 30
-18.67924308776855
 70
   192
  0
VERTEX
  5
1C9
  8
0
 10
-2.0
 20
-203.9866180419922
 30
-19.04574584960938
 70
   192
  0
VERTEX
  5
1CA
  8
0
 10
0.5
 20
-208.8399963378906
 30
-21.11999702453613
 70
   192
  0
VERTEX
  5
1CB
  8
0
 10
-2.0
 20
-209.2777557373047
 30
-21.24094772338867
 70
   192
  0
VERTEX
  5
1CC
  8
0
 10
-2.0
 20
-215.0
 30
-21.99999809265137
 70
   192
  0
VERTEX
  5
1CD
  8
0
 10
0.5
 20
-215.0
 30
-21.99999809265137
 70
   192
  0
VERTEX
  5
1CE
  8
0
 10
-2.0
 20
-195.9273376464844
 30
-10.95695972442627
 70
   192
  0
VERTEX
  5
1CF
  8
0
 10
-2.0
 20
-193.7499847412109
 30
-5.673484325408936
 70
   192
  0
VERTEX
  5
1D0
  8
0
 10
0.5
 20
-194.1891937255859
 30
-7.135132789611816
 70
   192
  0
VERTEX
  5
1D1
  8
0
 10
0.5
 20
-193.2588195800781
 30
-3.364703416824341
 70
   192
  0
VERTEX
  5
1D2
  8
0
 10
0.5
 20
-196.0461578369141
 30
11.16923332214355
 70
   192
  0
VERTEX
  5
1D3
  8
0
 10
0.5
 20
-194.1891937255859
 30
7.135137557983398
 70
   192
  0
VERTEX
  5
1D4
  8
0
 10
-2.0
 20
-195.9542541503906
 30
11.01338005065918
 70
   192
  0
VERTEX
  5
1D5
  8
0
 10
0.5
 20
-193.0
 30
0.0000023966640583
 70
   192
  0
VERTEX
  5
1D6
  8
0
 10
0.5
 20
-208.8399963378906
 30
21.12000274658203
 70
   192
  0
VERTEX
  5
1D7
  8
0
 10
0.5
 20
-203.3773651123047
 30
18.67924690246582
 70
   192
  0
VERTEX
  5
1D8
  8
0
 10
-2.0
 20
-209.2777557373047
 30
21.24095344543457
 70
   192
  0
VERTEX
  5
1D9
  8
0
 10
0.5
 20
-199.0689697265625
 30
15.1724157333374
 70
   192
  0
VERTEX
  5
1DA
  8
0
 10
-2.0
 20
-199.4862365722656
 30
15.58594226837158
 70
   192
  0
VERTEX
  5
1DB
  8
0
 10
-2.0
 20
-204.0430450439453
 30
19.07266044616699
 70
   192
  0
VERTEX
  5
1DC
  8
0
 10
-2.0
 20
-215.0
 30
22.00000190734863
 70
   192
  0
VERTEX
  5
1DD
  8
0
 10
0.5
 20
-215.0
 30
22.00000190734863
 70
   192
  0
VERTEX
  5
1DE
  8
0
 10
1.613131999969482
 20
-236.3065032958984
 30
3.906193733215332
 70
   192
  0
VERTEX
  5
1DF
  8
0
 10
2.349587678909302
 20
-235.7609405517578
 30
0.0000023966640583
 70
   192
  0
VERTEX
  5
1E0
  8
0
 10
2.349587678909302
 20
-235.4205932617188
 30
3.743777990341187
 70
   192
  0
VERTEX
  5
1E1
  8
0
 10
1.613131999969482
 20
-202.0030364990234
 30
17.32928848266602
 70
   192
  0
VERTEX
  5
1E2
  8
0
 10
1.613131999969482
 20
-207.974609375
 30
20.4907112121582
 70
   192
  0
VERTEX
  5
1E3
  8
0
 10
1.613131999969482
 20
-215.0
 30
21.6616096496582
 70
   192
  0
VERTEX
  5
1E4
  8
0
 10
1.613131999969482
 20
-197.6707153320312
 30
12.99696636199951
 70
   192
  0
VERTEX
  5
1E5
  8
0
 10
1.613131999969482
 20
-195.0046691894531
 30
8.331389427185059
 70
   192
  0
VERTEX
  5
1E6
  8
0
 10
1.613131999969482
 20
-193.6934967041016
 30
3.906193733215332
 70
   192
  0
VERTEX
  5
1E7
  8
0
 10
1.613131999969482
 20
-193.3383941650391
 30
0.0000023966640583
 70
   192
  0
VERTEX
  5
1E8
  8
0
 10
2.349587678909302
 20
-194.5794067382812
 30
3.743777990341187
 70
   192
  0
VERTEX
  5
1E9
  8
0
 10
2.349587678909302
 20
-194.2390594482422
 30
0.0000023966640583
 70
   192
  0
VERTEX
  5
1EA
  8
0
 10
2.349587678909302
 20
-208.2667236328125
 30
19.63872718811035
 70
   192
  0
VERTEX
  5
1EB
  8
0
 10
2.349587678909302
 20
-215.0
 30
20.76093864440918
 70
   192
  0
VERTEX
  5
1EC
  8
0
 10
1.613131999969482
 20
-222.025390625
 30
20.4907112121582
 70
   192
  0
VERTEX
  5
1ED
  8
0
 10
1.613131999969482
 20
-227.9969635009766
 30
17.32928848266602
 70
   192
  0
VERTEX
  5
1EE
  8
0
 10
0.5
 20
-222.1351318359375
 30
20.81081390380859
 70
   192
  0
VERTEX
  5
1EF
  8
0
 10
0.5
 20
-218.3647003173828
 30
21.74117851257324
 70
   192
  0
VERTEX
  5
1F0
  8
0
 10
0.5
 20
-226.1692352294922
 30
18.95384788513184
 70
   192
  0
VERTEX
  5
1F1
  8
0
 10
1.613131999969482
 20
-232.3292846679688
 30
12.99696636199951
 70
   192
  0
VERTEX
  5
1F2
  8
0
 10
0.5
 20
-230.1724090576172
 30
15.93103694915771
 70
   192
  0
VERTEX
  5
1F3
  8
0
 10
1.613131999969482
 20
-234.9953308105469
 30
8.331389427185059
 70
   192
  0
VERTEX
  5
1F4
  8
0
 10
0.5
 20
-233.6792449951172
 30
11.62264347076416
 70
   192
  0
VERTEX
  5
1F5
  8
0
 10
0.5
 20
-236.1199951171875
 30
6.1600022315979
 70
   192
  0
VERTEX
  5
1F6
  8
0
 10
1.613131999969482
 20
-236.6616058349609
 30
0.0000023966640583
 70
   192
  0
VERTEX
  5
1F7
  8
0
 10
0.5
 20
-237.0
 30
0.0000023966640583
 70
   192
  0
VERTEX
  5
1F8
  8
0
 10
2.349587678909302
 20
-234.1639404296875
 30
7.984978199005127
 70
   192
  0
VERTEX
  5
1F9
  8
0
 10
2.349587678909302
 20
-231.6087493896484
 30
12.45656490325928
 70
   192
  0
VERTEX
  5
1FA
  8
0
 10
2.349587678909302
 20
-227.4565582275391
 30
16.60875129699707
 70
   192
  0
VERTEX
  5
1FB
  8
0
 10
2.349587678909302
 20
-221.7332763671875
 30
19.63872718811035
 70
   192
  0
VERTEX
  5
1FC
  8
0
 10
2.349587678909302
 20
-202.5434417724609
 30
16.60875129699707
 70
   192
  0
VERTEX
  5
1FD
  8
0
 10
2.349587678909302
 20
-198.3912506103516
 30
12.45656490325928
 70
   192
  0
VERTEX
  5
1FE
  8
0
 10
2.349587678909302
 20
-195.8360595703125
 30
7.984978199005127
 70
   192
  0
VERTEX
  5
1FF
  8
0
 10
2.893203496932983
 20
-234.6791534423828
 30
-3.607841491699219
 70
   192
  0
VERTEX
  5
200
  8
0
 10
2.349587678909302
 20
-235.4205932617188
 30
-3.743773221969604
 70
   192
  0
VERTEX
  5
201
  8
0
 10
3.718823432922363
 20
-199.3356628417969
 30
-11.74824714660645
 70
   192
  0
VERTEX
  5
202
  8
0
 10
3.718823432922363
 20
-203.2517547607422
 30
-15.66432952880859
 70
   192
  0
VERTEX
  5
203
  8
0
 10
2.893203496932983
 20
-202.9957122802734
 30
-16.00570487976074
 70
   192
  0
VERTEX
  5
204
  8
0
 10
3.718823432922363
 20
-234.5804138183594
 30
0.0000023966640583
 70
   192
  0
VERTEX
  5
205
  8
0
 10
2.893203496932983
 20
-235.0071411132812
 30
0.0000023966640583
 70
   192
  0
VERTEX
  5
206
  8
0
 10
3.718823432922363
 20
-234.2594299316406
 30
-3.530892133712769
 70
   192
  0
VERTEX
  5
207
  8
0
 10
2.893203496932983
 20
-231.0057067871094
 30
-12.0042781829834
 70
   192
  0
VERTEX
  5
208
  8
0
 10
2.893203496932983
 20
-227.0042877197266
 30
-16.00570487976074
 70
   192
  0
VERTEX
  5
209
  8
0
 10
3.718823432922363
 20
-226.7482452392578
 30
-15.66432952880859
 70
   192
  0
VERTEX
  5
20A
  8
0
 10
3.718823432922363
 20
-233.0742340087891
 30
-7.530926704406738
 70
   192
  0
VERTEX
  5
20B
  8
0
 10
2.893203496932983
 20
-233.4681243896484
 30
-7.695049285888672
 70
   192
  0
VERTEX
  5
20C
  8
0
 10
3.718823432922363
 20
-208.6495971679688
 30
-18.52201271057129
 70
   192
  0
VERTEX
  5
20D
  8
0
 10
2.893203496932983
 20
-215.0
 30
-20.00713157653809
 70
   192
  0
VERTEX
  5
20E
  8
0
 10
2.893203496932983
 20
-208.5111999511719
 30
-18.9256649017334
 70
   192
  0
VERTEX
  5
20F
  8
0
 10
3.718823432922363
 20
-221.3504028320312
 30
-18.52201271057129
 70
   192
  0
VERTEX
  5
210
  8
0
 10
2.893203496932983
 20
-196.5318756103516
 30
-7.695049285888672
 70
   192
  0
VERTEX
  5
211
  8
0
 10
3.718823432922363
 20
-196.9257659912109
 30
-7.530926704406738
 70
   192
  0
VERTEX
  5
212
  8
0
 10
2.893203496932983
 20
-198.9942932128906
 30
-12.0042781829834
 70
   192
  0
VERTEX
  5
213
  8
0
 10
2.893203496932983
 20
-195.3208465576172
 30
-3.607841491699219
 70
   192
  0
VERTEX
  5
214
  8
0
 10
2.349587678909302
 20
-195.8360595703125
 30
-7.984973430633545
 70
   192
  0
VERTEX
  5
215
  8
0
 10
2.349587678909302
 20
-194.5794067382812
 30
-3.743773221969604
 70
   192
  0
VERTEX
  5
216
  8
0
 10
3.718823432922363
 20
-195.7405700683594
 30
-3.530892133712769
 70
   192
  0
VERTEX
  5
217
  8
0
 10
2.893203496932983
 20
-194.9928588867188
 30
0.0000023966640583
 70
   192
  0
VERTEX
  5
218
  8
0
 10
3.718823432922363
 20
-195.4195861816406
 30
0.0000023966640583
 70
   192
  0
VERTEX
  5
219
  8
0
 10
3.718823432922363
 20
-215.0
 30
-19.58041381835938
 70
   192
  0
VERTEX
  5
21A
  8
0
 10
3.718823432922363
 20
-230.6643371582031
 30
-11.74824714660645
 70
   192
  0
VERTEX
  5
21B
  8
0
 10
2.893203496932983
 20
-221.4888000488281
 30
-18.9256649017334
 70
   192
  0
VERTEX
  5
21C
  8
0
 10
2.349587678909302
 20
-198.3912506103516
 30
-12.4565601348877
 70
   192
  0
VERTEX
  5
21D
  8
0
 10
2.349587678909302
 20
-202.5434417724609
 30
-16.6087474822998
 70
   192
  0
VERTEX
  5
21E
  8
0
 10
2.349587678909302
 20
-208.2667236328125
 30
-19.63872146606445
 70
   192
  0
VERTEX
  5
21F
  8
0
 10
2.349587678909302
 20
-215.0
 30
-20.76093482971191
 70
   192
  0
VERTEX
  5
220
  8
0
 10
2.349587678909302
 20
-221.7332763671875
 30
-19.63872146606445
 70
   192
  0
VERTEX
  5
221
  8
0
 10
2.349587678909302
 20
-227.4565582275391
 30
-16.6087474822998
 70
   192
  0
VERTEX
  5
222
  8
0
 10
2.349587678909302
 20
-231.6087493896484
 30
-12.4565601348877
 70
   192
  0
VERTEX
  5
223
  8
0
 10
2.349587678909302
 20
-234.1639404296875
 30
-7.984973430633545
 70
   192
  0
VERTEX
  5
224
  8
0
 10
4.963555812835693
 20
-233.6244812011719
 30
3.414490461349487
 70
   192
  0
VERTEX
  5
225
  8
0
 10
5.778974056243896
 20
-232.7942047119141
 30
0.0000023966640583
 70
   192
  0
VERTEX
  5
226
  8
0
 10
5.778974056243896
 20
-232.5082550048828
 30
3.211290597915649
 70
   192
  0
VERTEX
  5
227
  8
0
 10
4.963555812835693
 20
-203.6390686035156
 30
15.14791297912598
 70
   192
  0
VERTEX
  5
228
  8
0
 10
3.718823432922363
 20
-203.2517547607422
 30
15.66433429718018
 70
   192
  0
VERTEX
  5
229
  8
0
 10
4.963555812835693
 20
-208.8589477539062
 30
17.9113826751709
 70
   192
  0
VERTEX
  5
22A
  8
0
 10
3.718823432922363
 20
-208.6495971679688
 30
18.52201652526855
 70
   192
  0
VERTEX
  5
22B
  8
0
 10
4.963555812835693
 20
-215.0
 30
18.93489074707031
 70
   192
  0
VERTEX
  5
22C
  8
0
 10
3.718823432922363
 20
-199.3356628417969
 30
11.74825191497803
 70
   192
  0
VERTEX
  5
22D
  8
0
 10
4.963555812835693
 20
-199.8520965576172
 30
11.36093521118164
 70
   192
  0
VERTEX
  5
22E
  8
0
 10
3.718823432922363
 20
-196.9257659912109
 30
7.53093147277832
 70
   192
  0
VERTEX
  5
22F
  8
0
 10
4.963555812835693
 20
-197.5216369628906
 30
7.282651901245117
 70
   192
  0
VERTEX
  5
230
  8
0
 10
3.718823432922363
 20
-195.7405700683594
 30
3.530896902084351
 70
   192
  0
VERTEX
  5
231
  8
0
 10
5.778974056243896
 20
-197.4917449951172
 30
3.211290597915649
 70
   192
  0
VERTEX
  5
232
  8
0
 10
4.963555812835693
 20
-196.0651092529297
 30
0.0000023966640583
 70
   192
  0
VERTEX
  5
233
  8
0
 10
4.963555812835693
 20
-196.3755187988281
 30
3.414490461349487
 70
   192
  0
VERTEX
  5
234
  8
0
 10
5.778974056243896
 20
-197.2057952880859
 30
0.0000023966640583
 70
   192
  0
VERTEX
  5
235
  8
0
 10
3.718823432922363
 20
-215.0
 30
19.58041763305664
 70
   192
  0
VERTEX
  5
236
  8
0
 10
3.718823432922363
 20
-221.3504028320312
 30
18.52201652526855
 70
   192
  0
VERTEX
  5
237
  8
0
 10
4.963555812835693
 20
-221.1410522460938
 30
17.9113826751709
 70
   192
  0
VERTEX
  5
238
  8
0
 10
4.963555812835693
 20
-226.3609313964844
 30
15.14791297912598
 70
   192
  0
VERTEX
  5
239
  8
0
 10
3.718823432922363
 20
-226.7482452392578
 30
15.66433429718018
 70
   192
  0
VERTEX
  5
23A
  8
0
 10
3.718823432922363
 20
-230.6643371582031
 30
11.74825191497803
 70
   192
  0
VERTEX
  5
23B
  8
0
 10
4.963555812835693
 20
-230.1479034423828
 30
11.36093521118164
 70
   192
  0
VERTEX
  5
23C
  8
0
 10
3.718823432922363
 20
-233.0742340087891
 30
7.53093147277832
 70
   192
  0
VERTEX
  5
23D
  8
0
 10
4.963555812835693
 20
-232.4783630371094
 30
7.282651901245117
 70
   192
  0
VERTEX
  5
23E
  8
0
 10
3.718823432922363
 20
-234.2594299316406
 30
3.530896902084351
 70
   192
  0
VERTEX
  5
23F
  8
0
 10
4.963555812835693
 20
-233.9348907470703
 30
0.0000023966640583
 70
   192
  0
VERTEX
  5
240
  8
0
 10
5.778974056243896
 20
-231.4072113037109
 30
6.833608150482178
 70
   192
  0
VERTEX
  5
241
  8
0
 10
5.778974056243896
 20
-229.2151641845703
 30
10.6451473236084
 70
   192
  0
VERTEX
  5
242
  8
0
 10
5.778974056243896
 20
-225.6759338378906
 30
14.17967891693115
 70
   192
  0
VERTEX
  5
243
  8
0
 10
5.778974056243896
 20
-220.8124847412109
 30
16.77464294433594
 70
   192
  0
VERTEX
  5
244
  8
0
 10
5.778974056243896
 20
-215.0740509033203
 30
17.77401351928711
 70
   192
  0
VERTEX
  5
245
  8
0
 10
5.778974056243896
 20
-209.2920532226562
 30
16.86142730712891
 70
   192
  0
VERTEX
  5
246
  8
0
 10
5.778974056243896
 20
-204.3470764160156
 30
14.28236293792725
 70
   192
  0
VERTEX
  5
247
  8
0
 10
5.778974056243896
 20
-200.7595825195312
 30
10.70936679840088
 70
   192
  0
VERTEX
  5
248
  8
0
 10
5.778974056243896
 20
-198.5635833740234
 30
6.857079982757568
 70
   192
  0
VERTEX
  5
249
  8
0
 10
13.69999980926514
 20
-223.2652893066406
 30
-3.914103507995605
 70
   192
  0
VERTEX
  5
24A
  8
0
 10
10.44853496551514
 20
-226.7342834472656
 30
-2.370561122894287
 70
   192
  0
VERTEX
  5
24B
  8
0
 10
10.44853496551514
 20
-225.8446350097656
 30
-5.070214748382568
 70
   192
  0
VERTEX
  5
24C
  8
0
 10
10.44853496551514
 20
-205.9804992675781
 30
-7.871567249298096
 70
   192
  0
VERTEX
  5
24D
  8
0
 10
10.44853496551514
 20
-204.1553649902344
 30
-5.070214748382568
 70
   192
  0
VERTEX
  5
24E
  8
0
 10
13.69999980926514
 20
-206.7904510498047
 30
-3.826509952545166
 70
   192
  0
VERTEX
  5
24F
  8
0
 10
10.44853496551514
 20
-226.9713439941406
 30
0.0000023966640583
 70
   192
  0
VERTEX
  5
250
  8
0
 10
13.69999980926514
 20
-223.9435729980469
 30
-1.816989302635193
 70
   192
  0
VERTEX
  5
251
  8
0
 10
14.0
 20
-225.0304718017578
 30
0.0000023966640583
 70
   192
  0
VERTEX
  5
252
  8
0
 10
7.661692142486572
 20
-229.2833862304688
 30
-2.885530233383179
 70
   192
  0
VERTEX
  5
253
  8
0
 10
13.69999980926514
 20
-219.6079559326172
 30
-7.857761383056641
 70
   192
  0
VERTEX
  5
254
  8
0
 10
10.44853496551514
 20
-224.0195007324219
 30
-7.871567249298096
 70
   192
  0
VERTEX
  5
255
  8
0
 10
10.44853496551514
 20
-221.0777587890625
 30
-10.31377220153809
 70
   192
  0
VERTEX
  5
256
  8
0
 10
13.69999980926514
 20
-210.3814239501953
 30
-7.809983253479004
 70
   192
  0
VERTEX
  5
257
  8
0
 10
10.44853496551514
 20
-212.8412322998047
 30
-11.77509212493896
 70
   192
  0
VERTEX
  5
258
  8
0
 10
10.44853496551514
 20
-208.9222412109375
 30
-10.31377220153809
 70
   192
  0
VERTEX
  5
259
  8
0
 10
13.69999980926514
 20
-216.5572204589844
 30
-8.9584321975708
 70
   192
  0
VERTEX
  5
25A
  8
0
 10
10.44853496551514
 20
-217.1587677001953
 30
-11.77509212493896
 70
   192
  0
VERTEX
  5
25B
  8
0
 10
10.44853496551514
 20
-203.2657165527344
 30
-2.370561122894287
 70
   192
  0
VERTEX
  5
25C
  8
0
 10
13.69999980926514
 20
-206.0564270019531
 30
-1.816989302635193
 70
   192
  0
VERTEX
  5
25D
  8
0
 10
13.69999980926514
 20
-208.1503601074219
 30
-5.952645301818848
 70
   192
  0
VERTEX
  5
25E
  8
0
 10
7.661692142486572
 20
-200.7166137695312
 30
-2.885530233383179
 70
   192
  0
VERTEX
  5
25F
  8
0
 10
5.778974056243896
 20
-197.4917449951172
 30
-3.211285829544067
 70
   192
  0
VERTEX
  5
260
  8
0
 10
7.661692142486572
 20
-200.4280548095703
 30
0.0000023966640583
 70
   192
  0
VERTEX
  5
261
  8
0
 10
10.44853496551514
 20
-203.0286560058594
 30
0.0000023966640583
 70
   192
  0
VERTEX
  5
262
  8
0
 10
14.0
 20
-204.9695281982422
 30
0.0000023966640583
 70
   192
  0
VERTEX
  5
263
  8
0
 10
7.661692142486572
 20
-201.7995300292969
 30
-6.171642780303955
 70
   192
  0
VERTEX
  5
264
  8
0
 10
5.778974056243896
 20
-198.5927886962891
 30
-6.833603382110596
 70
   192
  0
VERTEX
  5
265
  8
0
 10
13.69999980926514
 20
-213.2941436767578
 30
-8.884110450744629
 70
   192
  0
VERTEX
  5
266
  8
0
 10
13.69999980926514
 20
-221.8305358886719
 30
-6.038646221160889
 70
   192
  0
VERTEX
  5
267
  8
0
 10
7.661692142486572
 20
-229.5719451904297
 30
0.0000023966640583
 70
   192
  0
VERTEX
  5
268
  8
0
 10
7.661692142486572
 20
-204.0211486816406
 30
-9.581546783447266
 70
   192
  0
VERTEX
  5
269
  8
0
 10
7.661692142486572
 20
-207.6019439697266
 30
-12.55428409576416
 70
   192
  0
VERTEX
  5
26A
  8
0
 10
7.661692142486572
 20
-212.3722686767578
 30
-14.33305358886719
 70
   192
  0
VERTEX
  5
26B
  8
0
 10
7.661692142486572
 20
-217.6277313232422
 30
-14.33305358886719
 70
   192
  0
VERTEX
  5
26C
  8
0
 10
7.661692142486572
 20
-222.3980560302734
 30
-12.55428409576416
 70
   192
  0
VERTEX
  5
26D
  8
0
 10
7.661692142486572
 20
-225.9788513183594
 30
-9.581546783447266
 70
   192
  0
VERTEX
  5
26E
  8
0
 10
7.661692142486572
 20
-228.2004699707031
 30
-6.171642780303955
 70
   192
  0
VERTEX
  5
26F
  8
0
 10
5.778974056243896
 20
-200.7848358154297
 30
-10.64514255523682
 70
   192
  0
VERTEX
  5
270
  8
0
 10
5.778974056243896
 20
-204.3240661621094
 30
-14.17967414855957
 70
   192
  0
VERTEX
  5
271
  8
0
 10
5.778974056243896
 20
-209.1875152587891
 30
-16.77463722229004
 70
   192
  0
VERTEX
  5
272
  8
0
 10
5.778974056243896
 20
-214.9259490966797
 30
-17.77400779724121
 70
   192
  0
VERTEX
  5
273
  8
0
 10
5.778974056243896
 20
-220.7079467773438
 30
-16.86142158508301
 70
   192
  0
VERTEX
  5
274
  8
0
 10
5.778974056243896
 20
-225.6529235839844
 30
-14.28235816955566
 70
   192
  0
VERTEX
  5
275
  8
0
 10
5.778974056243896
 20
-229.2404174804688
 30
-10.7093620300293
 70
   192
  0
VERTEX
  5
276
  8
0
 10
5.778974056243896
 20
-231.4364166259766
 30
-6.857075214385986
 70
   192
  0
VERTEX
  5
277
  8
0
 10
5.778974056243896
 20
-232.5082550048828
 30
-3.211285829544067
 70
   192
  0
VERTEX
  5
278
  8
0
 10
13.69999980926514
 20
-213.4427795410156
 30
8.958436965942383
 70
   192
  0
VERTEX
  5
279
  8
0
 10
13.94283485412598
 20
-212.759521484375
 30
9.957685470581055
 70
   192
  0
VERTEX
  5
27A
  8
0
 10
13.94283485412598
 20
-217.240478515625
 30
9.957685470581055
 70
   192
  0
VERTEX
  5
27B
  8
0
 10
13.69999980926514
 20
-216.7058563232422
 30
8.884115219116211
 70
   192
  0
VERTEX
  5
27C
  8
0
 10
13.69999980926514
 20
-208.1694641113281
 30
6.038650989532471
 70
   192
  0
VERTEX
  5
27D
  8
0
 10
13.94283485412598
 20
-206.3339996337891
 30
5.392181873321533
 70
   192
  0
VERTEX
  5
27E
  8
0
 10
13.94283485412598
 20
-208.8760223388672
 30
8.165303230285645
 70
   192
  0
VERTEX
  5
27F
  8
0
 10
13.69999980926514
 20
-210.3920440673828
 30
7.857766151428223
 70
   192
  0
VERTEX
  5
280
  8
0
 10
13.69999980926514
 20
-206.7347106933594
 30
3.914108276367188
 70
   192
  0
VERTEX
  5
281
  8
0
 10
13.69999980926514
 20
-206.0564270019531
 30
1.816994190216064
 70
   192
  0
VERTEX
  5
282
  8
0
 10
13.94283485412598
 20
-205.107421875
 30
2.512402534484863
 70
   192
  0
VERTEX
  5
283
  8
0
 10
13.69999980926514
 20
-219.6185760498047
 30
7.809988021850586
 70
   192
  0
VERTEX
  5
284
  8
0
 10
13.94283485412598
 20
-221.1239776611328
 30
8.165303230285645
 70
   192
  0
VERTEX
  5
285
  8
0
 10
13.69999980926514
 20
-221.8496398925781
 30
5.95265007019043
 70
   192
  0
VERTEX
  5
286
  8
0
 10
13.94283485412598
 20
-223.6660003662109
 30
5.392181873321533
 70
   192
  0
VERTEX
  5
287
  8
0
 10
13.69999980926514
 20
-223.2095489501953
 30
3.826514720916748
 70
   192
  0
VERTEX
  5
288
  8
0
 10
13.94283485412598
 20
-224.892578125
 30
2.512402534484863
 70
   192
  0
VERTEX
  5
289
  8
0
 10
13.69999980926514
 20
-223.9435729980469
 30
1.816994190216064
 70
   192
  0
VERTEX
  5
28A
  8
0
 10
13.91213226318359
 20
-215.0
 30
9.187870025634766
 70
   192
  0
VERTEX
  5
28B
  8
0
 10
13.91213226318359
 20
-219.3236999511719
 30
8.106945037841797
 70
   192
  0
VERTEX
  5
28C
  8
0
 10
13.91213226318359
 20
-210.6763000488281
 30
8.106945037841797
 70
   192
  0
VERTEX
  5
28D
  8
0
 10
13.91213226318359
 20
-222.3502960205078
 30
5.512722969055176
 70
   192
  0
VERTEX
  5
28E
  8
0
 10
13.91213226318359
 20
-223.8203582763672
 30
2.57260537147522
 70
   192
  0
VERTEX
  5
28F
  8
0
 10
13.91213226318359
 20
-207.6497039794922
 30
5.512722969055176
 70
   192
  0
VERTEX
  5
290
  8
0
 10
13.91213226318359
 20
-206.1796417236328
 30
2.57260537147522
 70
   192
  0
VERTEX
  5
291
  8
0
 10
-2.0
 20
-223.4615325927734
 30
-20.30768966674805
 70
   192
  0
VERTEX
  5
292
  8
0
 10
-2.0
 20
-218.9672088623047
 30
-21.63934135437012
 70
   192
  0
VERTEX
  5
293
  8
0
 10
-2.0
 20
-228.1999969482422
 30
-17.59999847412109
 70
   192
  0
VERTEX
  5
294
  8
0
 10
-2.0
 20
-235.8108062744141
 30
-7.135132789611816
 70
   192
  0
VERTEX
  5
295
  8
0
 10
-2.0
 20
-232.6000061035156
 30
-13.1999979019165
 70
   192
  0
VERTEX
  5
296
  8
0
 10
-2.0
 20
-237.0
 30
0.0000023966640583
 70
   192
  0
VERTEX
  5
297
  8
0
 10
-2.0
 20
-228.1999969482422
 30
17.60000228881836
 70
   192
  0
VERTEX
  5
298
  8
0
 10
-2.0
 20
-235.8108062744141
 30
7.135137557983398
 70
   192
  0
VERTEX
  5
299
  8
0
 10
-2.0
 20
-232.6000061035156
 30
13.20000267028809
 70
   192
  0
VERTEX
  5
29A
  8
0
 10
-2.0
 20
-218.9672088623047
 30
21.63934707641602
 70
   192
  0
VERTEX
  5
29B
  8
0
 10
-2.0
 20
-223.4615325927734
 30
20.30769538879395
 70
   192
  0
VERTEX
  5
29C
  8
0
 10
13.91213226318359
 20
-222.3502960205078
 30
-5.512718200683594
 70
   192
  0
VERTEX
  5
29D
  8
0
 10
13.91213226318359
 20
-219.3236999511719
 30
-8.106940269470215
 70
   192
  0
VERTEX
  5
29E
  8
0
 10
13.91213226318359
 20
-223.8203582763672
 30
-2.572600603103638
 70
   192
  0
VERTEX
  5
29F
  8
0
 10
13.91213226318359
 20
-207.6497039794922
 30
-5.512718200683594
 70
   192
  0
VERTEX
  5
2A0
  8
0
 10
13.91213226318359
 20
-210.6763000488281
 30
-8.106940269470215
 70
   192
  0
VERTEX
  5
2A1
  8
0
 10
13.91213226318359
 20
-206.1796417236328
 30
-2.572600603103638
 70
   192
  0
VERTEX
  5
2A2
  8
0
 10
13.91213226318359
 20
-215.0
 30
-9.187865257263184
 70
   192
  0
VERTEX
  5
2A3
  8
0
 10
13.94283485412598
 20
-205.107421875
 30
-2.512397766113281
 70
   192
  0
VERTEX
  5
2A4
  8
0
 10
13.94283485412598
 20
-212.759521484375
 30
-9.957680702209473
 70
   192
  0
VERTEX
  5
2A5
  8
0
 10
13.94283485412598
 20
-208.8760223388672
 30
-8.165298461914062
 70
   192
  0
VERTEX
  5
2A6
  8
0
 10
13.94283485412598
 20
-206.3339996337891
 30
-5.392177104949951
 70
   192
  0
VERTEX
  5
2A7
  8
0
 10
13.94283485412598
 20
-223.6660003662109
 30
-5.392177104949951
 70
   192
  0
VERTEX
  5
2A8
  8
0
 10
13.94283485412598
 20
-221.1239776611328
 30
-8.165298461914062
 70
   192
  0
VERTEX
  5
2A9
  8
0
 10
13.94283485412598
 20
-224.892578125
 30
-2.512397766113281
 70
   192
  0
VERTEX
  5
2AA
  8
0
 10
13.94283485412598
 20
-217.240478515625
 30
-9.957680702209473
 70
   192
  0
VERTEX
  5
2AB
  8
0
 10
10.44853496551514
 20
-221.0777587890625
 30
10.31377696990967
 70
   192
  0
VERTEX
  5
2AC
  8
0
 10
10.44853496551514
 20
-224.0195007324219
 30
7.871572017669678
 70
   192
  0
VERTEX
  5
2AD
  8
0
 10
10.44853496551514
 20
-225.8446350097656
 30
5.07021951675415
 70
   192
  0
VERTEX
  5
2AE
  8
0
 10
7.661692142486572
 20
-229.2833862304688
 30
2.885535001754761
 70
   192
  0
VERTEX
  5
2AF
  8
0
 10
7.661692142486572
 20
-228.2004699707031
 30
6.171647548675537
 70
   192
  0
VERTEX
  5
2B0
  8
0
 10
10.44853496551514
 20
-226.7342834472656
 30
2.370565891265869
 70
   192
  0
VERTEX
  5
2B1
  8
0
 10
10.44853496551514
 20
-217.1587677001953
 30
11.77509689331055
 70
   192
  0
VERTEX
  5
2B2
  8
0
 10
10.44853496551514
 20
-212.8412322998047
 30
11.77509689331055
 70
   192
  0
VERTEX
  5
2B3
  8
0
 10
10.44853496551514
 20
-208.9222412109375
 30
10.31377696990967
 70
   192
  0
VERTEX
  5
2B4
  8
0
 10
10.44853496551514
 20
-205.9804992675781
 30
7.871572017669678
 70
   192
  0
VERTEX
  5
2B5
  8
0
 10
7.661692142486572
 20
-200.7166137695312
 30
2.885535001754761
 70
   192
  0
VERTEX
  5
2B6
  8
0
 10
10.44853496551514
 20
-204.1553649902344
 30
5.07021951675415
 70
   192
  0
VERTEX
  5
2B7
  8
0
 10
10.44853496551514
 20
-203.2657165527344
 30
2.370565891265869
 70
   192
  0
VERTEX
  5
2B8
  8
0
 10
7.661692142486572
 20
-225.9788513183594
 30
9.581551551818848
 70
   192
  0
VERTEX
  5
2B9
  8
0
 10
7.661692142486572
 20
-222.3980560302734
 30
12.55428886413574
 70
   192
  0
VERTEX
  5
2BA
  8
0
 10
7.661692142486572
 20
-217.6277313232422
 30
14.33305835723877
 70
   192
  0
VERTEX
  5
2BB
  8
0
 10
7.661692142486572
 20
-212.3722686767578
 30
14.33305835723877
 70
   192
  0
VERTEX
  5
2BC
  8
0
 10
7.661692142486572
 20
-207.6019439697266
 30
12.55428886413574
 70
   192
  0
VERTEX
  5
2BD
  8
0
 10
7.661692142486572
 20
-204.0211486816406
 30
9.581551551818848
 70
   192
  0
VERTEX
  5
2BE
  8
0
 10
7.661692142486572
 20
-201.7995300292969
 30
6.171647548675537
 70
   192
  0
VERTEX
  5
2BF
  8
0
 10
4.963555812835693
 20
-197.5216369628906
 30
-7.282647132873535
 70
   192
  0
VERTEX
  5
2C0
  8
0
 10
4.963555812835693
 20
-196.3755187988281
 30
-3.414485692977905
 70
   192
  0
VERTEX
  5
2C1
  8
0
 10
4.963555812835693
 20
-199.8520965576172
 30
-11.36093044281006
 70
   192
  0
VERTEX
  5
2C2
  8
0
 10
4.963555812835693
 20
-203.6390686035156
 30
-15.14790821075439
 70
   192
  0
VERTEX
  5
2C3
  8
0
 10
4.963555812835693
 20
-221.1410522460938
 30
-17.91137886047363
 70
   192
  0
VERTEX
  5
2C4
  8
0
 10
4.963555812835693
 20
-215.0
 30
-18.93488502502441
 70
   192
  0
VERTEX
  5
2C5
  8
0
 10
4.963555812835693
 20
-208.8589477539062
 30
-17.91137886047363
 70
   192
  0
VERTEX
  5
2C6
  8
0
 10
4.963555812835693
 20
-230.1479034423828
 30
-11.36093044281006
 70
   192
  0
VERTEX
  5
2C7
  8
0
 10
4.963555812835693
 20
-226.3609313964844
 30
-15.14790821075439
 70
   192
  0
VERTEX
  5
2C8
  8
0
 10
4.963555812835693
 20
-233.6244812011719
 30
-3.414485692977905
 70
   192
  0
VERTEX
  5
2C9
  8
0
 10
4.963555812835693
 20
-232.4783630371094
 30
-7.282647132873535
 70
   192
  0
VERTEX
  5
2CA
  8
0
 10
2.893203496932983
 20
-227.0042877197266
 30
16.00571060180664
 70
   192
  0
VERTEX
  5
2CB
  8
0
 10
2.893203496932983
 20
-221.4888000488281
 30
18.9256706237793
 70
   192
  0
VERTEX
  5
2CC
  8
0
 10
2.893203496932983
 20
-215.0
 30
20.00713729858398
 70
   192
  0
VERTEX
  5
2CD
  8
0
 10
2.893203496932983
 20
-231.0057067871094
 30
12.00428295135498
 70
   192
  0
VERTEX
  5
2CE
  8
0
 10
2.893203496932983
 20
-233.4681243896484
 30
7.695054054260254
 70
   192
  0
VERTEX
  5
2CF
  8
0
 10
2.893203496932983
 20
-234.6791534423828
 30
3.607846260070801
 70
   192
  0
VERTEX
  5
2D0
  8
0
 10
2.893203496932983
 20
-208.5111999511719
 30
18.9256706237793
 70
   192
  0
VERTEX
  5
2D1
  8
0
 10
2.893203496932983
 20
-202.9957122802734
 30
16.00571060180664
 70
   192
  0
VERTEX
  5
2D2
  8
0
 10
2.893203496932983
 20
-198.9942932128906
 30
12.00428295135498
 70
   192
  0
VERTEX
  5
2D3
  8
0
 10
2.893203496932983
 20
-196.5318756103516
 30
7.695054054260254
 70
   192
  0
VERTEX
  5
2D4
  8
0
 10
2.893203496932983
 20
-195.3208465576172
 30
3.607846260070801
 70
   192
  0
VERTEX
  5
2D5
  8
0
 10
1.613131999969482
 20
-193.6934967041016
 30
-3.90618896484375
 70
   192
  0
VERTEX
  5
2D6
  8
0
 10
1.613131999969482
 20
-195.0046691894531
 30
-8.331384658813477
 70
   192
  0
VERTEX
  5
2D7
  8
0
 10
1.613131999969482
 20
-197.6707153320312
 30
-12.99696159362793
 70
   192
  0
VERTEX
  5
2D8
  8
0
 10
1.613131999969482
 20
-202.0030364990234
 30
-17.32928276062012
 70
   192
  0
VERTEX
  5
2D9
  8
0
 10
1.613131999969482
 20
-215.0
 30
-21.6616039276123
 70
   192
  0
VERTEX
  5
2DA
  8
0
 10
1.613131999969482
 20
-222.025390625
 30
-20.49070739746094
 70
   192
  0
VERTEX
  5
2DB
  8
0
 10
1.613131999969482
 20
-207.974609375
 30
-20.49070739746094
 70
   192
  0
VERTEX
  5
2DC
  8
0
 10
1.613131999969482
 20
-234.9953308105469
 30
-8.331384658813477
 70
   192
  0
VERTEX
  5
2DD
  8
0
 10
0.5
 20
-233.6792449951172
 30
-11.62263870239258
 70
   192
  0
VERTEX
  5
2DE
  8
0
 10
0.5
 20
-230.1724090576172
 30
-15.93103218078613
 70
   192
  0
VERTEX
  5
2DF
  8
0
 10
0.5
 20
-226.1692352294922
 30
-18.95384407043457
 70
   192
  0
VERTEX
  5
2E0
  8
0
 10
1.613131999969482
 20
-232.3292846679688
 30
-12.99696159362793
 70
   192
  0
VERTEX
  5
2E1
  8
0
 10
1.613131999969482
 20
-236.3065032958984
 30
-3.90618896484375
 70
   192
  0
VERTEX
  5
2E2
  8
0
 10
0.5
 20
-236.1199951171875
 30
-6.159997463226318
 70
   192
  0
VERTEX
  5
2E3
  8
0
 10
1.613131999969482
 20
-227.9969635009766
 30
-17.32928276062012
 70
   192
  0
VERTEX
  5
2E4
  8
0
 10
0.5
 20
-222.1351318359375
 30
-20.8108081817627
 70
   192
  0
VERTEX
  5
2E5
  8
0
 10
0.5
 20
-218.3647003173828
 30
-21.74117469787598
 70
   192
  0
VERTEX
  5
2E6
  8
0
 62
   123
 10
0.0
 20
0.0
 30
0.0
 70
   128
 71
     3
 72
     2
 73
     1
  0
VERTEX
  5
2E7
  8
0
 62
   123
 10
0.0
 20
0.0
 30
0.0
 70
   128
 71
     6
 72
     5
 73
     4
  0
VERTEX
  5
2E8
  8
0
 62
   123
 10
0.0
 20
0.0
 30
0.0
 70
   128
 71
     3
 72
     8
 73
     7
  0
VERTEX
  5
2E9
  8
0
 62
   123
 10
0.0
 20
0.0
 30
0.0
 70
   128
 71
     8
 72
     3
 73
     1
  0
VERTEX
  5
2EA
  8
0
 62
   123
 10
0.0
 20
0.0
 30
0.0
 70
   128
 71
    10
 72
     9
 73
     7
  0
VERTEX
  5
2EB
  8
0
 62
   123
 10
0.0
 20
0.0
 30
0.0
 70
   128
 71
     7
 72
     8
 73
    10
  0
VERTEX
  5
2EC
  8
0
 62
   123
 10
0.0
 20
0.0
 30
0.0
 70
   128
 71
    10
 72
    11
 73
     9
  0
VERTEX
  5
2ED
  8
0
 62
   123
 10
0.0
 20
0.0
 30
0.0
 70
   128
 71
    11
 72
    12
 73
     9
  0
VERTEX
  5
2EE
  8
0
 62
   123
 10
0.0
 20
0.0
 30
0.0
 70
   128
 71
    13
 72
     1
 73
     2
  0
VERTEX
  5
2EF
  8
0
 62
   123
 10
0.0
 20
0.0
 30
0.0
 70
   128
 71
    15
 72
    14
 73
    13
  0
VERTEX
  5
2F0
  8
0
 62
   123
 10
0.0
 20
0.0
 30
0.0
 70
   128
 71
    13
 72
     2
 73
    15
  0
VERTEX
  5
2F1
  8
0
 62
   123
 10
0.0
 20
0.0
 30
0.0
 70
   128
 71
     4
 72
    14
 73
    16
  0
VERTEX
  5
2F2
  8
0
 62
   123
 10
0.0
 20
0.0
 30
0.0
 70
   128
 71
    15
 72
    16
 73
    14
  0
VERTEX
  5
2F3
  8
0
 62
   123
 10
0.0
 20
0.0
 30
0.0
 70
   128
 71
    19
 72
    18
 73
    17
  0
VERTEX
  5
2F4
  8
0
 62
   123
 10
0.0
 20
0.0
 30
0.0
 70
   128
 71
    20
 72
     4
 73
    16
  0
VERTEX
  5
2F5
  8
0
 62
   123
 10
0.0
 20
0.0
 30
0.0
 70
   128
 71
    23
 72
    22
 73
    21
  0
VERTEX
  5
2F6
  8
0
 62
   123
 10
0.0
 20
0.0
 30
0.0
 70
   128
 71
    26
 72
    25
 73
    24
  0
VERTEX
  5
2F7
  8
0
 62
   123
 10
0.0
 20
0.0
 30
0.0
 70
   128
 71
    21
 72
    28
 73
    27
  0
VERTEX
  5
2F8
  8
0
 62
   123
 10
0.0
 20
0.0
 30
0.0
 70
   128
 71
    27
 72
    23
 73
    21
  0
VERTEX
  5
2F9
  8
0
 62
   123
 10
0.0
 20
0.0
 30
0.0
 70
   128
 71
    24
 72
    22
 73
    26
  0
VERTEX
  5
2FA
  8
0
 62
   123
 10
0.0
 20
0.0
 30
0.0
 70
   128
 71
    23
 72
    26
 73
    22
  0
VERTEX
  5
2FB
  8
0
 62
   123
 10
0.0
 20
0.0
 30
0.0
 70
   128
 71
    19
 72
    17
 73
    25
  0
VERTEX
  5
2FC
  8
0
 62
   123
 10
0.0
 20
0.0
 30
0.0
 70
   128
 71
    25
 72
    17
 73
    24
  0
VERTEX
  5
2FD
  8
0
 62
   123
 10
0.0
 20
0.0
 30
0.0
 70
   128
 71
     6
 72
    18
 73
     5
  0
VERTEX
  5
2FE
  8
0
 62
   123
 10
0.0
 20
0.0
 30
0.0
 70
   128
 71
     5
 72
    18
 73
    19
  0
VERTEX
  5
2FF
  8
0
 62
   123
 10
0.0
 20
0.0
 30
0.0
 70
   128
 71
    20
 72
     6
 73
     4
  0
VERTEX
  5
300
  8
0
 62
   123
 10
0.0
 20
0.0
 30
0.0
 70
   128
 71
    31
 72
    30
 73
    29
  0
VERTEX
  5
301
  8
0
 62
   123
 10
0.0
 20
0.0
 30
0.0
 70
   128
 71
    33
 72
    22
 73
    32
  0
VERTEX
  5
302
  8
0
 62
   123
 10
0.0
 20
0.0
 30
0.0
 70
   128
 71
    34
 72
    21
 73
    33
  0
VERTEX
  5
303
  8
0
 62
   123
 10
0.0
 20
0.0
 30
0.0
 70
   128
 71
    24
 72
    35
 73
    32
  0
VERTEX
  5
304
  8
0
 62
   123
 10
0.0
 20
0.0
 30
0.0
 70
   128
 71
    17
 72
    35
 73
    24
  0
VERTEX
  5
305
  8
0
 62
   123
 10
0.0
 20
0.0
 30
0.0
 70
   128
 71
    36
 72
    17
 73
    18
  0
VERTEX
  5
306
  8
0
 62
   123
 10
0.0
 20
0.0
 30
0.0
 70
   128
 71
    18
 72
     6
 73
    37
  0
VERTEX
  5
307
  8
0
 62
   123
 10
0.0
 20
0.0
 30
0.0
 70
   128
 71
    35
 72
    17
 73
    36
  0
VERTEX
  5
308
  8
0
 62
   123
 10
0.0
 20
0.0
 30
0.0
 70
   128
 71
    37
 72
    20
 73
    38
  0
VERTEX
  5
309
  8
0
 62
   123
 10
0.0
 20
0.0
 30
0.0
 70
   128
 71
    37
 72
    36
 73
    18
  0
VERTEX
  5
30A
  8
0
 62
   123
 10
0.0
 20
0.0
 30
0.0
 70
   128
 71
    20
 72
    37
 73
     6
  0
VERTEX
  5
30B
  8
0
 62
   123
 10
0.0
 20
0.0
 30
0.0
 70
   128
 71
    38
 72
    40
 73
    39
  0
VERTEX
  5
30C
  8
0
 62
   123
 10
0.0
 20
0.0
 30
0.0
 70
   128
 71
    33
 72
    32
 73
    41
  0
VERTEX
  5
30D
  8
0
 62
   123
 10
0.0
 20
0.0
 30
0.0
 70
   128
 71
    34
 72
    33
 73
    42
  0
VERTEX
  5
30E
  8
0
 62
   123
 10
0.0
 20
0.0
 30
0.0
 70
   128
 71
    28
 72
    34
 73
    43
  0
VERTEX
  5
30F
  8
0
 62
   123
 10
0.0
 20
0.0
 30
0.0
 70
   128
 71
    28
 72
    21
 73
    34
  0
VERTEX
  5
310
  8
0
 62
   123
 10
0.0
 20
0.0
 30
0.0
 70
   128
 71
    45
 72
    43
 73
    44
  0
VERTEX
  5
311
  8
0
 62
   123
 10
0.0
 20
0.0
 30
0.0
 70
   128
 71
    46
 72
    28
 73
    43
  0
VERTEX
  5
312
  8
0
 62
   123
 10
0.0
 20
0.0
 30
0.0
 70
   128
 71
    44
 72
    48
 73
    47
  0
VERTEX
  5
313
  8
0
 62
   123
 10
0.0
 20
0.0
 30
0.0
 70
   128
 71
    43
 72
    45
 73
    46
  0
VERTEX
  5
314
  8
0
 62
   123
 10
0.0
 20
0.0
 30
0.0
 70
   128
 71
    50
 72
    49
 73
    48
  0
VERTEX
  5
315
  8
0
 62
   123
 10
0.0
 20
0.0
 30
0.0
 70
   128
 71
    47
 72
    45
 73
    44
  0
VERTEX
  5
316
  8
0
 62
   123
 10
0.0
 20
0.0
 30
0.0
 70
   128
 71
    50
 72
    29
 73
    51
  0
VERTEX
  5
317
  8
0
 62
   123
 10
0.0
 20
0.0
 30
0.0
 70
   128
 71
    47
 72
    48
 73
    49
  0
VERTEX
  5
318
  8
0
 62
   123
 10
0.0
 20
0.0
 30
0.0
 70
   128
 71
    53
 72
    52
 73
    29
  0
VERTEX
  5
319
  8
0
 62
   123
 10
0.0
 20
0.0
 30
0.0
 70
   128
 71
    31
 72
    29
 73
    50
  0
VERTEX
  5
31A
  8
0
 62
   123
 10
0.0
 20
0.0
 30
0.0
 70
   128
 71
    53
 72
    29
 73
    30
  0
VERTEX
  5
31B
  8
0
 62
   123
 10
0.0
 20
0.0
 30
0.0
 70
   128
 71
    53
 72
    54
 73
    52
  0
VERTEX
  5
31C
  8
0
 62
   123
 10
0.0
 20
0.0
 30
0.0
 70
   128
 71
    55
 72
    31
 73
    50
  0
VERTEX
  5
31D
  8
0
 62
   123
 10
0.0
 20
0.0
 30
0.0
 70
   128
 71
    29
 72
    52
 73
    51
  0
VERTEX
  5
31E
  8
0
 62
   123
 10
0.0
 20
0.0
 30
0.0
 70
   128
 71
    56
 72
    55
 73
    48
  0
VERTEX
  5
31F
  8
0
 62
   123
 10
0.0
 20
0.0
 30
0.0
 70
   128
 71
    50
 72
    51
 73
    49
  0
VERTEX
  5
320
  8
0
 62
   123
 10
0.0
 20
0.0
 30
0.0
 70
   128
 71
    50
 72
    48
 73
    55
  0
VERTEX
  5
321
  8
0
 62
   123
 10
0.0
 20
0.0
 30
0.0
 70
   128
 71
    57
 72
    56
 73
    44
  0
VERTEX
  5
322
  8
0
 62
   123
 10
0.0
 20
0.0
 30
0.0
 70
   128
 71
    48
 72
    44
 73
    56
  0
VERTEX
  5
323
  8
0
 62
   123
 10
0.0
 20
0.0
 30
0.0
 70
   128
 71
    58
 72
    57
 73
    43
  0
VERTEX
  5
324
  8
0
 62
   123
 10
0.0
 20
0.0
 30
0.0
 70
   128
 71
    44
 72
    43
 73
    57
  0
VERTEX
  5
325
  8
0
 62
   123
 10
0.0
 20
0.0
 30
0.0
 70
   128
 71
    34
 72
    42
 73
    58
  0
VERTEX
  5
326
  8
0
 62
   123
 10
0.0
 20
0.0
 30
0.0
 70
   128
 71
    41
 72
    42
 73
    33
  0
VERTEX
  5
327
  8
0
 62
   123
 10
0.0
 20
0.0
 30
0.0
 70
   128
 71
    43
 72
    34
 73
    58
  0
VERTEX
  5
328
  8
0
 62
   123
 10
0.0
 20
0.0
 30
0.0
 70
   128
 71
    59
 72
    41
 73
    32
  0
VERTEX
  5
329
  8
0
 62
   123
 10
0.0
 20
0.0
 30
0.0
 70
   128
 71
    33
 72
    21
 73
    22
  0
VERTEX
  5
32A
  8
0
 62
   123
 10
0.0
 20
0.0
 30
0.0
 70
   128
 71
    60
 72
    59
 73
    35
  0
VERTEX
  5
32B
  8
0
 62
   123
 10
0.0
 20
0.0
 30
0.0
 70
   128
 71
    32
 72
    22
 73
    24
  0
VERTEX
  5
32C
  8
0
 62
   123
 10
0.0
 20
0.0
 30
0.0
 70
   128
 71
    32
 72
    35
 73
    59
  0
VERTEX
  5
32D
  8
0
 62
   123
 10
0.0
 20
0.0
 30
0.0
 70
   128
 71
    61
 72
    60
 73
    36
  0
VERTEX
  5
32E
  8
0
 62
   123
 10
0.0
 20
0.0
 30
0.0
 70
   128
 71
    35
 72
    36
 73
    60
  0
VERTEX
  5
32F
  8
0
 62
   123
 10
0.0
 20
0.0
 30
0.0
 70
   128
 71
    39
 72
    61
 73
    37
  0
VERTEX
  5
330
  8
0
 62
   123
 10
0.0
 20
0.0
 30
0.0
 70
   128
 71
    36
 72
    37
 73
    61
  0
VERTEX
  5
331
  8
0
 62
   123
 10
0.0
 20
0.0
 30
0.0
 70
   128
 71
    39
 72
    37
 73
    38
  0
VERTEX
  5
332
  8
0
 62
   123
 10
0.0
 20
0.0
 30
0.0
 70
   128
 71
    63
 72
    30
 73
    62
  0
VERTEX
  5
333
  8
0
 62
   123
 10
0.0
 20
0.0
 30
0.0
 70
   128
 71
    66
 72
    65
 73
    64
  0
VERTEX
  5
334
  8
0
 62
   123
 10
0.0
 20
0.0
 30
0.0
 70
   128
 71
    69
 72
    68
 73
    67
  0
VERTEX
  5
335
  8
0
 62
   123
 10
0.0
 20
0.0
 30
0.0
 70
   128
 71
    72
 72
    71
 73
    70
  0
VERTEX
  5
336
  8
0
 62
   123
 10
0.0
 20
0.0
 30
0.0
 70
   128
 71
    74
 72
    62
 73
    73
  0
VERTEX
  5
337
  8
0
 62
   123
 10
0.0
 20
0.0
 30
0.0
 70
   128
 71
    77
 72
    76
 73
    75
  0
VERTEX
  5
338
  8
0
 62
   123
 10
0.0
 20
0.0
 30
0.0
 70
   128
 71
    71
 72
    72
 73
    78
  0
VERTEX
  5
339
  8
0
 62
   123
 10
0.0
 20
0.0
 30
0.0
 70
   128
 71
    81
 72
    80
 73
    79
  0
VERTEX
  5
33A
  8
0
 62
   123
 10
0.0
 20
0.0
 30
0.0
 70
   128
 71
    75
 72
    65
 73
    77
  0
VERTEX
  5
33B
  8
0
 62
   123
 10
0.0
 20
0.0
 30
0.0
 70
   128
 71
    84
 72
    83
 73
    82
  0
VERTEX
  5
33C
  8
0
 62
   123
 10
0.0
 20
0.0
 30
0.0
 70
   128
 71
    85
 72
    82
 73
    79
  0
VERTEX
  5
33D
  8
0
 62
   123
 10
0.0
 20
0.0
 30
0.0
 70
   128
 71
    86
 72
    84
 73
    82
  0
VERTEX
  5
33E
  8
0
 62
   123
 10
0.0
 20
0.0
 30
0.0
 70
   128
 71
    84
 72
    86
 73
    40
  0
VERTEX
  5
33F
  8
0
 62
   123
 10
0.0
 20
0.0
 30
0.0
 70
   128
 71
    82
 72
    87
 73
    86
  0
VERTEX
  5
340
  8
0
 62
   123
 10
0.0
 20
0.0
 30
0.0
 70
   128
 71
    81
 72
    64
 73
    80
  0
VERTEX
  5
341
  8
0
 62
   123
 10
0.0
 20
0.0
 30
0.0
 70
   128
 71
    64
 72
    81
 73
    66
  0
VERTEX
  5
342
  8
0
 62
   123
 10
0.0
 20
0.0
 30
0.0
 70
   128
 71
    76
 72
    88
 73
    75
  0
VERTEX
  5
343
  8
0
 62
   123
 10
0.0
 20
0.0
 30
0.0
 70
   128
 71
    66
 72
    77
 73
    65
  0
VERTEX
  5
344
  8
0
 62
   123
 10
0.0
 20
0.0
 30
0.0
 70
   128
 71
    89
 72
    74
 73
    73
  0
VERTEX
  5
345
  8
0
 62
   123
 10
0.0
 20
0.0
 30
0.0
 70
   128
 71
    88
 72
    90
 73
    78
  0
VERTEX
  5
346
  8
0
 62
   123
 10
0.0
 20
0.0
 30
0.0
 70
   128
 71
    90
 72
    71
 73
    78
  0
VERTEX
  5
347
  8
0
 62
   123
 10
0.0
 20
0.0
 30
0.0
 70
   128
 71
    76
 72
    90
 73
    88
  0
VERTEX
  5
348
  8
0
 62
   123
 10
0.0
 20
0.0
 30
0.0
 70
   128
 71
    72
 72
    70
 73
    89
  0
VERTEX
  5
349
  8
0
 62
   123
 10
0.0
 20
0.0
 30
0.0
 70
   128
 71
    70
 72
    74
 73
    89
  0
VERTEX
  5
34A
  8
0
 62
   123
 10
0.0
 20
0.0
 30
0.0
 70
   128
 71
    62
 72
    30
 73
    68
  0
VERTEX
  5
34B
  8
0
 62
   123
 10
0.0
 20
0.0
 30
0.0
 70
   128
 71
    69
 72
    73
 73
    62
  0
VERTEX
  5
34C
  8
0
 62
   123
 10
0.0
 20
0.0
 30
0.0
 70
   128
 71
    82
 72
    85
 73
    87
  0
VERTEX
  5
34D
  8
0
 62
   123
 10
0.0
 20
0.0
 30
0.0
 70
   128
 71
    79
 72
    80
 73
    85
  0
VERTEX
  5
34E
  8
0
 62
   123
 10
0.0
 20
0.0
 30
0.0
 70
   128
 71
    91
 72
    79
 73
    83
  0
VERTEX
  5
34F
  8
0
 62
   123
 10
0.0
 20
0.0
 30
0.0
 70
   128
 71
    83
 72
    79
 73
    82
  0
VERTEX
  5
350
  8
0
 62
   123
 10
0.0
 20
0.0
 30
0.0
 70
   128
 71
    92
 72
    81
 73
    91
  0
VERTEX
  5
351
  8
0
 62
   123
 10
0.0
 20
0.0
 30
0.0
 70
   128
 71
    91
 72
    81
 73
    79
  0
VERTEX
  5
352
  8
0
 62
   123
 10
0.0
 20
0.0
 30
0.0
 70
   128
 71
    93
 72
    66
 73
    92
  0
VERTEX
  5
353
  8
0
 62
   123
 10
0.0
 20
0.0
 30
0.0
 70
   128
 71
    92
 72
    66
 73
    81
  0
VERTEX
  5
354
  8
0
 62
   123
 10
0.0
 20
0.0
 30
0.0
 70
   128
 71
    94
 72
    77
 73
    93
  0
VERTEX
  5
355
  8
0
 62
   123
 10
0.0
 20
0.0
 30
0.0
 70
   128
 71
    93
 72
    77
 73
    66
  0
VERTEX
  5
356
  8
0
 62
   123
 10
0.0
 20
0.0
 30
0.0
 70
   128
 71
    95
 72
    76
 73
    94
  0
VERTEX
  5
357
  8
0
 62
   123
 10
0.0
 20
0.0
 30
0.0
 70
   128
 71
    94
 72
    76
 73
    77
  0
VERTEX
  5
358
  8
0
 62
   123
 10
0.0
 20
0.0
 30
0.0
 70
   128
 71
    96
 72
    90
 73
    95
  0
VERTEX
  5
359
  8
0
 62
   123
 10
0.0
 20
0.0
 30
0.0
 70
   128
 71
    95
 72
    90
 73
    76
  0
VERTEX
  5
35A
  8
0
 62
   123
 10
0.0
 20
0.0
 30
0.0
 70
   128
 71
    97
 72
    71
 73
    96
  0
VERTEX
  5
35B
  8
0
 62
   123
 10
0.0
 20
0.0
 30
0.0
 70
   128
 71
    96
 72
    71
 73
    90
  0
VERTEX
  5
35C
  8
0
 62
   123
 10
0.0
 20
0.0
 30
0.0
 70
   128
 71
    98
 72
    70
 73
    97
  0
VERTEX
  5
35D
  8
0
 62
   123
 10
0.0
 20
0.0
 30
0.0
 70
   128
 71
    97
 72
    70
 73
    71
  0
VERTEX
  5
35E
  8
0
 62
   123
 10
0.0
 20
0.0
 30
0.0
 70
   128
 71
    63
 72
    74
 73
    98
  0
VERTEX
  5
35F
  8
0
 62
   123
 10
0.0
 20
0.0
 30
0.0
 70
   128
 71
    98
 72
    74
 73
    70
  0
VERTEX
  5
360
  8
0
 62
   123
 10
0.0
 20
0.0
 30
0.0
 70
   128
 71
    62
 72
    74
 73
    63
  0
VERTEX
  5
361
  8
0
 62
   123
 10
0.0
 20
0.0
 30
0.0
 70
   128
 71
    69
 72
    62
 73
    68
  0
VERTEX
  5
362
  8
0
 62
   123
 10
0.0
 20
0.0
 30
0.0
 70
   128
 71
   101
 72
   100
 73
    99
  0
VERTEX
  5
363
  8
0
 62
   123
 10
0.0
 20
0.0
 30
0.0
 70
   128
 71
   104
 72
   103
 73
   102
  0
VERTEX
  5
364
  8
0
 62
   123
 10
0.0
 20
0.0
 30
0.0
 70
   128
 71
   106
 72
   105
 73
   104
  0
VERTEX
  5
365
  8
0
 62
   123
 10
0.0
 20
0.0
 30
0.0
 70
   128
 71
   108
 72
   102
 73
   107
  0
VERTEX
  5
366
  8
0
 62
   123
 10
0.0
 20
0.0
 30
0.0
 70
   128
 71
   103
 72
   107
 73
   102
  0
VERTEX
  5
367
  8
0
 62
   123
 10
0.0
 20
0.0
 30
0.0
 70
   128
 71
   111
 72
   110
 73
   109
  0
VERTEX
  5
368
  8
0
 62
   123
 10
0.0
 20
0.0
 30
0.0
 70
   128
 71
   114
 72
   113
 73
   112
  0
VERTEX
  5
369
  8
0
 62
   123
 10
0.0
 20
0.0
 30
0.0
 70
   128
 71
   114
 72
   111
 73
    87
  0
VERTEX
  5
36A
  8
0
 62
   123
 10
0.0
 20
0.0
 30
0.0
 70
   128
 71
   110
 72
   108
 73
   109
  0
VERTEX
  5
36B
  8
0
 62
   123
 10
0.0
 20
0.0
 30
0.0
 70
   128
 71
   107
 72
   109
 73
   108
  0
VERTEX
  5
36C
  8
0
 62
   123
 10
0.0
 20
0.0
 30
0.0
 70
   128
 71
    87
 72
   113
 73
   114
  0
VERTEX
  5
36D
  8
0
 62
   123
 10
0.0
 20
0.0
 30
0.0
 70
   128
 71
   113
 72
   115
 73
   112
  0
VERTEX
  5
36E
  8
0
 62
   123
 10
0.0
 20
0.0
 30
0.0
 70
   128
 71
   104
 72
   105
 73
   103
  0
VERTEX
  5
36F
  8
0
 62
   123
 10
0.0
 20
0.0
 30
0.0
 70
   128
 71
   116
 72
   105
 73
   106
  0
VERTEX
  5
370
  8
0
 62
   123
 10
0.0
 20
0.0
 30
0.0
 70
   128
 71
   118
 72
   117
 73
   116
  0
VERTEX
  5
371
  8
0
 62
   123
 10
0.0
 20
0.0
 30
0.0
 70
   128
 71
   118
 72
   116
 73
   106
  0
VERTEX
  5
372
  8
0
 62
   123
 10
0.0
 20
0.0
 30
0.0
 70
   128
 71
   120
 72
   117
 73
   119
  0
VERTEX
  5
373
  8
0
 62
   123
 10
0.0
 20
0.0
 30
0.0
 70
   128
 71
   117
 72
   118
 73
   119
  0
VERTEX
  5
374
  8
0
 62
   123
 10
0.0
 20
0.0
 30
0.0
 70
   128
 71
   120
 72
   122
 73
   121
  0
VERTEX
  5
375
  8
0
 62
   123
 10
0.0
 20
0.0
 30
0.0
 70
   128
 71
   119
 72
   122
 73
   120
  0
VERTEX
  5
376
  8
0
 62
   123
 10
0.0
 20
0.0
 30
0.0
 70
   128
 71
   124
 72
   123
 73
   121
  0
VERTEX
  5
377
  8
0
 62
   123
 10
0.0
 20
0.0
 30
0.0
 70
   128
 71
   124
 72
   121
 73
   122
  0
VERTEX
  5
378
  8
0
 62
   123
 10
0.0
 20
0.0
 30
0.0
 70
   128
 71
   125
 72
   123
 73
    99
  0
VERTEX
  5
379
  8
0
 62
   123
 10
0.0
 20
0.0
 30
0.0
 70
   128
 71
   123
 72
   124
 73
    99
  0
VERTEX
  5
37A
  8
0
 62
   123
 10
0.0
 20
0.0
 30
0.0
 70
   128
 71
    99
 72
   126
 73
   125
  0
VERTEX
  5
37B
  8
0
 62
   123
 10
0.0
 20
0.0
 30
0.0
 70
   128
 71
   126
 72
    67
 73
   125
  0
VERTEX
  5
37C
  8
0
 62
   123
 10
0.0
 20
0.0
 30
0.0
 70
   128
 71
   127
 72
   101
 73
   124
  0
VERTEX
  5
37D
  8
0
 62
   123
 10
0.0
 20
0.0
 30
0.0
 70
   128
 71
   126
 72
    99
 73
   100
  0
VERTEX
  5
37E
  8
0
 62
   123
 10
0.0
 20
0.0
 30
0.0
 70
   128
 71
   128
 72
   127
 73
   122
  0
VERTEX
  5
37F
  8
0
 62
   123
 10
0.0
 20
0.0
 30
0.0
 70
   128
 71
    99
 72
   124
 73
   101
  0
VERTEX
  5
380
  8
0
 62
   123
 10
0.0
 20
0.0
 30
0.0
 70
   128
 71
   129
 72
   128
 73
   119
  0
VERTEX
  5
381
  8
0
 62
   123
 10
0.0
 20
0.0
 30
0.0
 70
   128
 71
   124
 72
   122
 73
   127
  0
VERTEX
  5
382
  8
0
 62
   123
 10
0.0
 20
0.0
 30
0.0
 70
   128
 71
   130
 72
   129
 73
   118
  0
VERTEX
  5
383
  8
0
 62
   123
 10
0.0
 20
0.0
 30
0.0
 70
   128
 71
   122
 72
   119
 73
   128
  0
VERTEX
  5
384
  8
0
 62
   123
 10
0.0
 20
0.0
 30
0.0
 70
   128
 71
   131
 72
   130
 73
   106
  0
VERTEX
  5
385
  8
0
 62
   123
 10
0.0
 20
0.0
 30
0.0
 70
   128
 71
   119
 72
   118
 73
   129
  0
VERTEX
  5
386
  8
0
 62
   123
 10
0.0
 20
0.0
 30
0.0
 70
   128
 71
   132
 72
   131
 73
   104
  0
VERTEX
  5
387
  8
0
 62
   123
 10
0.0
 20
0.0
 30
0.0
 70
   128
 71
   118
 72
   106
 73
   130
  0
VERTEX
  5
388
  8
0
 62
   123
 10
0.0
 20
0.0
 30
0.0
 70
   128
 71
   133
 72
   132
 73
   102
  0
VERTEX
  5
389
  8
0
 62
   123
 10
0.0
 20
0.0
 30
0.0
 70
   128
 71
   106
 72
   104
 73
   131
  0
VERTEX
  5
38A
  8
0
 62
   123
 10
0.0
 20
0.0
 30
0.0
 70
   128
 71
   134
 72
   133
 73
   108
  0
VERTEX
  5
38B
  8
0
 62
   123
 10
0.0
 20
0.0
 30
0.0
 70
   128
 71
   104
 72
   102
 73
   132
  0
VERTEX
  5
38C
  8
0
 62
   123
 10
0.0
 20
0.0
 30
0.0
 70
   128
 71
   135
 72
   134
 73
   110
  0
VERTEX
  5
38D
  8
0
 62
   123
 10
0.0
 20
0.0
 30
0.0
 70
   128
 71
   102
 72
   108
 73
   133
  0
VERTEX
  5
38E
  8
0
 62
   123
 10
0.0
 20
0.0
 30
0.0
 70
   128
 71
   112
 72
   135
 73
   114
  0
VERTEX
  5
38F
  8
0
 62
   123
 10
0.0
 20
0.0
 30
0.0
 70
   128
 71
   108
 72
   110
 73
   134
  0
VERTEX
  5
390
  8
0
 62
   123
 10
0.0
 20
0.0
 30
0.0
 70
   128
 71
   110
 72
   114
 73
   135
  0
VERTEX
  5
391
  8
0
 62
   123
 10
0.0
 20
0.0
 30
0.0
 70
   128
 71
   114
 72
   110
 73
   111
  0
VERTEX
  5
392
  8
0
 62
   123
 10
0.0
 20
0.0
 30
0.0
 70
   128
 71
   138
 72
   137
 73
   136
  0
VERTEX
  5
393
  8
0
 62
   123
 10
0.0
 20
0.0
 30
0.0
 70
   128
 71
   141
 72
   140
 73
   139
  0
VERTEX
  5
394
  8
0
 62
   123
 10
0.0
 20
0.0
 30
0.0
 70
   128
 71
   144
 72
   143
 73
   142
  0
VERTEX
  5
395
  8
0
 62
   123
 10
0.0
 20
0.0
 30
0.0
 70
   128
 71
   143
 72
   136
 73
   137
  0
VERTEX
  5
396
  8
0
 62
   123
 10
0.0
 20
0.0
 30
0.0
 70
   128
 71
   138
 72
   145
 73
   137
  0
VERTEX
  5
397
  8
0
 62
   123
 10
0.0
 20
0.0
 30
0.0
 70
   128
 71
   148
 72
   147
 73
   146
  0
VERTEX
  5
398
  8
0
 62
   123
 10
0.0
 20
0.0
 30
0.0
 70
   128
 71
   151
 72
   150
 73
   149
  0
VERTEX
  5
399
  8
0
 62
   123
 10
0.0
 20
0.0
 30
0.0
 70
   128
 71
   153
 72
   148
 73
   152
  0
VERTEX
  5
39A
  8
0
 62
   123
 10
0.0
 20
0.0
 30
0.0
 70
   128
 71
   155
 72
   154
 73
   140
  0
VERTEX
  5
39B
  8
0
 62
   123
 10
0.0
 20
0.0
 30
0.0
 70
   128
 71
   156
 72
   141
 73
   139
  0
VERTEX
  5
39C
  8
0
 62
   123
 10
0.0
 20
0.0
 30
0.0
 70
   128
 71
   159
 72
   158
 73
   157
  0
VERTEX
  5
39D
  8
0
 62
   123
 10
0.0
 20
0.0
 30
0.0
 70
   128
 71
   160
 72
   159
 73
   157
  0
VERTEX
  5
39E
  8
0
 62
   123
 10
0.0
 20
0.0
 30
0.0
 70
   128
 71
   160
 72
   154
 73
   161
  0
VERTEX
  5
39F
  8
0
 62
   123
 10
0.0
 20
0.0
 30
0.0
 70
   128
 71
   163
 72
   162
 73
   157
  0
VERTEX
  5
3A0
  8
0
 62
   123
 10
0.0
 20
0.0
 30
0.0
 70
   128
 71
   155
 72
   140
 73
   141
  0
VERTEX
  5
3A1
  8
0
 62
   123
 10
0.0
 20
0.0
 30
0.0
 70
   128
 71
   159
 72
   115
 73
   158
  0
VERTEX
  5
3A2
  8
0
 62
   123
 10
0.0
 20
0.0
 30
0.0
 70
   128
 71
   164
 72
   149
 73
   150
  0
VERTEX
  5
3A3
  8
0
 62
   123
 10
0.0
 20
0.0
 30
0.0
 70
   128
 71
   151
 72
   149
 73
   156
  0
VERTEX
  5
3A4
  8
0
 62
   123
 10
0.0
 20
0.0
 30
0.0
 70
   128
 71
   151
 72
   156
 73
   139
  0
VERTEX
  5
3A5
  8
0
 62
   123
 10
0.0
 20
0.0
 30
0.0
 70
   128
 71
   150
 72
   153
 73
   164
  0
VERTEX
  5
3A6
  8
0
 62
   123
 10
0.0
 20
0.0
 30
0.0
 70
   128
 71
   147
 72
   138
 73
   165
  0
VERTEX
  5
3A7
  8
0
 62
   123
 10
0.0
 20
0.0
 30
0.0
 70
   128
 71
   164
 72
   153
 73
   152
  0
VERTEX
  5
3A8
  8
0
 62
   123
 10
0.0
 20
0.0
 30
0.0
 70
   128
 71
   147
 72
   165
 73
   146
  0
VERTEX
  5
3A9
  8
0
 62
   123
 10
0.0
 20
0.0
 30
0.0
 70
   128
 71
   152
 72
   148
 73
   146
  0
VERTEX
  5
3AA
  8
0
 62
   123
 10
0.0
 20
0.0
 30
0.0
 70
   128
 71
   100
 72
   166
 73
   145
  0
VERTEX
  5
3AB
  8
0
 62
   123
 10
0.0
 20
0.0
 30
0.0
 70
   128
 71
   136
 72
   165
 73
   138
  0
VERTEX
  5
3AC
  8
0
 62
   123
 10
0.0
 20
0.0
 30
0.0
 70
   128
 71
   137
 72
   145
 73
   166
  0
VERTEX
  5
3AD
  8
0
 62
   123
 10
0.0
 20
0.0
 30
0.0
 70
   128
 71
   154
 72
   162
 73
   140
  0
VERTEX
  5
3AE
  8
0
 62
   123
 10
0.0
 20
0.0
 30
0.0
 70
   128
 71
   154
 72
   155
 73
   161
  0
VERTEX
  5
3AF
  8
0
 62
   123
 10
0.0
 20
0.0
 30
0.0
 70
   128
 71
   157
 72
   162
 73
   154
  0
VERTEX
  5
3B0
  8
0
 62
   123
 10
0.0
 20
0.0
 30
0.0
 70
   128
 71
   140
 72
   167
 73
   139
  0
VERTEX
  5
3B1
  8
0
 62
   123
 10
0.0
 20
0.0
 30
0.0
 70
   128
 71
   162
 72
   167
 73
   140
  0
VERTEX
  5
3B2
  8
0
 62
   123
 10
0.0
 20
0.0
 30
0.0
 70
   128
 71
   139
 72
   168
 73
   151
  0
VERTEX
  5
3B3
  8
0
 62
   123
 10
0.0
 20
0.0
 30
0.0
 70
   128
 71
   167
 72
   168
 73
   139
  0
VERTEX
  5
3B4
  8
0
 62
   123
 10
0.0
 20
0.0
 30
0.0
 70
   128
 71
   151
 72
   169
 73
   150
  0
VERTEX
  5
3B5
  8
0
 62
   123
 10
0.0
 20
0.0
 30
0.0
 70
   128
 71
   168
 72
   169
 73
   151
  0
VERTEX
  5
3B6
  8
0
 62
   123
 10
0.0
 20
0.0
 30
0.0
 70
   128
 71
   150
 72
   170
 73
   153
  0
VERTEX
  5
3B7
  8
0
 62
   123
 10
0.0
 20
0.0
 30
0.0
 70
   128
 71
   169
 72
   170
 73
   150
  0
VERTEX
  5
3B8
  8
0
 62
   123
 10
0.0
 20
0.0
 30
0.0
 70
   128
 71
   153
 72
   171
 73
   148
  0
VERTEX
  5
3B9
  8
0
 62
   123
 10
0.0
 20
0.0
 30
0.0
 70
   128
 71
   170
 72
   171
 73
   153
  0
VERTEX
  5
3BA
  8
0
 62
   123
 10
0.0
 20
0.0
 30
0.0
 70
   128
 71
   147
 72
   148
 73
   172
  0
VERTEX
  5
3BB
  8
0
 62
   123
 10
0.0
 20
0.0
 30
0.0
 70
   128
 71
   171
 72
   172
 73
   148
  0
VERTEX
  5
3BC
  8
0
 62
   123
 10
0.0
 20
0.0
 30
0.0
 70
   128
 71
   138
 72
   147
 73
   173
  0
VERTEX
  5
3BD
  8
0
 62
   123
 10
0.0
 20
0.0
 30
0.0
 70
   128
 71
   173
 72
   147
 73
   172
  0
VERTEX
  5
3BE
  8
0
 62
   123
 10
0.0
 20
0.0
 30
0.0
 70
   128
 71
   142
 72
   143
 73
   137
  0
VERTEX
  5
3BF
  8
0
 62
   123
 10
0.0
 20
0.0
 30
0.0
 70
   128
 71
   173
 72
   145
 73
   138
  0
VERTEX
  5
3C0
  8
0
 62
   123
 10
0.0
 20
0.0
 30
0.0
 70
   128
 71
   142
 72
   137
 73
   166
  0
VERTEX
  5
3C1
  8
0
 62
   123
 10
0.0
 20
0.0
 30
0.0
 70
   128
 71
   154
 72
   160
 73
   157
  0
VERTEX
  5
3C2
  8
0
 62
   123
 10
0.0
 20
0.0
 30
0.0
 70
   128
 71
   163
 72
   157
 73
   158
  0
VERTEX
  5
3C3
  8
0
 62
   123
 10
0.0
 20
0.0
 30
0.0
 70
   128
 71
   174
 72
   162
 73
   163
  0
VERTEX
  5
3C4
  8
0
 62
   123
 10
0.0
 20
0.0
 30
0.0
 70
   128
 71
   174
 72
   167
 73
   162
  0
VERTEX
  5
3C5
  8
0
 62
   123
 10
0.0
 20
0.0
 30
0.0
 70
   128
 71
   175
 72
   167
 73
   174
  0
VERTEX
  5
3C6
  8
0
 62
   123
 10
0.0
 20
0.0
 30
0.0
 70
   128
 71
   176
 72
   168
 73
   175
  0
VERTEX
  5
3C7
  8
0
 62
   123
 10
0.0
 20
0.0
 30
0.0
 70
   128
 71
   168
 72
   167
 73
   175
  0
VERTEX
  5
3C8
  8
0
 62
   123
 10
0.0
 20
0.0
 30
0.0
 70
   128
 71
   177
 72
   169
 73
   176
  0
VERTEX
  5
3C9
  8
0
 62
   123
 10
0.0
 20
0.0
 30
0.0
 70
   128
 71
   169
 72
   168
 73
   176
  0
VERTEX
  5
3CA
  8
0
 62
   123
 10
0.0
 20
0.0
 30
0.0
 70
   128
 71
   178
 72
   170
 73
   177
  0
VERTEX
  5
3CB
  8
0
 62
   123
 10
0.0
 20
0.0
 30
0.0
 70
   128
 71
   170
 72
   169
 73
   177
  0
VERTEX
  5
3CC
  8
0
 62
   123
 10
0.0
 20
0.0
 30
0.0
 70
   128
 71
   179
 72
   171
 73
   178
  0
VERTEX
  5
3CD
  8
0
 62
   123
 10
0.0
 20
0.0
 30
0.0
 70
   128
 71
   171
 72
   170
 73
   178
  0
VERTEX
  5
3CE
  8
0
 62
   123
 10
0.0
 20
0.0
 30
0.0
 70
   128
 71
   180
 72
   172
 73
   179
  0
VERTEX
  5
3CF
  8
0
 62
   123
 10
0.0
 20
0.0
 30
0.0
 70
   128
 71
   172
 72
   171
 73
   179
  0
VERTEX
  5
3D0
  8
0
 62
   123
 10
0.0
 20
0.0
 30
0.0
 70
   128
 71
   180
 72
   181
 73
   173
  0
VERTEX
  5
3D1
  8
0
 62
   123
 10
0.0
 20
0.0
 30
0.0
 70
   128
 71
   173
 72
   172
 73
   180
  0
VERTEX
  5
3D2
  8
0
 62
   123
 10
0.0
 20
0.0
 30
0.0
 70
   128
 71
   181
 72
   182
 73
   145
  0
VERTEX
  5
3D3
  8
0
 62
   123
 10
0.0
 20
0.0
 30
0.0
 70
   128
 71
   145
 72
   173
 73
   181
  0
VERTEX
  5
3D4
  8
0
 62
   123
 10
0.0
 20
0.0
 30
0.0
 70
   128
 71
   182
 72
   100
 73
   145
  0
VERTEX
  5
3D5
  8
0
 62
   123
 10
0.0
 20
0.0
 30
0.0
 70
   128
 71
   185
 72
   184
 73
   183
  0
VERTEX
  5
3D6
  8
0
 62
   123
 10
0.0
 20
0.0
 30
0.0
 70
   128
 71
   186
 72
   185
 73
   184
  0
VERTEX
  5
3D7
  8
0
 62
   123
 10
0.0
 20
0.0
 30
0.0
 70
   128
 71
   189
 72
   188
 73
   187
  0
VERTEX
  5
3D8
  8
0
 62
   123
 10
0.0
 20
0.0
 30
0.0
 70
   128
 71
   189
 72
   190
 73
   184
  0
VERTEX
  5
3D9
  8
0
 62
   123
 10
0.0
 20
0.0
 30
0.0
 70
   128
 71
   191
 72
   187
 73
   188
  0
VERTEX
  5
3DA
  8
0
 62
   123
 10
0.0
 20
0.0
 30
0.0
 70
   128
 71
   193
 72
   192
 73
   191
  0
VERTEX
  5
3DB
  8
0
 62
   123
 10
0.0
 20
0.0
 30
0.0
 70
   128
 71
   188
 72
   193
 73
   191
  0
VERTEX
  5
3DC
  8
0
 62
   123
 10
0.0
 20
0.0
 30
0.0
 70
   128
 71
   193
 72
   161
 73
   192
  0
VERTEX
  5
3DD
  8
0
 62
   123
 10
0.0
 20
0.0
 30
0.0
 70
   128
 71
   187
 72
   190
 73
   189
  0
VERTEX
  5
3DE
  8
0
 62
   123
 10
0.0
 20
0.0
 30
0.0
 70
   128
 71
   185
 72
   186
 73
   194
  0
VERTEX
  5
3DF
  8
0
 62
   123
 10
0.0
 20
0.0
 30
0.0
 70
   128
 71
   183
 72
   186
 73
   185
  0
VERTEX
  5
3E0
  8
0
 62
   123
 10
0.0
 20
0.0
 30
0.0
 70
   128
 71
   196
 72
   195
 73
   194
  0
VERTEX
  5
3E1
  8
0
 62
   123
 10
0.0
 20
0.0
 30
0.0
 70
   128
 71
   185
 72
   194
 73
   195
  0
VERTEX
  5
3E2
  8
0
 62
   123
 10
0.0
 20
0.0
 30
0.0
 70
   128
 71
   197
 72
   195
 73
   196
  0
VERTEX
  5
3E3
  8
0
 62
   123
 10
0.0
 20
0.0
 30
0.0
 70
   128
 71
   196
 72
   198
 73
   197
  0
VERTEX
  5
3E4
  8
0
 62
   123
 10
0.0
 20
0.0
 30
0.0
 70
   128
 71
   198
 72
   199
 73
   197
  0
VERTEX
  5
3E5
  8
0
 62
   123
 10
0.0
 20
0.0
 30
0.0
 70
   128
 71
   144
 72
   199
 73
   200
  0
VERTEX
  5
3E6
  8
0
 62
   123
 10
0.0
 20
0.0
 30
0.0
 70
   128
 71
   200
 72
   199
 73
   198
  0
VERTEX
  5
3E7
  8
0
 62
   123
 10
0.0
 20
0.0
 30
0.0
 70
   128
 71
   184
 72
   183
 73
   186
  0
VERTEX
  5
3E8
  8
0
 62
   123
 10
0.0
 20
0.0
 30
0.0
 70
   128
 71
   183
 72
   184
 73
   190
  0
VERTEX
  5
3E9
  8
0
 62
   123
 10
0.0
 20
0.0
 30
0.0
 70
   128
 71
   202
 72
   201
 73
   186
  0
VERTEX
  5
3EA
  8
0
 62
   123
 10
0.0
 20
0.0
 30
0.0
 70
   128
 71
   183
 72
   201
 73
   203
  0
VERTEX
  5
3EB
  8
0
 62
   123
 10
0.0
 20
0.0
 30
0.0
 70
   128
 71
   186
 72
   194
 73
   202
  0
VERTEX
  5
3EC
  8
0
 62
   123
 10
0.0
 20
0.0
 30
0.0
 70
   128
 71
   194
 72
   196
 73
   204
  0
VERTEX
  5
3ED
  8
0
 62
   123
 10
0.0
 20
0.0
 30
0.0
 70
   128
 71
   204
 72
   202
 73
   194
  0
VERTEX
  5
3EE
  8
0
 62
   123
 10
0.0
 20
0.0
 30
0.0
 70
   128
 71
   204
 72
   205
 73
   198
  0
VERTEX
  5
3EF
  8
0
 62
   123
 10
0.0
 20
0.0
 30
0.0
 70
   128
 71
   196
 72
   198
 73
   204
  0
VERTEX
  5
3F0
  8
0
 62
   123
 10
0.0
 20
0.0
 30
0.0
 70
   128
 71
   205
 72
   204
 73
   198
  0
VERTEX
  5
3F1
  8
0
 62
   123
 10
0.0
 20
0.0
 30
0.0
 70
   128
 71
   204
 72
   196
 73
   202
  0
VERTEX
  5
3F2
  8
0
 62
   123
 10
0.0
 20
0.0
 30
0.0
 70
   128
 71
   205
 72
   200
 73
   144
  0
VERTEX
  5
3F3
  8
0
 62
   123
 10
0.0
 20
0.0
 30
0.0
 70
   128
 71
   201
 72
   183
 73
   203
  0
VERTEX
  5
3F4
  8
0
 62
   123
 10
0.0
 20
0.0
 30
0.0
 70
   128
 71
   190
 72
   203
 73
   187
  0
VERTEX
  5
3F5
  8
0
 62
   123
 10
0.0
 20
0.0
 30
0.0
 70
   128
 71
   190
 72
   183
 73
   203
  0
VERTEX
  5
3F6
  8
0
 62
   123
 10
0.0
 20
0.0
 30
0.0
 70
   128
 71
   190
 72
   203
 73
   206
  0
VERTEX
  5
3F7
  8
0
 62
   123
 10
0.0
 20
0.0
 30
0.0
 70
   128
 71
   187
 72
   203
 73
   206
  0
VERTEX
  5
3F8
  8
0
 62
   123
 10
0.0
 20
0.0
 30
0.0
 70
   128
 71
   206
 72
   191
 73
   187
  0
VERTEX
  5
3F9
  8
0
 62
   123
 10
0.0
 20
0.0
 30
0.0
 70
   128
 71
   206
 72
   207
 73
   191
  0
VERTEX
  5
3FA
  8
0
 62
   123
 10
0.0
 20
0.0
 30
0.0
 70
   128
 71
   207
 72
   161
 73
   192
  0
VERTEX
  5
3FB
  8
0
 62
   123
 10
0.0
 20
0.0
 30
0.0
 70
   128
 71
   192
 72
   191
 73
   207
  0
VERTEX
  5
3FC
  8
0
 62
   123
 10
0.0
 20
0.0
 30
0.0
 70
   128
 71
   207
 72
   206
 73
   191
  0
VERTEX
  5
3FD
  8
0
 62
   123
 10
0.0
 20
0.0
 30
0.0
 70
   128
 71
   187
 72
   206
 73
   190
  0
VERTEX
  5
3FE
  8
0
 62
   123
 10
0.0
 20
0.0
 30
0.0
 70
   128
 71
   186
 72
   201
 73
   183
  0
VERTEX
  5
3FF
  8
0
 62
   123
 10
0.0
 20
0.0
 30
0.0
 70
   128
 71
   201
 72
   202
 73
   186
  0
VERTEX
  5
400
  8
0
 62
   123
 10
0.0
 20
0.0
 30
0.0
 70
   128
 71
   202
 72
   194
 73
   196
  0
VERTEX
  5
401
  8
0
 62
   123
 10
0.0
 20
0.0
 30
0.0
 70
   128
 71
   200
 72
   205
 73
   198
  0
VERTEX
  5
402
  8
0
 62
   123
 10
0.0
 20
0.0
 30
0.0
 70
   128
 71
   209
 72
     5
 73
   208
  0
VERTEX
  5
403
  8
0
 62
   123
 10
0.0
 20
0.0
 30
0.0
 70
   128
 71
    11
 72
    10
 73
    14
  0
VERTEX
  5
404
  8
0
 62
   123
 10
0.0
 20
0.0
 30
0.0
 70
   128
 71
    14
 72
    10
 73
     1
  0
VERTEX
  5
405
  8
0
 62
   123
 10
0.0
 20
0.0
 30
0.0
 70
   128
 71
     4
 72
   209
 73
    11
  0
VERTEX
  5
406
  8
0
 62
   123
 10
0.0
 20
0.0
 30
0.0
 70
   128
 71
    13
 72
    14
 73
     1
  0
VERTEX
  5
407
  8
0
 62
   123
 10
0.0
 20
0.0
 30
0.0
 70
   128
 71
     8
 72
     1
 73
    10
  0
VERTEX
  5
408
  8
0
 62
   123
 10
0.0
 20
0.0
 30
0.0
 70
   128
 71
     4
 72
    11
 73
    14
  0
VERTEX
  5
409
  8
0
 62
   123
 10
0.0
 20
0.0
 30
0.0
 70
   128
 71
   208
 72
     5
 73
    19
  0
VERTEX
  5
40A
  8
0
 62
   123
 10
0.0
 20
0.0
 30
0.0
 70
   128
 71
     5
 72
   209
 73
     4
  0
VERTEX
  5
40B
  8
0
 62
   123
 10
0.0
 20
0.0
 30
0.0
 70
   128
 71
   210
 72
   208
 73
    25
  0
VERTEX
  5
40C
  8
0
 62
   123
 10
0.0
 20
0.0
 30
0.0
 70
   128
 71
    19
 72
    25
 73
   208
  0
VERTEX
  5
40D
  8
0
 62
   123
 10
0.0
 20
0.0
 30
0.0
 70
   128
 71
    26
 72
   210
 73
    25
  0
VERTEX
  5
40E
  8
0
 62
   123
 10
0.0
 20
0.0
 30
0.0
 70
   128
 71
   212
 72
    26
 73
   211
  0
VERTEX
  5
40F
  8
0
 62
   123
 10
0.0
 20
0.0
 30
0.0
 70
   128
 71
   212
 72
   210
 73
    26
  0
VERTEX
  5
410
  8
0
 62
   123
 10
0.0
 20
0.0
 30
0.0
 70
   128
 71
    26
 72
    23
 73
   211
  0
VERTEX
  5
411
  8
0
 62
   123
 10
0.0
 20
0.0
 30
0.0
 70
   128
 71
   213
 72
    23
 73
    27
  0
VERTEX
  5
412
  8
0
 62
   123
 10
0.0
 20
0.0
 30
0.0
 70
   128
 71
    23
 72
   213
 73
   211
  0
VERTEX
  5
413
  8
0
 62
   123
 10
0.0
 20
0.0
 30
0.0
 70
   128
 71
   216
 72
   215
 73
   214
  0
VERTEX
  5
414
  8
0
 62
   123
 10
0.0
 20
0.0
 30
0.0
 70
   128
 71
   215
 72
   213
 73
    27
  0
VERTEX
  5
415
  8
0
 62
   123
 10
0.0
 20
0.0
 30
0.0
 70
   128
 71
   218
 72
   214
 73
   217
  0
VERTEX
  5
416
  8
0
 62
   123
 10
0.0
 20
0.0
 30
0.0
 70
   128
 71
   215
 72
   217
 73
   214
  0
VERTEX
  5
417
  8
0
 62
   123
 10
0.0
 20
0.0
 30
0.0
 70
   128
 71
   215
 72
    27
 73
   217
  0
VERTEX
  5
418
  8
0
 62
   123
 10
0.0
 20
0.0
 30
0.0
 70
   128
 71
   220
 72
   219
 73
   146
  0
VERTEX
  5
419
  8
0
 62
   123
 10
0.0
 20
0.0
 30
0.0
 70
   128
 71
   143
 72
   136
 73
   221
  0
VERTEX
  5
41A
  8
0
 62
   123
 10
0.0
 20
0.0
 30
0.0
 70
   128
 71
   143
 72
   221
 73
   144
  0
VERTEX
  5
41B
  8
0
 62
   123
 10
0.0
 20
0.0
 30
0.0
 70
   128
 71
   146
 72
   152
 73
   220
  0
VERTEX
  5
41C
  8
0
 62
   123
 10
0.0
 20
0.0
 30
0.0
 70
   128
 71
   223
 72
   149
 73
   222
  0
VERTEX
  5
41D
  8
0
 62
   123
 10
0.0
 20
0.0
 30
0.0
 70
   128
 71
   149
 72
   223
 73
   164
  0
VERTEX
  5
41E
  8
0
 62
   123
 10
0.0
 20
0.0
 30
0.0
 70
   128
 71
   141
 72
   222
 73
   224
  0
VERTEX
  5
41F
  8
0
 62
   123
 10
0.0
 20
0.0
 30
0.0
 70
   128
 71
   222
 72
   156
 73
   141
  0
VERTEX
  5
420
  8
0
 62
   123
 10
0.0
 20
0.0
 30
0.0
 70
   128
 71
   141
 72
   224
 73
   222
  0
VERTEX
  5
421
  8
0
 62
   123
 10
0.0
 20
0.0
 30
0.0
 70
   128
 71
   161
 72
   224
 73
   155
  0
VERTEX
  5
422
  8
0
 62
   123
 10
0.0
 20
0.0
 30
0.0
 70
   128
 71
   149
 72
   156
 73
   222
  0
VERTEX
  5
423
  8
0
 62
   123
 10
0.0
 20
0.0
 30
0.0
 70
   128
 71
   152
 72
   225
 73
   220
  0
VERTEX
  5
424
  8
0
 62
   123
 10
0.0
 20
0.0
 30
0.0
 70
   128
 71
   225
 72
   164
 73
   223
  0
VERTEX
  5
425
  8
0
 62
   123
 10
0.0
 20
0.0
 30
0.0
 70
   128
 71
   223
 72
   222
 73
   156
  0
VERTEX
  5
426
  8
0
 62
   123
 10
0.0
 20
0.0
 30
0.0
 70
   128
 71
   152
 72
   220
 73
   225
  0
VERTEX
  5
427
  8
0
 62
   123
 10
0.0
 20
0.0
 30
0.0
 70
   128
 71
   165
 72
   219
 73
   136
  0
VERTEX
  5
428
  8
0
 62
   123
 10
0.0
 20
0.0
 30
0.0
 70
   128
 71
   165
 72
   146
 73
   220
  0
VERTEX
  5
429
  8
0
 62
   123
 10
0.0
 20
0.0
 30
0.0
 70
   128
 71
   165
 72
   220
 73
   219
  0
VERTEX
  5
42A
  8
0
 62
   123
 10
0.0
 20
0.0
 30
0.0
 70
   128
 71
   221
 72
   219
 73
   136
  0
VERTEX
  5
42B
  8
0
 62
   123
 10
0.0
 20
0.0
 30
0.0
 70
   128
 71
   136
 72
   219
 73
   221
  0
VERTEX
  5
42C
  8
0
 62
   123
 10
0.0
 20
0.0
 30
0.0
 70
   128
 71
   165
 72
   219
 73
   146
  0
VERTEX
  5
42D
  8
0
 62
   123
 10
0.0
 20
0.0
 30
0.0
 70
   128
 71
   164
 72
   225
 73
   152
  0
VERTEX
  5
42E
  8
0
 62
   123
 10
0.0
 20
0.0
 30
0.0
 70
   128
 71
   225
 72
   223
 73
   164
  0
VERTEX
  5
42F
  8
0
 62
   123
 10
0.0
 20
0.0
 30
0.0
 70
   128
 71
   223
 72
   149
 73
   156
  0
VERTEX
  5
430
  8
0
 62
   123
 10
0.0
 20
0.0
 30
0.0
 70
   128
 71
   155
 72
   224
 73
   141
  0
VERTEX
  5
431
  8
0
 62
   123
 10
0.0
 20
0.0
 30
0.0
 70
   128
 71
   226
 72
   155
 73
   161
  0
VERTEX
  5
432
  8
0
 62
   123
 10
0.0
 20
0.0
 30
0.0
 70
   128
 71
   227
 72
   152
 73
   164
  0
VERTEX
  5
433
  8
0
 62
   123
 10
0.0
 20
0.0
 30
0.0
 70
   128
 71
   228
 72
   149
 73
   156
  0
VERTEX
  5
434
  8
0
 62
   123
 10
0.0
 20
0.0
 30
0.0
 70
   128
 71
   229
 72
   141
 73
   226
  0
VERTEX
  5
435
  8
0
 62
   123
 10
0.0
 20
0.0
 30
0.0
 70
   128
 71
   231
 72
   230
 73
   165
  0
VERTEX
  5
436
  8
0
 62
   123
 10
0.0
 20
0.0
 30
0.0
 70
   128
 71
   146
 72
   231
 73
   165
  0
VERTEX
  5
437
  8
0
 62
   123
 10
0.0
 20
0.0
 30
0.0
 70
   128
 71
   136
 72
   230
 73
   232
  0
VERTEX
  5
438
  8
0
 62
   123
 10
0.0
 20
0.0
 30
0.0
 70
   128
 71
   230
 72
   136
 73
   165
  0
VERTEX
  5
439
  8
0
 62
   123
 10
0.0
 20
0.0
 30
0.0
 70
   128
 71
   232
 72
   144
 73
   143
  0
VERTEX
  5
43A
  8
0
 62
   123
 10
0.0
 20
0.0
 30
0.0
 70
   128
 71
   136
 72
   232
 73
   143
  0
VERTEX
  5
43B
  8
0
 62
   123
 10
0.0
 20
0.0
 30
0.0
 70
   128
 71
   231
 72
   146
 73
   233
  0
VERTEX
  5
43C
  8
0
 62
   123
 10
0.0
 20
0.0
 30
0.0
 70
   128
 71
   228
 72
   156
 73
   229
  0
VERTEX
  5
43D
  8
0
 62
   123
 10
0.0
 20
0.0
 30
0.0
 70
   128
 71
   233
 72
   152
 73
   227
  0
VERTEX
  5
43E
  8
0
 62
   123
 10
0.0
 20
0.0
 30
0.0
 70
   128
 71
   164
 72
   149
 73
   227
  0
VERTEX
  5
43F
  8
0
 62
   123
 10
0.0
 20
0.0
 30
0.0
 70
   128
 71
   164
 72
   227
 73
   233
  0
VERTEX
  5
440
  8
0
 62
   123
 10
0.0
 20
0.0
 30
0.0
 70
   128
 71
   227
 72
   149
 73
   228
  0
VERTEX
  5
441
  8
0
 62
   123
 10
0.0
 20
0.0
 30
0.0
 70
   128
 71
   141
 72
   155
 73
   226
  0
VERTEX
  5
442
  8
0
 62
   123
 10
0.0
 20
0.0
 30
0.0
 70
   128
 71
   141
 72
   229
 73
   156
  0
VERTEX
  5
443
  8
0
 62
   123
 10
0.0
 20
0.0
 30
0.0
 70
   128
 71
   233
 72
   152
 73
   164
  0
VERTEX
  5
444
  8
0
 62
   123
 10
0.0
 20
0.0
 30
0.0
 70
   128
 71
   152
 72
   233
 73
   146
  0
VERTEX
  5
445
  8
0
 62
   123
 10
0.0
 20
0.0
 30
0.0
 70
   128
 71
   196
 72
   235
 73
   234
  0
VERTEX
  5
446
  8
0
 62
   123
 10
0.0
 20
0.0
 30
0.0
 70
   128
 71
   200
 72
   236
 73
   198
  0
VERTEX
  5
447
  8
0
 62
   123
 10
0.0
 20
0.0
 30
0.0
 70
   128
 71
   198
 72
   235
 73
   196
  0
VERTEX
  5
448
  8
0
 62
   123
 10
0.0
 20
0.0
 30
0.0
 70
   128
 71
   196
 72
   234
 73
   194
  0
VERTEX
  5
449
  8
0
 62
   123
 10
0.0
 20
0.0
 30
0.0
 70
   128
 71
   235
 72
   198
 73
   236
  0
VERTEX
  5
44A
  8
0
 62
   123
 10
0.0
 20
0.0
 30
0.0
 70
   128
 71
   166
 72
   100
 73
   101
  0
VERTEX
  5
44B
  8
0
 62
   123
 10
0.0
 20
0.0
 30
0.0
 70
   128
 71
   166
 72
   101
 73
   237
  0
VERTEX
  5
44C
  8
0
 62
   123
 10
0.0
 20
0.0
 30
0.0
 70
   128
 71
   166
 72
   237
 73
   142
  0
VERTEX
  5
44D
  8
0
 62
   123
 10
0.0
 20
0.0
 30
0.0
 70
   128
 71
   127
 72
   238
 73
   237
  0
VERTEX
  5
44E
  8
0
 62
   123
 10
0.0
 20
0.0
 30
0.0
 70
   128
 71
   200
 72
   239
 73
   236
  0
VERTEX
  5
44F
  8
0
 62
   123
 10
0.0
 20
0.0
 30
0.0
 70
   128
 71
   144
 72
   142
 73
   239
  0
VERTEX
  5
450
  8
0
 62
   123
 10
0.0
 20
0.0
 30
0.0
 70
   128
 71
   186
 72
   194
 73
   240
  0
VERTEX
  5
451
  8
0
 62
   123
 10
0.0
 20
0.0
 30
0.0
 70
   128
 71
   240
 72
   194
 73
   234
  0
VERTEX
  5
452
  8
0
 62
   123
 10
0.0
 20
0.0
 30
0.0
 70
   128
 71
   241
 72
   186
 73
   240
  0
VERTEX
  5
453
  8
0
 62
   123
 10
0.0
 20
0.0
 30
0.0
 70
   128
 71
   183
 72
   241
 73
   242
  0
VERTEX
  5
454
  8
0
 62
   123
 10
0.0
 20
0.0
 30
0.0
 70
   128
 71
   241
 72
   183
 73
   186
  0
VERTEX
  5
455
  8
0
 62
   123
 10
0.0
 20
0.0
 30
0.0
 70
   128
 71
   190
 72
   243
 73
   187
  0
VERTEX
  5
456
  8
0
 62
   123
 10
0.0
 20
0.0
 30
0.0
 70
   128
 71
   183
 72
   242
 73
   190
  0
VERTEX
  5
457
  8
0
 62
   123
 10
0.0
 20
0.0
 30
0.0
 70
   128
 71
   246
 72
   245
 73
   244
  0
VERTEX
  5
458
  8
0
 62
   123
 10
0.0
 20
0.0
 30
0.0
 70
   128
 71
   190
 72
   242
 73
   243
  0
VERTEX
  5
459
  8
0
 62
   123
 10
0.0
 20
0.0
 30
0.0
 70
   128
 71
   246
 72
   244
 73
   159
  0
VERTEX
  5
45A
  8
0
 62
   123
 10
0.0
 20
0.0
 30
0.0
 70
   128
 71
   245
 72
   187
 73
   243
  0
VERTEX
  5
45B
  8
0
 62
   123
 10
0.0
 20
0.0
 30
0.0
 70
   128
 71
   159
 72
   244
 73
   115
  0
VERTEX
  5
45C
  8
0
 62
   123
 10
0.0
 20
0.0
 30
0.0
 70
   128
 71
   245
 72
   191
 73
   187
  0
VERTEX
  5
45D
  8
0
 62
   123
 10
0.0
 20
0.0
 30
0.0
 70
   128
 71
   191
 72
   246
 73
   192
  0
VERTEX
  5
45E
  8
0
 62
   123
 10
0.0
 20
0.0
 30
0.0
 70
   128
 71
   245
 72
   246
 73
   191
  0
VERTEX
  5
45F
  8
0
 62
   123
 10
0.0
 20
0.0
 30
0.0
 70
   128
 71
   192
 72
   160
 73
   161
  0
VERTEX
  5
460
  8
0
 62
   123
 10
0.0
 20
0.0
 30
0.0
 70
   128
 71
   239
 72
   238
 73
   236
  0
VERTEX
  5
461
  8
0
 62
   123
 10
0.0
 20
0.0
 30
0.0
 70
   128
 71
   239
 72
   200
 73
   144
  0
VERTEX
  5
462
  8
0
 62
   123
 10
0.0
 20
0.0
 30
0.0
 70
   128
 71
   237
 72
   238
 73
   239
  0
VERTEX
  5
463
  8
0
 62
   123
 10
0.0
 20
0.0
 30
0.0
 70
   128
 71
   236
 72
   247
 73
   235
  0
VERTEX
  5
464
  8
0
 62
   123
 10
0.0
 20
0.0
 30
0.0
 70
   128
 71
   238
 72
   247
 73
   236
  0
VERTEX
  5
465
  8
0
 62
   123
 10
0.0
 20
0.0
 30
0.0
 70
   128
 71
   235
 72
   248
 73
   234
  0
VERTEX
  5
466
  8
0
 62
   123
 10
0.0
 20
0.0
 30
0.0
 70
   128
 71
   247
 72
   248
 73
   235
  0
VERTEX
  5
467
  8
0
 62
   123
 10
0.0
 20
0.0
 30
0.0
 70
   128
 71
   234
 72
   249
 73
   240
  0
VERTEX
  5
468
  8
0
 62
   123
 10
0.0
 20
0.0
 30
0.0
 70
   128
 71
   248
 72
   249
 73
   234
  0
VERTEX
  5
469
  8
0
 62
   123
 10
0.0
 20
0.0
 30
0.0
 70
   128
 71
   240
 72
   250
 73
   241
  0
VERTEX
  5
46A
  8
0
 62
   123
 10
0.0
 20
0.0
 30
0.0
 70
   128
 71
   249
 72
   250
 73
   240
  0
VERTEX
  5
46B
  8
0
 62
   123
 10
0.0
 20
0.0
 30
0.0
 70
   128
 71
   241
 72
   251
 73
   242
  0
VERTEX
  5
46C
  8
0
 62
   123
 10
0.0
 20
0.0
 30
0.0
 70
   128
 71
   250
 72
   251
 73
   241
  0
VERTEX
  5
46D
  8
0
 62
   123
 10
0.0
 20
0.0
 30
0.0
 70
   128
 71
   243
 72
   242
 73
   252
  0
VERTEX
  5
46E
  8
0
 62
   123
 10
0.0
 20
0.0
 30
0.0
 70
   128
 71
   251
 72
   252
 73
   242
  0
VERTEX
  5
46F
  8
0
 62
   123
 10
0.0
 20
0.0
 30
0.0
 70
   128
 71
   245
 72
   243
 73
   253
  0
VERTEX
  5
470
  8
0
 62
   123
 10
0.0
 20
0.0
 30
0.0
 70
   128
 71
   253
 72
   243
 73
   252
  0
VERTEX
  5
471
  8
0
 62
   123
 10
0.0
 20
0.0
 30
0.0
 70
   128
 71
   160
 72
   192
 73
   246
  0
VERTEX
  5
472
  8
0
 62
   123
 10
0.0
 20
0.0
 30
0.0
 70
   128
 71
   253
 72
   244
 73
   245
  0
VERTEX
  5
473
  8
0
 62
   123
 10
0.0
 20
0.0
 30
0.0
 70
   128
 71
   160
 72
   246
 73
   159
  0
VERTEX
  5
474
  8
0
 62
   123
 10
0.0
 20
0.0
 30
0.0
 70
   128
 71
   239
 72
   142
 73
   237
  0
VERTEX
  5
475
  8
0
 62
   123
 10
0.0
 20
0.0
 30
0.0
 70
   128
 71
   127
 72
   237
 73
   101
  0
VERTEX
  5
476
  8
0
 62
   123
 10
0.0
 20
0.0
 30
0.0
 70
   128
 71
   128
 72
   238
 73
   127
  0
VERTEX
  5
477
  8
0
 62
   123
 10
0.0
 20
0.0
 30
0.0
 70
   128
 71
   128
 72
   247
 73
   238
  0
VERTEX
  5
478
  8
0
 62
   123
 10
0.0
 20
0.0
 30
0.0
 70
   128
 71
   129
 72
   247
 73
   128
  0
VERTEX
  5
479
  8
0
 62
   123
 10
0.0
 20
0.0
 30
0.0
 70
   128
 71
   130
 72
   248
 73
   129
  0
VERTEX
  5
47A
  8
0
 62
   123
 10
0.0
 20
0.0
 30
0.0
 70
   128
 71
   248
 72
   247
 73
   129
  0
VERTEX
  5
47B
  8
0
 62
   123
 10
0.0
 20
0.0
 30
0.0
 70
   128
 71
   131
 72
   249
 73
   130
  0
VERTEX
  5
47C
  8
0
 62
   123
 10
0.0
 20
0.0
 30
0.0
 70
   128
 71
   249
 72
   248
 73
   130
  0
VERTEX
  5
47D
  8
0
 62
   123
 10
0.0
 20
0.0
 30
0.0
 70
   128
 71
   132
 72
   250
 73
   131
  0
VERTEX
  5
47E
  8
0
 62
   123
 10
0.0
 20
0.0
 30
0.0
 70
   128
 71
   250
 72
   249
 73
   131
  0
VERTEX
  5
47F
  8
0
 62
   123
 10
0.0
 20
0.0
 30
0.0
 70
   128
 71
   133
 72
   251
 73
   132
  0
VERTEX
  5
480
  8
0
 62
   123
 10
0.0
 20
0.0
 30
0.0
 70
   128
 71
   251
 72
   250
 73
   132
  0
VERTEX
  5
481
  8
0
 62
   123
 10
0.0
 20
0.0
 30
0.0
 70
   128
 71
   134
 72
   252
 73
   133
  0
VERTEX
  5
482
  8
0
 62
   123
 10
0.0
 20
0.0
 30
0.0
 70
   128
 71
   252
 72
   251
 73
   133
  0
VERTEX
  5
483
  8
0
 62
   123
 10
0.0
 20
0.0
 30
0.0
 70
   128
 71
   134
 72
   135
 73
   253
  0
VERTEX
  5
484
  8
0
 62
   123
 10
0.0
 20
0.0
 30
0.0
 70
   128
 71
   253
 72
   252
 73
   134
  0
VERTEX
  5
485
  8
0
 62
   123
 10
0.0
 20
0.0
 30
0.0
 70
   128
 71
   135
 72
   112
 73
   244
  0
VERTEX
  5
486
  8
0
 62
   123
 10
0.0
 20
0.0
 30
0.0
 70
   128
 71
   244
 72
   253
 73
   135
  0
VERTEX
  5
487
  8
0
 62
   123
 10
0.0
 20
0.0
 30
0.0
 70
   128
 71
   112
 72
   115
 73
   244
  0
VERTEX
  5
488
  8
0
 62
   123
 10
0.0
 20
0.0
 30
0.0
 70
   128
 71
   255
 72
    80
 73
   254
  0
VERTEX
  5
489
  8
0
 62
   123
 10
0.0
 20
0.0
 30
0.0
 70
   128
 71
   257
 72
   256
 73
    65
  0
VERTEX
  5
48A
  8
0
 62
   123
 10
0.0
 20
0.0
 30
0.0
 70
   128
 71
   254
 72
    80
 73
    64
  0
VERTEX
  5
48B
  8
0
 62
   123
 10
0.0
 20
0.0
 30
0.0
 70
   128
 71
   255
 72
   158
 73
   115
  0
VERTEX
  5
48C
  8
0
 62
   123
 10
0.0
 20
0.0
 30
0.0
 70
   128
 71
   259
 72
    78
 73
   258
  0
VERTEX
  5
48D
  8
0
 62
   123
 10
0.0
 20
0.0
 30
0.0
 70
   128
 71
   260
 72
    75
 73
    88
  0
VERTEX
  5
48E
  8
0
 62
   123
 10
0.0
 20
0.0
 30
0.0
 70
   128
 71
    89
 72
    73
 73
   261
  0
VERTEX
  5
48F
  8
0
 62
   123
 10
0.0
 20
0.0
 30
0.0
 70
   128
 71
   262
 72
    72
 73
    89
  0
VERTEX
  5
490
  8
0
 62
   123
 10
0.0
 20
0.0
 30
0.0
 70
   128
 71
   126
 72
   182
 73
   263
  0
VERTEX
  5
491
  8
0
 62
   123
 10
0.0
 20
0.0
 30
0.0
 70
   128
 71
   264
 72
    73
 73
    69
  0
VERTEX
  5
492
  8
0
 62
   123
 10
0.0
 20
0.0
 30
0.0
 70
   128
 71
    67
 72
   126
 73
   263
  0
VERTEX
  5
493
  8
0
 62
   123
 10
0.0
 20
0.0
 30
0.0
 70
   128
 71
    69
 72
    67
 73
   263
  0
VERTEX
  5
494
  8
0
 62
   123
 10
0.0
 20
0.0
 30
0.0
 70
   128
 71
   261
 72
    73
 73
   264
  0
VERTEX
  5
495
  8
0
 62
   123
 10
0.0
 20
0.0
 30
0.0
 70
   128
 71
   100
 72
   182
 73
   126
  0
VERTEX
  5
496
  8
0
 62
   123
 10
0.0
 20
0.0
 30
0.0
 70
   128
 71
   262
 72
   258
 73
    72
  0
VERTEX
  5
497
  8
0
 62
   123
 10
0.0
 20
0.0
 30
0.0
 70
   128
 71
   262
 72
    89
 73
   261
  0
VERTEX
  5
498
  8
0
 62
   123
 10
0.0
 20
0.0
 30
0.0
 70
   128
 71
    88
 72
    78
 73
   259
  0
VERTEX
  5
499
  8
0
 62
   123
 10
0.0
 20
0.0
 30
0.0
 70
   128
 71
    72
 72
   258
 73
    78
  0
VERTEX
  5
49A
  8
0
 62
   123
 10
0.0
 20
0.0
 30
0.0
 70
   128
 71
    75
 72
   260
 73
   257
  0
VERTEX
  5
49B
  8
0
 62
   123
 10
0.0
 20
0.0
 30
0.0
 70
   128
 71
    88
 72
   259
 73
   260
  0
VERTEX
  5
49C
  8
0
 62
   123
 10
0.0
 20
0.0
 30
0.0
 70
   128
 71
   257
 72
    65
 73
    75
  0
VERTEX
  5
49D
  8
0
 62
   123
 10
0.0
 20
0.0
 30
0.0
 70
   128
 71
   254
 72
    64
 73
   256
  0
VERTEX
  5
49E
  8
0
 62
   123
 10
0.0
 20
0.0
 30
0.0
 70
   128
 71
   256
 72
    64
 73
    65
  0
VERTEX
  5
49F
  8
0
 62
   123
 10
0.0
 20
0.0
 30
0.0
 70
   128
 71
   113
 72
   255
 73
   115
  0
VERTEX
  5
4A0
  8
0
 62
   123
 10
0.0
 20
0.0
 30
0.0
 70
   128
 71
   163
 72
   158
 73
   254
  0
VERTEX
  5
4A1
  8
0
 62
   123
 10
0.0
 20
0.0
 30
0.0
 70
   128
 71
    85
 72
   113
 73
    87
  0
VERTEX
  5
4A2
  8
0
 62
   123
 10
0.0
 20
0.0
 30
0.0
 70
   128
 71
   255
 72
   113
 73
    85
  0
VERTEX
  5
4A3
  8
0
 62
   123
 10
0.0
 20
0.0
 30
0.0
 70
   128
 71
   255
 72
    85
 73
    80
  0
VERTEX
  5
4A4
  8
0
 62
   123
 10
0.0
 20
0.0
 30
0.0
 70
   128
 71
   174
 72
   163
 73
   256
  0
VERTEX
  5
4A5
  8
0
 62
   123
 10
0.0
 20
0.0
 30
0.0
 70
   128
 71
   255
 72
   254
 73
   158
  0
VERTEX
  5
4A6
  8
0
 62
   123
 10
0.0
 20
0.0
 30
0.0
 70
   128
 71
   175
 72
   174
 73
   257
  0
VERTEX
  5
4A7
  8
0
 62
   123
 10
0.0
 20
0.0
 30
0.0
 70
   128
 71
   254
 72
   256
 73
   163
  0
VERTEX
  5
4A8
  8
0
 62
   123
 10
0.0
 20
0.0
 30
0.0
 70
   128
 71
   176
 72
   175
 73
   260
  0
VERTEX
  5
4A9
  8
0
 62
   123
 10
0.0
 20
0.0
 30
0.0
 70
   128
 71
   256
 72
   257
 73
   174
  0
VERTEX
  5
4AA
  8
0
 62
   123
 10
0.0
 20
0.0
 30
0.0
 70
   128
 71
   177
 72
   176
 73
   259
  0
VERTEX
  5
4AB
  8
0
 62
   123
 10
0.0
 20
0.0
 30
0.0
 70
   128
 71
   257
 72
   260
 73
   175
  0
VERTEX
  5
4AC
  8
0
 62
   123
 10
0.0
 20
0.0
 30
0.0
 70
   128
 71
   178
 72
   177
 73
   258
  0
VERTEX
  5
4AD
  8
0
 62
   123
 10
0.0
 20
0.0
 30
0.0
 70
   128
 71
   260
 72
   259
 73
   176
  0
VERTEX
  5
4AE
  8
0
 62
   123
 10
0.0
 20
0.0
 30
0.0
 70
   128
 71
   179
 72
   178
 73
   262
  0
VERTEX
  5
4AF
  8
0
 62
   123
 10
0.0
 20
0.0
 30
0.0
 70
   128
 71
   259
 72
   258
 73
   177
  0
VERTEX
  5
4B0
  8
0
 62
   123
 10
0.0
 20
0.0
 30
0.0
 70
   128
 71
   180
 72
   179
 73
   261
  0
VERTEX
  5
4B1
  8
0
 62
   123
 10
0.0
 20
0.0
 30
0.0
 70
   128
 71
   258
 72
   262
 73
   178
  0
VERTEX
  5
4B2
  8
0
 62
   123
 10
0.0
 20
0.0
 30
0.0
 70
   128
 71
   181
 72
   180
 73
   264
  0
VERTEX
  5
4B3
  8
0
 62
   123
 10
0.0
 20
0.0
 30
0.0
 70
   128
 71
   262
 72
   261
 73
   179
  0
VERTEX
  5
4B4
  8
0
 62
   123
 10
0.0
 20
0.0
 30
0.0
 70
   128
 71
   182
 72
   181
 73
   263
  0
VERTEX
  5
4B5
  8
0
 62
   123
 10
0.0
 20
0.0
 30
0.0
 70
   128
 71
   261
 72
   264
 73
   180
  0
VERTEX
  5
4B6
  8
0
 62
   123
 10
0.0
 20
0.0
 30
0.0
 70
   128
 71
   264
 72
   263
 73
   181
  0
VERTEX
  5
4B7
  8
0
 62
   123
 10
0.0
 20
0.0
 30
0.0
 70
   128
 71
   263
 72
   264
 73
    69
  0
VERTEX
  5
4B8
  8
0
 62
   123
 10
0.0
 20
0.0
 30
0.0
 70
   128
 71
   266
 72
   120
 73
   265
  0
VERTEX
  5
4B9
  8
0
 62
   123
 10
0.0
 20
0.0
 30
0.0
 70
   128
 71
   121
 72
   265
 73
   120
  0
VERTEX
  5
4BA
  8
0
 62
   123
 10
0.0
 20
0.0
 30
0.0
 70
   128
 71
   116
 72
   117
 73
   267
  0
VERTEX
  5
4BB
  8
0
 62
   123
 10
0.0
 20
0.0
 30
0.0
 70
   128
 71
   123
 72
   269
 73
   268
  0
VERTEX
  5
4BC
  8
0
 62
   123
 10
0.0
 20
0.0
 30
0.0
 70
   128
 71
   123
 72
   268
 73
   121
  0
VERTEX
  5
4BD
  8
0
 62
   123
 10
0.0
 20
0.0
 30
0.0
 70
   128
 71
   120
 72
   266
 73
   117
  0
VERTEX
  5
4BE
  8
0
 62
   123
 10
0.0
 20
0.0
 30
0.0
 70
   128
 71
   268
 72
   265
 73
   121
  0
VERTEX
  5
4BF
  8
0
 62
   123
 10
0.0
 20
0.0
 30
0.0
 70
   128
 71
    55
 72
   270
 73
    31
  0
VERTEX
  5
4C0
  8
0
 62
   123
 10
0.0
 20
0.0
 30
0.0
 70
   128
 71
    31
 72
   270
 73
    68
  0
VERTEX
  5
4C1
  8
0
 62
   123
 10
0.0
 20
0.0
 30
0.0
 70
   128
 71
    68
 72
    30
 73
    31
  0
VERTEX
  5
4C2
  8
0
 62
   123
 10
0.0
 20
0.0
 30
0.0
 70
   128
 71
   270
 72
   269
 73
   125
  0
VERTEX
  5
4C3
  8
0
 62
   123
 10
0.0
 20
0.0
 30
0.0
 70
   128
 71
    67
 72
    68
 73
   270
  0
VERTEX
  5
4C4
  8
0
 62
   123
 10
0.0
 20
0.0
 30
0.0
 70
   128
 71
   117
 72
   266
 73
   267
  0
VERTEX
  5
4C5
  8
0
 62
   123
 10
0.0
 20
0.0
 30
0.0
 70
   128
 71
   105
 72
   116
 73
   271
  0
VERTEX
  5
4C6
  8
0
 62
   123
 10
0.0
 20
0.0
 30
0.0
 70
   128
 71
   105
 72
   272
 73
   103
  0
VERTEX
  5
4C7
  8
0
 62
   123
 10
0.0
 20
0.0
 30
0.0
 70
   128
 71
   271
 72
   116
 73
   267
  0
VERTEX
  5
4C8
  8
0
 62
   123
 10
0.0
 20
0.0
 30
0.0
 70
   128
 71
   107
 72
   103
 73
   273
  0
VERTEX
  5
4C9
  8
0
 62
   123
 10
0.0
 20
0.0
 30
0.0
 70
   128
 71
   271
 72
   272
 73
   105
  0
VERTEX
  5
4CA
  8
0
 62
   123
 10
0.0
 20
0.0
 30
0.0
 70
   128
 71
   274
 72
   109
 73
   107
  0
VERTEX
  5
4CB
  8
0
 62
   123
 10
0.0
 20
0.0
 30
0.0
 70
   128
 71
   103
 72
   272
 73
   273
  0
VERTEX
  5
4CC
  8
0
 62
   123
 10
0.0
 20
0.0
 30
0.0
 70
   128
 71
    40
 72
   275
 73
    39
  0
VERTEX
  5
4CD
  8
0
 62
   123
 10
0.0
 20
0.0
 30
0.0
 70
   128
 71
   274
 72
   107
 73
   273
  0
VERTEX
  5
4CE
  8
0
 62
   123
 10
0.0
 20
0.0
 30
0.0
 70
   128
 71
    86
 72
   275
 73
    40
  0
VERTEX
  5
4CF
  8
0
 62
   123
 10
0.0
 20
0.0
 30
0.0
 70
   128
 71
   274
 72
   275
 73
   109
  0
VERTEX
  5
4D0
  8
0
 62
   123
 10
0.0
 20
0.0
 30
0.0
 70
   128
 71
    86
 72
    87
 73
   111
  0
VERTEX
  5
4D1
  8
0
 62
   123
 10
0.0
 20
0.0
 30
0.0
 70
   128
 71
   109
 72
   275
 73
   111
  0
VERTEX
  5
4D2
  8
0
 62
   123
 10
0.0
 20
0.0
 30
0.0
 70
   128
 71
   270
 72
   125
 73
    67
  0
VERTEX
  5
4D3
  8
0
 62
   123
 10
0.0
 20
0.0
 30
0.0
 70
   128
 71
   269
 72
   123
 73
   125
  0
VERTEX
  5
4D4
  8
0
 62
   123
 10
0.0
 20
0.0
 30
0.0
 70
   128
 71
    56
 72
   269
 73
    55
  0
VERTEX
  5
4D5
  8
0
 62
   123
 10
0.0
 20
0.0
 30
0.0
 70
   128
 71
    55
 72
   269
 73
   270
  0
VERTEX
  5
4D6
  8
0
 62
   123
 10
0.0
 20
0.0
 30
0.0
 70
   128
 71
    57
 72
   268
 73
    56
  0
VERTEX
  5
4D7
  8
0
 62
   123
 10
0.0
 20
0.0
 30
0.0
 70
   128
 71
    56
 72
   268
 73
   269
  0
VERTEX
  5
4D8
  8
0
 62
   123
 10
0.0
 20
0.0
 30
0.0
 70
   128
 71
    58
 72
   265
 73
    57
  0
VERTEX
  5
4D9
  8
0
 62
   123
 10
0.0
 20
0.0
 30
0.0
 70
   128
 71
    57
 72
   265
 73
   268
  0
VERTEX
  5
4DA
  8
0
 62
   123
 10
0.0
 20
0.0
 30
0.0
 70
   128
 71
    42
 72
   266
 73
    58
  0
VERTEX
  5
4DB
  8
0
 62
   123
 10
0.0
 20
0.0
 30
0.0
 70
   128
 71
    58
 72
   266
 73
   265
  0
VERTEX
  5
4DC
  8
0
 62
   123
 10
0.0
 20
0.0
 30
0.0
 70
   128
 71
    41
 72
   267
 73
    42
  0
VERTEX
  5
4DD
  8
0
 62
   123
 10
0.0
 20
0.0
 30
0.0
 70
   128
 71
    42
 72
   267
 73
   266
  0
VERTEX
  5
4DE
  8
0
 62
   123
 10
0.0
 20
0.0
 30
0.0
 70
   128
 71
    59
 72
   271
 73
    41
  0
VERTEX
  5
4DF
  8
0
 62
   123
 10
0.0
 20
0.0
 30
0.0
 70
   128
 71
    41
 72
   271
 73
   267
  0
VERTEX
  5
4E0
  8
0
 62
   123
 10
0.0
 20
0.0
 30
0.0
 70
   128
 71
    60
 72
   272
 73
    59
  0
VERTEX
  5
4E1
  8
0
 62
   123
 10
0.0
 20
0.0
 30
0.0
 70
   128
 71
    59
 72
   272
 73
   271
  0
VERTEX
  5
4E2
  8
0
 62
   123
 10
0.0
 20
0.0
 30
0.0
 70
   128
 71
    61
 72
   273
 73
    60
  0
VERTEX
  5
4E3
  8
0
 62
   123
 10
0.0
 20
0.0
 30
0.0
 70
   128
 71
    60
 72
   273
 73
   272
  0
VERTEX
  5
4E4
  8
0
 62
   123
 10
0.0
 20
0.0
 30
0.0
 70
   128
 71
    39
 72
   274
 73
    61
  0
VERTEX
  5
4E5
  8
0
 62
   123
 10
0.0
 20
0.0
 30
0.0
 70
   128
 71
    61
 72
   274
 73
   273
  0
VERTEX
  5
4E6
  8
0
 62
   123
 10
0.0
 20
0.0
 30
0.0
 70
   128
 71
   275
 72
   274
 73
    39
  0
VERTEX
  5
4E7
  8
0
 62
   123
 10
0.0
 20
0.0
 30
0.0
 70
   128
 71
   111
 72
   275
 73
    86
  0
VERTEX
  5
4E8
  8
0
 62
   123
 10
0.0
 20
0.0
 30
0.0
 70
   128
 71
   277
 72
    84
 73
   276
  0
VERTEX
  5
4E9
  8
0
 62
   123
 10
0.0
 20
0.0
 30
0.0
 70
   128
 71
     3
 72
   279
 73
   278
  0
VERTEX
  5
4EA
  8
0
 62
   123
 10
0.0
 20
0.0
 30
0.0
 70
   128
 71
   277
 72
   276
 73
    15
  0
VERTEX
  5
4EB
  8
0
 62
   123
 10
0.0
 20
0.0
 30
0.0
 70
   128
 71
   276
 72
    84
 73
    40
  0
VERTEX
  5
4EC
  8
0
 62
   123
 10
0.0
 20
0.0
 30
0.0
 70
   128
 71
   281
 72
    94
 73
   280
  0
VERTEX
  5
4ED
  8
0
 62
   123
 10
0.0
 20
0.0
 30
0.0
 70
   128
 71
    12
 72
   282
 73
     9
  0
VERTEX
  5
4EE
  8
0
 62
   123
 10
0.0
 20
0.0
 30
0.0
 70
   128
 71
   285
 72
   284
 73
   283
  0
VERTEX
  5
4EF
  8
0
 62
   123
 10
0.0
 20
0.0
 30
0.0
 70
   128
 71
   287
 72
   286
 73
   285
  0
VERTEX
  5
4F0
  8
0
 62
   123
 10
0.0
 20
0.0
 30
0.0
 70
   128
 71
   288
 72
   283
 73
   284
  0
VERTEX
  5
4F1
  8
0
 62
   123
 10
0.0
 20
0.0
 30
0.0
 70
   128
 71
   288
 72
   284
 73
   289
  0
VERTEX
  5
4F2
  8
0
 62
   123
 10
0.0
 20
0.0
 30
0.0
 70
   128
 71
    54
 72
   288
 73
   289
  0
VERTEX
  5
4F3
  8
0
 62
   123
 10
0.0
 20
0.0
 30
0.0
 70
   128
 71
    54
 72
    53
 73
   288
  0
VERTEX
  5
4F4
  8
0
 62
   123
 10
0.0
 20
0.0
 30
0.0
 70
   128
 71
   283
 72
   287
 73
   285
  0
VERTEX
  5
4F5
  8
0
 62
   123
 10
0.0
 20
0.0
 30
0.0
 70
   128
 71
    30
 72
    63
 73
    53
  0
VERTEX
  5
4F6
  8
0
 62
   123
 10
0.0
 20
0.0
 30
0.0
 70
   128
 71
   287
 72
   290
 73
   286
  0
VERTEX
  5
4F7
  8
0
 62
   123
 10
0.0
 20
0.0
 30
0.0
 70
   128
 71
   277
 72
     2
 73
   278
  0
VERTEX
  5
4F8
  8
0
 62
   123
 10
0.0
 20
0.0
 30
0.0
 70
   128
 71
   290
 72
   281
 73
   291
  0
VERTEX
  5
4F9
  8
0
 62
   123
 10
0.0
 20
0.0
 30
0.0
 70
   128
 71
   290
 72
    95
 73
   281
  0
VERTEX
  5
4FA
  8
0
 62
   123
 10
0.0
 20
0.0
 30
0.0
 70
   128
 71
   282
 72
    12
 73
   280
  0
VERTEX
  5
4FB
  8
0
 62
   123
 10
0.0
 20
0.0
 30
0.0
 70
   128
 71
    12
 72
   292
 73
   280
  0
VERTEX
  5
4FC
  8
0
 62
   123
 10
0.0
 20
0.0
 30
0.0
 70
   128
 71
   292
 72
   281
 73
   280
  0
VERTEX
  5
4FD
  8
0
 62
   123
 10
0.0
 20
0.0
 30
0.0
 70
   128
 71
     7
 72
     9
 73
   282
  0
VERTEX
  5
4FE
  8
0
 62
   123
 10
0.0
 20
0.0
 30
0.0
 70
   128
 71
   279
 72
     7
 73
   282
  0
VERTEX
  5
4FF
  8
0
 62
   123
 10
0.0
 20
0.0
 30
0.0
 70
   128
 71
     7
 72
   279
 73
     3
  0
VERTEX
  5
500
  8
0
 62
   123
 10
0.0
 20
0.0
 30
0.0
 70
   128
 71
   276
 72
    40
 73
    38
  0
VERTEX
  5
501
  8
0
 62
   123
 10
0.0
 20
0.0
 30
0.0
 70
   128
 71
    16
 72
    15
 73
   276
  0
VERTEX
  5
502
  8
0
 62
   123
 10
0.0
 20
0.0
 30
0.0
 70
   128
 71
     2
 72
     3
 73
   278
  0
VERTEX
  5
503
  8
0
 62
   123
 10
0.0
 20
0.0
 30
0.0
 70
   128
 71
    16
 72
    38
 73
    20
  0
VERTEX
  5
504
  8
0
 62
   123
 10
0.0
 20
0.0
 30
0.0
 70
   128
 71
    16
 72
   276
 73
    38
  0
VERTEX
  5
505
  8
0
 62
   123
 10
0.0
 20
0.0
 30
0.0
 70
   128
 71
    83
 72
    84
 73
   277
  0
VERTEX
  5
506
  8
0
 62
   123
 10
0.0
 20
0.0
 30
0.0
 70
   128
 71
    91
 72
    83
 73
   278
  0
VERTEX
  5
507
  8
0
 62
   123
 10
0.0
 20
0.0
 30
0.0
 70
   128
 71
   277
 72
    15
 73
     2
  0
VERTEX
  5
508
  8
0
 62
   123
 10
0.0
 20
0.0
 30
0.0
 70
   128
 71
   277
 72
   278
 73
    83
  0
VERTEX
  5
509
  8
0
 62
   123
 10
0.0
 20
0.0
 30
0.0
 70
   128
 71
    92
 72
    91
 73
   279
  0
VERTEX
  5
50A
  8
0
 62
   123
 10
0.0
 20
0.0
 30
0.0
 70
   128
 71
   278
 72
   279
 73
    91
  0
VERTEX
  5
50B
  8
0
 62
   123
 10
0.0
 20
0.0
 30
0.0
 70
   128
 71
    93
 72
    92
 73
   282
  0
VERTEX
  5
50C
  8
0
 62
   123
 10
0.0
 20
0.0
 30
0.0
 70
   128
 71
   279
 72
   282
 73
    92
  0
VERTEX
  5
50D
  8
0
 62
   123
 10
0.0
 20
0.0
 30
0.0
 70
   128
 71
   280
 72
    94
 73
    93
  0
VERTEX
  5
50E
  8
0
 62
   123
 10
0.0
 20
0.0
 30
0.0
 70
   128
 71
    95
 72
    94
 73
   281
  0
VERTEX
  5
50F
  8
0
 62
   123
 10
0.0
 20
0.0
 30
0.0
 70
   128
 71
   282
 72
   280
 73
    93
  0
VERTEX
  5
510
  8
0
 62
   123
 10
0.0
 20
0.0
 30
0.0
 70
   128
 71
    96
 72
    95
 73
   290
  0
VERTEX
  5
511
  8
0
 62
   123
 10
0.0
 20
0.0
 30
0.0
 70
   128
 71
   281
 72
   292
 73
   291
  0
VERTEX
  5
512
  8
0
 62
   123
 10
0.0
 20
0.0
 30
0.0
 70
   128
 71
    97
 72
    96
 73
   287
  0
VERTEX
  5
513
  8
0
 62
   123
 10
0.0
 20
0.0
 30
0.0
 70
   128
 71
   290
 72
   291
 73
   286
  0
VERTEX
  5
514
  8
0
 62
   123
 10
0.0
 20
0.0
 30
0.0
 70
   128
 71
   290
 72
   287
 73
    96
  0
VERTEX
  5
515
  8
0
 62
   123
 10
0.0
 20
0.0
 30
0.0
 70
   128
 71
    98
 72
    97
 73
   283
  0
VERTEX
  5
516
  8
0
 62
   123
 10
0.0
 20
0.0
 30
0.0
 70
   128
 71
   287
 72
   283
 73
    97
  0
VERTEX
  5
517
  8
0
 62
   123
 10
0.0
 20
0.0
 30
0.0
 70
   128
 71
    63
 72
    98
 73
   288
  0
VERTEX
  5
518
  8
0
 62
   123
 10
0.0
 20
0.0
 30
0.0
 70
   128
 71
   283
 72
   288
 73
    98
  0
VERTEX
  5
519
  8
0
 62
   123
 10
0.0
 20
0.0
 30
0.0
 70
   128
 71
    63
 72
   288
 73
    53
  0
VERTEX
  5
51A
  8
0
 62
   123
 10
0.0
 20
0.0
 30
0.0
 70
   128
 71
    12
 72
    11
 73
   292
  0
VERTEX
  5
51B
  8
0
 62
   123
 10
0.0
 20
0.0
 30
0.0
 70
   128
 71
   286
 72
   210
 73
   285
  0
VERTEX
  5
51C
  8
0
 62
   123
 10
0.0
 20
0.0
 30
0.0
 70
   128
 71
   209
 72
   208
 73
   291
  0
VERTEX
  5
51D
  8
0
 62
   123
 10
0.0
 20
0.0
 30
0.0
 70
   128
 71
   289
 72
   211
 73
   213
  0
VERTEX
  5
51E
  8
0
 62
   123
 10
0.0
 20
0.0
 30
0.0
 70
   128
 71
   284
 72
   285
 73
   212
  0
VERTEX
  5
51F
  8
0
 62
   123
 10
0.0
 20
0.0
 30
0.0
 70
   128
 71
   216
 72
    49
 73
    51
  0
VERTEX
  5
520
  8
0
 62
   123
 10
0.0
 20
0.0
 30
0.0
 70
   128
 71
   213
 72
   215
 73
    52
  0
VERTEX
  5
521
  8
0
 62
   123
 10
0.0
 20
0.0
 30
0.0
 70
   128
 71
   218
 72
    47
 73
   214
  0
VERTEX
  5
522
  8
0
 62
   123
 10
0.0
 20
0.0
 30
0.0
 70
   128
 71
    49
 72
   214
 73
    47
  0
VERTEX
  5
523
  8
0
 62
   123
 10
0.0
 20
0.0
 30
0.0
 70
   128
 71
    45
 72
   218
 73
   217
  0
VERTEX
  5
524
  8
0
 62
   123
 10
0.0
 20
0.0
 30
0.0
 70
   128
 71
   218
 72
    45
 73
    47
  0
VERTEX
  5
525
  8
0
 62
   123
 10
0.0
 20
0.0
 30
0.0
 70
   128
 71
   217
 72
    27
 73
    46
  0
VERTEX
  5
526
  8
0
 62
   123
 10
0.0
 20
0.0
 30
0.0
 70
   128
 71
    46
 72
    45
 73
   217
  0
VERTEX
  5
527
  8
0
 62
   123
 10
0.0
 20
0.0
 30
0.0
 70
   128
 71
    46
 72
    27
 73
    28
  0
VERTEX
  5
528
  8
0
 62
   123
 10
0.0
 20
0.0
 30
0.0
 70
   128
 71
   216
 72
    51
 73
   215
  0
VERTEX
  5
529
  8
0
 62
   123
 10
0.0
 20
0.0
 30
0.0
 70
   128
 71
   216
 72
   214
 73
    49
  0
VERTEX
  5
52A
  8
0
 62
   123
 10
0.0
 20
0.0
 30
0.0
 70
   128
 71
   213
 72
    52
 73
    54
  0
VERTEX
  5
52B
  8
0
 62
   123
 10
0.0
 20
0.0
 30
0.0
 70
   128
 71
   215
 72
    51
 73
    52
  0
VERTEX
  5
52C
  8
0
 62
   123
 10
0.0
 20
0.0
 30
0.0
 70
   128
 71
   289
 72
   284
 73
   211
  0
VERTEX
  5
52D
  8
0
 62
   123
 10
0.0
 20
0.0
 30
0.0
 70
   128
 71
    54
 72
   289
 73
   213
  0
VERTEX
  5
52E
  8
0
 62
   123
 10
0.0
 20
0.0
 30
0.0
 70
   128
 71
   285
 72
   210
 73
   212
  0
VERTEX
  5
52F
  8
0
 62
   123
 10
0.0
 20
0.0
 30
0.0
 70
   128
 71
   284
 72
   212
 73
   211
  0
VERTEX
  5
530
  8
0
 62
   123
 10
0.0
 20
0.0
 30
0.0
 70
   128
 71
   291
 72
   208
 73
   286
  0
VERTEX
  5
531
  8
0
 62
   123
 10
0.0
 20
0.0
 30
0.0
 70
   128
 71
   286
 72
   208
 73
   210
  0
VERTEX
  5
532
  8
0
 62
   123
 10
0.0
 20
0.0
 30
0.0
 70
   128
 71
    11
 72
   209
 73
   292
  0
VERTEX
  5
533
  8
0
 62
   123
 10
0.0
 20
0.0
 30
0.0
 70
   128
 71
   292
 72
   209
 73
   291
  0
SEQEND
  5
534
  8
0
 62
   123
  0
ENDBLK
  5
537
  8
0
  0
BLOCK
  8
0
  2
____MSBR_5_
 70
     0
 10
0.0
 20
0.0
 30
0.0
  3
____MSBR_5_
  1

  0
POLYLINE
  5
539
  8
0
 62
   123
 66
     1
 10
0.0
 20
0.0
 30
0.0
 70
    64
 71
   328
 72
   664
  0
VERTEX
  5
53A
  8
0
 10
-2.0
 20
382.5859375
 30
-15.51376914978027
 70
   192
  0
VERTEX
  5
53B
  8
0
 10
0.5
 20
385.953857421875
 30
-11.16923046112061
 70
   192
  0
VERTEX
  5
53C
  8
0
 10
0.5
 20
382.9310302734375
 30
-15.17241382598877
 70
   192
  0
VERTEX
  5
53D
  8
0
 10
-2.0
 20
389.0
 30
-0.0000000000041709
 70
   192
  0
VERTEX
  5
53E
  8
0
 10
-2.0
 20
388.2409362792969
 30
5.722238063812256
 70
   192
  0
VERTEX
  5
53F
  8
0
 10
0.5
 20
388.7411804199219
 30
3.364705801010132
 70
   192
  0
VERTEX
  5
540
  8
0
 10
0.5
 20
378.6226501464844
 30
-18.67924499511719
 70
   192
  0
VERTEX
  5
541
  8
0
 10
-2.0
 20
378.0133666992188
 30
-19.04574775695801
 70
   192
  0
VERTEX
  5
542
  8
0
 10
0.5
 20
373.1600036621094
 30
-21.1200008392334
 70
   192
  0
VERTEX
  5
543
  8
0
 10
-2.0
 20
372.7222290039062
 30
-21.24095153808594
 70
   192
  0
VERTEX
  5
544
  8
0
 10
-2.0
 20
367.0
 30
-22.0
 70
   192
  0
VERTEX
  5
545
  8
0
 10
0.5
 20
367.0
 30
-22.0
 70
   192
  0
VERTEX
  5
546
  8
0
 10
-2.0
 20
386.0726623535156
 30
-10.95696258544922
 70
   192
  0
VERTEX
  5
547
  8
0
 10
-2.0
 20
388.2500305175781
 30
-5.673486709594727
 70
   192
  0
VERTEX
  5
548
  8
0
 10
0.5
 20
387.8108215332031
 30
-7.135135173797607
 70
   192
  0
VERTEX
  5
549
  8
0
 10
0.5
 20
388.7411804199219
 30
-3.364705801010132
 70
   192
  0
VERTEX
  5
54A
  8
0
 10
0.5
 20
385.953857421875
 30
11.16923046112061
 70
   192
  0
VERTEX
  5
54B
  8
0
 10
0.5
 20
387.8108215332031
 30
7.135135173797607
 70
   192
  0
VERTEX
  5
54C
  8
0
 10
-2.0
 20
386.0457458496094
 30
11.01337814331055
 70
   192
  0
VERTEX
  5
54D
  8
0
 10
0.5
 20
389.0
 30
-0.0000000000041513
 70
   192
  0
VERTEX
  5
54E
  8
0
 10
0.5
 20
373.1600036621094
 30
21.1200008392334
 70
   192
  0
VERTEX
  5
54F
  8
0
 10
0.5
 20
378.6226501464844
 30
18.67924499511719
 70
   192
  0
VERTEX
  5
550
  8
0
 10
-2.0
 20
372.7222290039062
 30
21.24095153808594
 70
   192
  0
VERTEX
  5
551
  8
0
 10
0.5
 20
382.9310302734375
 30
15.17241382598877
 70
   192
  0
VERTEX
  5
552
  8
0
 10
-2.0
 20
382.5137634277344
 30
15.58594036102295
 70
   192
  0
VERTEX
  5
553
  8
0
 10
-2.0
 20
377.9569702148438
 30
19.07265663146973
 70
   192
  0
VERTEX
  5
554
  8
0
 10
-2.0
 20
367.0
 30
22.0
 70
   192
  0
VERTEX
  5
555
  8
0
 10
0.5
 20
367.0
 30
22.0
 70
   192
  0
VERTEX
  5
556
  8
0
 10
1.613131999969482
 20
345.6935119628906
 30
3.906191349029541
 70
   192
  0
VERTEX
  5
557
  8
0
 10
2.349587678909302
 20
346.2390747070312
 30
-0.0000000000041604
 70
   192
  0
VERTEX
  5
558
  8
0
 10
2.349587678909302
 20
346.5794067382812
 30
3.743775606155396
 70
   192
  0
VERTEX
  5
559
  8
0
 10
1.613131999969482
 20
379.9969787597656
 30
17.32928466796875
 70
   192
  0
VERTEX
  5
55A
  8
0
 10
1.613131999969482
 20
374.025390625
 30
20.49070930480957
 70
   192
  0
VERTEX
  5
55B
  8
0
 10
1.613131999969482
 20
367.0
 30
21.66160583496094
 70
   192
  0
VERTEX
  5
55C
  8
0
 10
1.613131999969482
 20
384.3292846679688
 30
12.99696445465088
 70
   192
  0
VERTEX
  5
55D
  8
0
 10
1.613131999969482
 20
386.9953308105469
 30
8.331387519836426
 70
   192
  0
VERTEX
  5
55E
  8
0
 10
1.613131999969482
 20
388.3064880371094
 30
3.906191349029541
 70
   192
  0
VERTEX
  5
55F
  8
0
 10
1.613131999969482
 20
388.66162109375
 30
-0.0000000000041287
 70
   192
  0
VERTEX
  5
560
  8
0
 10
2.349587678909302
 20
387.4205932617188
 30
3.743775606155396
 70
   192
  0
VERTEX
  5
561
  8
0
 10
2.349587678909302
 20
387.7609252929688
 30
-0.0000000000041579
 70
   192
  0
VERTEX
  5
562
  8
0
 10
2.349587678909302
 20
373.7332763671875
 30
19.63872337341309
 70
   192
  0
VERTEX
  5
563
  8
0
 10
2.349587678909302
 20
367.0
 30
20.76093673706055
 70
   192
  0
VERTEX
  5
564
  8
0
 10
1.613131999969482
 20
359.974609375
 30
20.49070930480957
 70
   192
  0
VERTEX
  5
565
  8
0
 10
1.613131999969482
 20
354.0030212402344
 30
17.32928466796875
 70
   192
  0
VERTEX
  5
566
  8
0
 10
0.5
 20
359.8648681640625
 30
20.81081008911133
 70
   192
  0
VERTEX
  5
567
  8
0
 10
0.5
 20
363.6352844238281
 30
21.74117660522461
 70
   192
  0
VERTEX
  5
568
  8
0
 10
0.5
 20
355.8307800292969
 30
18.9538459777832
 70
   192
  0
VERTEX
  5
569
  8
0
 10
1.613131999969482
 20
349.6707153320312
 30
12.99696445465088
 70
   192
  0
VERTEX
  5
56A
  8
0
 10
0.5
 20
351.8275756835938
 30
15.93103408813477
 70
   192
  0
VERTEX
  5
56B
  8
0
 10
1.613131999969482
 20
347.0046691894531
 30
8.331387519836426
 70
   192
  0
VERTEX
  5
56C
  8
0
 10
0.5
 20
348.3207397460938
 30
11.62264156341553
 70
   192
  0
VERTEX
  5
56D
  8
0
 10
0.5
 20
345.8800048828125
 30
6.159999847412109
 70
   192
  0
VERTEX
  5
56E
  8
0
 10
1.613131999969482
 20
345.33837890625
 30
-0.0000000000041463
 70
   192
  0
VERTEX
  5
56F
  8
0
 10
0.5
 20
345.0
 30
-0.00000000000416
 70
   192
  0
VERTEX
  5
570
  8
0
 10
2.349587678909302
 20
347.8360595703125
 30
7.984975814819336
 70
   192
  0
VERTEX
  5
571
  8
0
 10
2.349587678909302
 20
350.3912353515625
 30
12.45656204223633
 70
   192
  0
VERTEX
  5
572
  8
0
 10
2.349587678909302
 20
354.5434265136719
 30
16.60874938964844
 70
   192
  0
VERTEX
  5
573
  8
0
 10
2.349587678909302
 20
360.2667236328125
 30
19.63872337341309
 70
   192
  0
VERTEX
  5
574
  8
0
 10
2.349587678909302
 20
379.4565734863281
 30
16.60874938964844
 70
   192
  0
VERTEX
  5
575
  8
0
 10
2.349587678909302
 20
383.6087646484375
 30
12.45656204223633
 70
   192
  0
VERTEX
  5
576
  8
0
 10
2.349587678909302
 20
386.1639404296875
 30
7.984975814819336
 70
   192
  0
VERTEX
  5
577
  8
0
 10
2.893203496932983
 20
347.3208618164062
 30
-3.60784387588501
 70
   192
  0
VERTEX
  5
578
  8
0
 10
2.349587678909302
 20
346.5794067382812
 30
-3.743775606155396
 70
   192
  0
VERTEX
  5
579
  8
0
 10
3.718823432922363
 20
382.6643371582031
 30
-11.74824905395508
 70
   192
  0
VERTEX
  5
57A
  8
0
 10
3.718823432922363
 20
378.7482604980469
 30
-15.66433238983154
 70
   192
  0
VERTEX
  5
57B
  8
0
 10
2.893203496932983
 20
379.0042724609375
 30
-16.00570678710938
 70
   192
  0
VERTEX
  5
57C
  8
0
 10
3.718823432922363
 20
347.4195861816406
 30
-0.0000000000041391
 70
   192
  0
VERTEX
  5
57D
  8
0
 10
2.893203496932983
 20
346.9928588867188
 30
-0.0000000000041344
 70
   192
  0
VERTEX
  5
57E
  8
0
 10
3.718823432922363
 20
347.7405700683594
 30
-3.53089451789856
 70
   192
  0
VERTEX
  5
57F
  8
0
 10
2.893203496932983
 20
350.9942932128906
 30
-12.00428009033203
 70
   192
  0
VERTEX
  5
580
  8
0
 10
2.893203496932983
 20
354.9957275390625
 30
-16.00570678710938
 70
   192
  0
VERTEX
  5
581
  8
0
 10
3.718823432922363
 20
355.2517395019531
 30
-15.66433238983154
 70
   192
  0
VERTEX
  5
582
  8
0
 10
3.718823432922363
 20
348.92578125
 30
-7.530929088592529
 70
   192
  0
VERTEX
  5
583
  8
0
 10
2.893203496932983
 20
348.5318908691406
 30
-7.695051670074463
 70
   192
  0
VERTEX
  5
584
  8
0
 10
3.718823432922363
 20
373.3504028320312
 30
-18.52201461791992
 70
   192
  0
VERTEX
  5
585
  8
0
 10
2.893203496932983
 20
367.0
 30
-20.00713348388672
 70
   192
  0
VERTEX
  5
586
  8
0
 10
2.893203496932983
 20
373.4888000488281
 30
-18.92566680908203
 70
   192
  0
VERTEX
  5
587
  8
0
 10
3.718823432922363
 20
360.6495971679688
 30
-18.52201461791992
 70
   192
  0
VERTEX
  5
588
  8
0
 10
2.893203496932983
 20
385.4681091308594
 30
-7.695051670074463
 70
   192
  0
VERTEX
  5
589
  8
0
 10
3.718823432922363
 20
385.07421875
 30
-7.530929088592529
 70
   192
  0
VERTEX
  5
58A
  8
0
 10
2.893203496932983
 20
383.0057067871094
 30
-12.00428009033203
 70
   192
  0
VERTEX
  5
58B
  8
0
 10
2.893203496932983
 20
386.6791381835938
 30
-3.60784387588501
 70
   192
  0
VERTEX
  5
58C
  8
0
 10
2.349587678909302
 20
386.1639404296875
 30
-7.984975814819336
 70
   192
  0
VERTEX
  5
58D
  8
0
 10
2.349587678909302
 20
387.4205932617188
 30
-3.743775606155396
 70
   192
  0
VERTEX
  5
58E
  8
0
 10
3.718823432922363
 20
386.2594299316406
 30
-3.53089451789856
 70
   192
  0
VERTEX
  5
58F
  8
0
 10
2.893203496932983
 20
387.0071411132812
 30
-0.000000000004132
 70
   192
  0
VERTEX
  5
590
  8
0
 10
3.718823432922363
 20
386.5804138183594
 30
-0.0000000000041319
 70
   192
  0
VERTEX
  5
591
  8
0
 10
3.718823432922363
 20
367.0
 30
-19.58041572570801
 70
   192
  0
VERTEX
  5
592
  8
0
 10
3.718823432922363
 20
351.3356628417969
 30
-11.74824905395508
 70
   192
  0
VERTEX
  5
593
  8
0
 10
2.893203496932983
 20
360.5111999511719
 30
-18.92566680908203
 70
   192
  0
VERTEX
  5
594
  8
0
 10
2.349587678909302
 20
383.6087646484375
 30
-12.45656204223633
 70
   192
  0
VERTEX
  5
595
  8
0
 10
2.349587678909302
 20
379.4565734863281
 30
-16.60874938964844
 70
   192
  0
VERTEX
  5
596
  8
0
 10
2.349587678909302
 20
373.7332763671875
 30
-19.63872337341309
 70
   192
  0
VERTEX
  5
597
  8
0
 10
2.349587678909302
 20
367.0
 30
-20.76093673706055
 70
   192
  0
VERTEX
  5
598
  8
0
 10
2.349587678909302
 20
360.2667236328125
 30
-19.63872337341309
 70
   192
  0
VERTEX
  5
599
  8
0
 10
2.349587678909302
 20
354.5434265136719
 30
-16.60874938964844
 70
   192
  0
VERTEX
  5
59A
  8
0
 10
2.349587678909302
 20
350.3912353515625
 30
-12.45656204223633
 70
   192
  0
VERTEX
  5
59B
  8
0
 10
2.349587678909302
 20
347.8360595703125
 30
-7.984975814819336
 70
   192
  0
VERTEX
  5
59C
  8
0
 10
4.963555812835693
 20
348.3755187988281
 30
3.414488077163696
 70
   192
  0
VERTEX
  5
59D
  8
0
 10
5.778974056243896
 20
349.2057800292969
 30
-0.0000000000041392
 70
   192
  0
VERTEX
  5
59E
  8
0
 10
5.778974056243896
 20
349.4917297363281
 30
3.211288213729858
 70
   192
  0
VERTEX
  5
59F
  8
0
 10
4.963555812835693
 20
378.3609313964844
 30
15.14791011810303
 70
   192
  0
VERTEX
  5
5A0
  8
0
 10
3.718823432922363
 20
378.7482604980469
 30
15.66433238983154
 70
   192
  0
VERTEX
  5
5A1
  8
0
 10
4.963555812835693
 20
373.1410522460938
 30
17.91138076782227
 70
   192
  0
VERTEX
  5
5A2
  8
0
 10
3.718823432922363
 20
373.3504028320312
 30
18.52201461791992
 70
   192
  0
VERTEX
  5
5A3
  8
0
 10
4.963555812835693
 20
367.0
 30
18.93488883972168
 70
   192
  0
VERTEX
  5
5A4
  8
0
 10
3.718823432922363
 20
382.6643371582031
 30
11.74824905395508
 70
   192
  0
VERTEX
  5
5A5
  8
0
 10
4.963555812835693
 20
382.1479187011719
 30
11.36093330383301
 70
   192
  0
VERTEX
  5
5A6
  8
0
 10
3.718823432922363
 20
385.07421875
 30
7.530929088592529
 70
   192
  0
VERTEX
  5
5A7
  8
0
 10
4.963555812835693
 20
384.4783630371094
 30
7.282649517059326
 70
   192
  0
VERTEX
  5
5A8
  8
0
 10
3.718823432922363
 20
386.2594299316406
 30
3.53089451789856
 70
   192
  0
VERTEX
  5
5A9
  8
0
 10
5.778974056243896
 20
384.5082702636719
 30
3.211288213729858
 70
   192
  0
VERTEX
  5
5AA
  8
0
 10
4.963555812835693
 20
385.9348754882812
 30
-0.0000000000041364
 70
   192
  0
VERTEX
  5
5AB
  8
0
 10
4.963555812835693
 20
385.6244812011719
 30
3.414488077163696
 70
   192
  0
VERTEX
  5
5AC
  8
0
 10
5.778974056243896
 20
384.7942199707031
 30
-0.0000000000042081
 70
   192
  0
VERTEX
  5
5AD
  8
0
 10
3.718823432922363
 20
367.0
 30
19.58041572570801
 70
   192
  0
VERTEX
  5
5AE
  8
0
 10
3.718823432922363
 20
360.6495971679688
 30
18.52201461791992
 70
   192
  0
VERTEX
  5
5AF
  8
0
 10
4.963555812835693
 20
360.8589477539062
 30
17.91138076782227
 70
   192
  0
VERTEX
  5
5B0
  8
0
 10
4.963555812835693
 20
355.6390686035156
 30
15.14791011810303
 70
   192
  0
VERTEX
  5
5B1
  8
0
 10
3.718823432922363
 20
355.2517395019531
 30
15.66433238983154
 70
   192
  0
VERTEX
  5
5B2
  8
0
 10
3.718823432922363
 20
351.3356628417969
 30
11.74824905395508
 70
   192
  0
VERTEX
  5
5B3
  8
0
 10
4.963555812835693
 20
351.8520812988281
 30
11.36093330383301
 70
   192
  0
VERTEX
  5
5B4
  8
0
 10
3.718823432922363
 20
348.92578125
 30
7.530929088592529
 70
   192
  0
VERTEX
  5
5B5
  8
0
 10
4.963555812835693
 20
349.5216369628906
 30
7.282649517059326
 70
   192
  0
VERTEX
  5
5B6
  8
0
 10
3.718823432922363
 20
347.7405700683594
 30
3.53089451789856
 70
   192
  0
VERTEX
  5
5B7
  8
0
 10
4.963555812835693
 20
348.0651245117188
 30
-0.0000000000041433
 70
   192
  0
VERTEX
  5
5B8
  8
0
 10
5.778974056243896
 20
350.5927734375
 30
6.833605766296387
 70
   192
  0
VERTEX
  5
5B9
  8
0
 10
5.778974056243896
 20
352.7848205566406
 30
10.64514541625977
 70
   192
  0
VERTEX
  5
5BA
  8
0
 10
5.778974056243896
 20
356.3240661621094
 30
14.17967700958252
 70
   192
  0
VERTEX
  5
5BB
  8
0
 10
5.778974056243896
 20
361.1875305175781
 30
16.77463912963867
 70
   192
  0
VERTEX
  5
5BC
  8
0
 10
5.778974056243896
 20
366.9259643554688
 30
17.77400970458984
 70
   192
  0
VERTEX
  5
5BD
  8
0
 10
5.778974056243896
 20
372.7079467773438
 30
16.86142539978027
 70
   192
  0
VERTEX
  5
5BE
  8
0
 10
5.778974056243896
 20
377.6529235839844
 30
14.2823600769043
 70
   192
  0
VERTEX
  5
5BF
  8
0
 10
5.778974056243896
 20
381.2404174804688
 30
10.70936393737793
 70
   192
  0
VERTEX
  5
5C0
  8
0
 10
5.778974056243896
 20
383.4364013671875
 30
6.857077598571777
 70
   192
  0
VERTEX
  5
5C1
  8
0
 10
13.79312610626221
 20
356.8346557617188
 30
-1.863482713699341
 70
   192
  0
VERTEX
  5
5C2
  8
0
 10
10.44853496551514
 20
355.2657165527344
 30
-2.370563507080078
 70
   192
  0
VERTEX
  5
5C3
  8
0
 10
13.79312610626221
 20
357.5005493164062
 30
-3.934527158737183
 70
   192
  0
VERTEX
  5
5C4
  8
0
 10
10.44853496551514
 20
376.0195007324219
 30
-7.871569633483887
 70
   192
  0
VERTEX
  5
5C5
  8
0
 10
13.79312610626221
 20
375.2277526855469
 30
-6.264699459075928
 70
   192
  0
VERTEX
  5
5C6
  8
0
 10
13.79312610626221
 20
373.1555786132812
 30
-8.277779579162598
 70
   192
  0
VERTEX
  5
5C7
  8
0
 10
10.44853496551514
 20
355.0286560058594
 30
-0.0000000000042124
 70
   192
  0
VERTEX
  5
5C8
  8
0
 10
13.79312610626221
 20
356.6843566894531
 30
-0.0000000000041765
 70
   192
  0
VERTEX
  5
5C9
  8
0
 10
10.44853496551514
 20
356.1553649902344
 30
-5.070217132568359
 70
   192
  0
VERTEX
  5
5CA
  8
0
 10
7.661692142486572
 20
352.7166137695312
 30
-2.88553261756897
 70
   192
  0
VERTEX
  5
5CB
  8
0
 10
13.79312610626221
 20
360.780517578125
 30
-8.22688102722168
 70
   192
  0
VERTEX
  5
5CC
  8
0
 10
10.44853496551514
 20
357.9804992675781
 30
-7.871569633483887
 70
   192
  0
VERTEX
  5
5CD
  8
0
 10
10.44853496551514
 20
360.9222412109375
 30
-10.31377506256104
 70
   192
  0
VERTEX
  5
5CE
  8
0
 10
13.79312610626221
 20
370.2546997070312
 30
-9.796710014343262
 70
   192
  0
VERTEX
  5
5CF
  8
0
 10
10.44853496551514
 20
369.1587524414062
 30
-11.7750940322876
 70
   192
  0
VERTEX
  5
5D0
  8
0
 10
10.44853496551514
 20
373.0777587890625
 30
-10.31377506256104
 70
   192
  0
VERTEX
  5
5D1
  8
0
 10
13.79312610626221
 20
363.57763671875
 30
-9.685796737670898
 70
   192
  0
VERTEX
  5
5D2
  8
0
 10
10.44853496551514
 20
377.8446350097656
 30
-5.070217132568359
 70
   192
  0
VERTEX
  5
5D3
  8
0
 10
10.44853496551514
 20
378.7342834472656
 30
-2.370563507080078
 70
   192
  0
VERTEX
  5
5D4
  8
0
 10
13.79312610626221
 20
376.5387878417969
 30
-4.021551132202148
 70
   192
  0
VERTEX
  5
5D5
  8
0
 10
7.661692142486572
 20
381.2833862304688
 30
-2.88553261756897
 70
   192
  0
VERTEX
  5
5D6
  8
0
 10
5.778974056243896
 20
384.5082702636719
 30
-3.211288213729858
 70
   192
  0
VERTEX
  5
5D7
  8
0
 10
7.661692142486572
 20
381.5719299316406
 30
-0.0000000000042121
 70
   192
  0
VERTEX
  5
5D8
  8
0
 10
13.79312610626221
 20
377.1627807617188
 30
-1.875754952430725
 70
   192
  0
VERTEX
  5
5D9
  8
0
 10
10.44853496551514
 20
378.9713439941406
 30
-0.000000000004211
 70
   192
  0
VERTEX
  5
5DA
  8
0
 10
7.661692142486572
 20
380.2004699707031
 30
-6.171645164489746
 70
   192
  0
VERTEX
  5
5DB
  8
0
 10
5.778974056243896
 20
383.4072265625
 30
-6.833605766296387
 70
   192
  0
VERTEX
  5
5DC
  8
0
 10
13.79312610626221
 20
377.3156433105469
 30
-0.0000000000041773
 70
   192
  0
VERTEX
  5
5DD
  8
0
 10
13.79312610626221
 20
367.0120849609375
 30
-10.29031181335449
 70
   192
  0
VERTEX
  5
5DE
  8
0
 10
10.44853496551514
 20
364.8412475585938
 30
-11.7750940322876
 70
   192
  0
VERTEX
  5
5DF
  8
0
 10
13.79312610626221
 20
358.7434692382812
 30
-6.140775203704834
 70
   192
  0
VERTEX
  5
5E0
  8
0
 10
7.661692142486572
 20
352.4280700683594
 30
-0.0000000000042139
 70
   192
  0
VERTEX
  5
5E1
  8
0
 10
7.661692142486572
 20
377.9788513183594
 30
-9.581549644470215
 70
   192
  0
VERTEX
  5
5E2
  8
0
 10
7.661692142486572
 20
374.3980712890625
 30
-12.55428695678711
 70
   192
  0
VERTEX
  5
5E3
  8
0
 10
7.661692142486572
 20
369.6277160644531
 30
-14.33305549621582
 70
   192
  0
VERTEX
  5
5E4
  8
0
 10
7.661692142486572
 20
364.3722839355469
 30
-14.33305549621582
 70
   192
  0
VERTEX
  5
5E5
  8
0
 10
7.661692142486572
 20
359.6019287109375
 30
-12.55428695678711
 70
   192
  0
VERTEX
  5
5E6
  8
0
 10
7.661692142486572
 20
356.0211486816406
 30
-9.581549644470215
 70
   192
  0
VERTEX
  5
5E7
  8
0
 10
7.661692142486572
 20
353.7995300292969
 30
-6.171645164489746
 70
   192
  0
VERTEX
  5
5E8
  8
0
 10
5.778974056243896
 20
381.2151794433594
 30
-10.64514541625977
 70
   192
  0
VERTEX
  5
5E9
  8
0
 10
5.778974056243896
 20
377.6759338378906
 30
-14.17967700958252
 70
   192
  0
VERTEX
  5
5EA
  8
0
 10
5.778974056243896
 20
372.8124694824219
 30
-16.77463912963867
 70
   192
  0
VERTEX
  5
5EB
  8
0
 10
5.778974056243896
 20
367.0740356445312
 30
-17.77400970458984
 70
   192
  0
VERTEX
  5
5EC
  8
0
 10
5.778974056243896
 20
361.2920532226562
 30
-16.86142539978027
 70
   192
  0
VERTEX
  5
5ED
  8
0
 10
5.778974056243896
 20
356.3470764160156
 30
-14.2823600769043
 70
   192
  0
VERTEX
  5
5EE
  8
0
 10
5.778974056243896
 20
352.7595825195312
 30
-10.70936393737793
 70
   192
  0
VERTEX
  5
5EF
  8
0
 10
5.778974056243896
 20
350.5635986328125
 30
-6.857077598571777
 70
   192
  0
VERTEX
  5
5F0
  8
0
 10
5.778974056243896
 20
349.4917297363281
 30
-3.211288213729858
 70
   192
  0
VERTEX
  5
5F1
  8
0
 10
13.94283485412598
 20
357.107421875
 30
2.512400150299072
 70
   192
  0
VERTEX
  5
5F2
  8
0
 10
14.0
 20
356.9695434570312
 30
-0.0000000000041781
 70
   192
  0
VERTEX
  5
5F3
  8
0
 10
14.0
 20
357.4718627929688
 30
3.124317169189453
 70
   192
  0
VERTEX
  5
5F4
  8
0
 10
13.79312610626221
 20
373.1570434570312
 30
8.27540111541748
 70
   192
  0
VERTEX
  5
5F5
  8
0
 10
13.94283485412598
 20
373.1239624023438
 30
8.165300369262695
 70
   192
  0
VERTEX
  5
5F6
  8
0
 10
13.79312610626221
 20
375.2242126464844
 30
6.181658744812012
 70
   192
  0
VERTEX
  5
5F7
  8
0
 10
13.94283485412598
 20
369.240478515625
 30
9.957683563232422
 70
   192
  0
VERTEX
  5
5F8
  8
0
 10
13.79312610626221
 20
370.3196716308594
 30
9.723443031311035
 70
   192
  0
VERTEX
  5
5F9
  8
0
 10
13.94283485412598
 20
375.666015625
 30
5.392179489135742
 70
   192
  0
VERTEX
  5
5FA
  8
0
 10
13.94283485412598
 20
376.892578125
 30
2.512400150299072
 70
   192
  0
VERTEX
  5
5FB
  8
0
 10
13.79312610626221
 20
376.4875183105469
 30
3.962562322616577
 70
   192
  0
VERTEX
  5
5FC
  8
0
 10
14.0
 20
376.791015625
 30
2.213863134384155
 70
   192
  0
VERTEX
  5
5FD
  8
0
 10
13.89656257629395
 20
377.1730651855469
 30
-0.0000000000041769
 70
   192
  0
VERTEX
  5
5FE
  8
0
 10
13.79312610626221
 20
377.1626892089844
 30
1.876158952713013
 70
   192
  0
VERTEX
  5
5FF
  8
0
 10
14.0
 20
377.0304565429688
 30
-0.0000000000041769
 70
   192
  0
VERTEX
  5
600
  8
0
 10
13.79312610626221
 20
367.0079040527344
 30
10.29028797149658
 70
   192
  0
VERTEX
  5
601
  8
0
 10
13.94283485412598
 20
364.759521484375
 30
9.957683563232422
 70
   192
  0
VERTEX
  5
602
  8
0
 10
13.79312610626221
 20
363.6471557617188
 30
9.76397705078125
 70
   192
  0
VERTEX
  5
603
  8
0
 10
13.94283485412598
 20
360.8760375976562
 30
8.165300369262695
 70
   192
  0
VERTEX
  5
604
  8
0
 10
13.79312610626221
 20
360.7784118652344
 30
8.22953987121582
 70
   192
  0
VERTEX
  5
605
  8
0
 10
13.94283485412598
 20
358.333984375
 30
5.392179489135742
 70
   192
  0
VERTEX
  5
606
  8
0
 10
14.0
 20
361.0756225585938
 30
8.094196319580078
 70
   192
  0
VERTEX
  5
607
  8
0
 10
13.79312610626221
 20
358.7400207519531
 30
6.220622062683105
 70
   192
  0
VERTEX
  5
608
  8
0
 10
13.79312610626221
 20
357.4492492675781
 30
3.993516445159912
 70
   192
  0
VERTEX
  5
609
  8
0
 10
13.89656257629395
 20
356.8269348144531
 30
-0.0000000000041806
 70
   192
  0
VERTEX
  5
60A
  8
0
 10
13.79312610626221
 20
356.8345947265625
 30
1.863078951835632
 70
   192
  0
VERTEX
  5
60B
  8
0
 10
14.0
 20
358.8505249023438
 30
5.834614753723145
 70
   192
  0
VERTEX
  5
60C
  8
0
 10
14.0
 20
363.8224487304688
 30
9.503767967224121
 70
   192
  0
VERTEX
  5
60D
  8
0
 10
14.0
 20
370.7515258789062
 30
9.311833381652832
 70
   192
  0
VERTEX
  5
60E
  8
0
 10
14.0
 20
373.8808288574219
 30
7.331136703491211
 70
   192
  0
VERTEX
  5
60F
  8
0
 10
14.0
 20
375.8511962890625
 30
4.758560657501221
 70
   192
  0
VERTEX
  5
610
  8
0
 10
13.91213226318359
 20
369.5726013183594
 30
-8.820353507995605
 70
   192
  0
VERTEX
  5
611
  8
0
 10
13.69999980926514
 20
369.5480041503906
 30
-8.736000061035156
 70
   192
  0
VERTEX
  5
612
  8
0
 10
13.69999980926514
 20
372.4599914550781
 30
7.28000020980835
 70
   192
  0
VERTEX
  5
613
  8
0
 10
13.69999980926514
 20
375.0294189453125
 30
4.282352924346924
 70
   192
  0
VERTEX
  5
614
  8
0
 10
13.91213226318359
 20
372.5127258300781
 30
7.350294589996338
 70
   192
  0
VERTEX
  5
615
  8
0
 10
13.91213226318359
 20
376.1878662109375
 30
-0.000000000004094
 70
   192
  0
VERTEX
  5
616
  8
0
 10
13.91213226318359
 20
375.10693359375
 30
4.323702335357666
 70
   192
  0
VERTEX
  5
617
  8
0
 10
13.69999980926514
 20
376.1000061035156
 30
-0.0000000000041731
 70
   192
  0
VERTEX
  5
618
  8
0
 10
13.91213226318359
 20
369.5726013183594
 30
8.820353507995605
 70
   192
  0
VERTEX
  5
619
  8
0
 10
13.69999980926514
 20
369.5480041503906
 30
8.736000061035156
 70
   192
  0
VERTEX
  5
61A
  8
0
 10
13.69999980926514
 20
375.0294189453125
 30
-4.282352924346924
 70
   192
  0
VERTEX
  5
61B
  8
0
 10
13.91213226318359
 20
375.10693359375
 30
-4.323702335357666
 70
   192
  0
VERTEX
  5
61C
  8
0
 10
13.69999980926514
 20
372.4599914550781
 30
-7.28000020980835
 70
   192
  0
VERTEX
  5
61D
  8
0
 10
13.91213226318359
 20
372.5127258300781
 30
-7.350294589996338
 70
   192
  0
VERTEX
  5
61E
  8
0
 10
-2.0
 20
358.5384521484375
 30
-20.30769157409668
 70
   192
  0
VERTEX
  5
61F
  8
0
 10
-2.0
 20
363.0327758789062
 30
-21.63934516906738
 70
   192
  0
VERTEX
  5
620
  8
0
 10
-2.0
 20
353.7999877929688
 30
-17.60000038146973
 70
   192
  0
VERTEX
  5
621
  8
0
 10
-2.0
 20
346.1891784667969
 30
-7.135135173797607
 70
   192
  0
VERTEX
  5
622
  8
0
 10
-2.0
 20
349.3999938964844
 30
-13.19999980926514
 70
   192
  0
VERTEX
  5
623
  8
0
 10
-2.0
 20
345.0
 30
-0.0000000000041425
 70
   192
  0
VERTEX
  5
624
  8
0
 10
-2.0
 20
353.7999877929688
 30
17.60000038146973
 70
   192
  0
VERTEX
  5
625
  8
0
 10
-2.0
 20
346.1891784667969
 30
7.135135173797607
 70
   192
  0
VERTEX
  5
626
  8
0
 10
-2.0
 20
349.3999938964844
 30
13.19999980926514
 70
   192
  0
VERTEX
  5
627
  8
0
 10
-2.0
 20
363.0327758789062
 30
21.63934516906738
 70
   192
  0
VERTEX
  5
628
  8
0
 10
-2.0
 20
358.5384521484375
 30
20.30769157409668
 70
   192
  0
VERTEX
  5
629
  8
0
 10
13.69999980926514
 20
358.9705810546875
 30
4.282352924346924
 70
   192
  0
VERTEX
  5
62A
  8
0
 10
13.91213226318359
 20
357.8121337890625
 30
-0.0000000000040942
 70
   192
  0
VERTEX
  5
62B
  8
0
 10
13.69999980926514
 20
357.8999938964844
 30
-0.0000000000041731
 70
   192
  0
VERTEX
  5
62C
  8
0
 10
13.91213226318359
 20
361.4872741699219
 30
7.350294589996338
 70
   192
  0
VERTEX
  5
62D
  8
0
 10
13.69999980926514
 20
364.4519958496094
 30
8.736000061035156
 70
   192
  0
VERTEX
  5
62E
  8
0
 10
13.91213226318359
 20
364.4273986816406
 30
8.820353507995605
 70
   192
  0
VERTEX
  5
62F
  8
0
 10
13.91213226318359
 20
358.89306640625
 30
-4.323702335357666
 70
   192
  0
VERTEX
  5
630
  8
0
 10
13.91213226318359
 20
361.4872741699219
 30
-7.350294589996338
 70
   192
  0
VERTEX
  5
631
  8
0
 10
13.91213226318359
 20
364.4273986816406
 30
-8.820353507995605
 70
   192
  0
VERTEX
  5
632
  8
0
 10
13.69999980926514
 20
361.5400085449219
 30
-7.28000020980835
 70
   192
  0
VERTEX
  5
633
  8
0
 10
13.69999980926514
 20
364.4519958496094
 30
-8.736000061035156
 70
   192
  0
VERTEX
  5
634
  8
0
 10
13.69999980926514
 20
358.9705810546875
 30
-4.282352924346924
 70
   192
  0
VERTEX
  5
635
  8
0
 10
13.91213226318359
 20
358.89306640625
 30
4.323702335357666
 70
   192
  0
VERTEX
  5
636
  8
0
 10
13.69999980926514
 20
361.5400085449219
 30
7.28000020980835
 70
   192
  0
VERTEX
  5
637
  8
0
 10
14.0
 20
361.1060791015625
 30
-8.107202529907227
 70
   192
  0
VERTEX
  5
638
  8
0
 10
14.0
 20
358.9175720214844
 30
-5.920718669891357
 70
   192
  0
VERTEX
  5
639
  8
0
 10
14.0
 20
373.878173828125
 30
-7.242550849914551
 70
   192
  0
VERTEX
  5
63A
  8
0
 10
14.0
 20
363.8954467773438
 30
-9.535773277282715
 70
   192
  0
VERTEX
  5
63B
  8
0
 10
14.0
 20
357.4745483398438
 30
-3.1293785572052
 70
   192
  0
VERTEX
  5
63C
  8
0
 10
14.0
 20
370.8383178710938
 30
-9.21714973449707
 70
   192
  0
VERTEX
  5
63D
  8
0
 10
14.0
 20
375.8202514648438
 30
-4.722153663635254
 70
   192
  0
VERTEX
  5
63E
  8
0
 10
14.0
 20
376.791015625
 30
-2.213863134384155
 70
   192
  0
VERTEX
  5
63F
  8
0
 10
13.94283485412598
 20
375.666015625
 30
-5.392179489135742
 70
   192
  0
VERTEX
  5
640
  8
0
 10
13.94283485412598
 20
373.1239624023438
 30
-8.165300369262695
 70
   192
  0
VERTEX
  5
641
  8
0
 10
13.94283485412598
 20
364.759521484375
 30
-9.957683563232422
 70
   192
  0
VERTEX
  5
642
  8
0
 10
13.94283485412598
 20
376.892578125
 30
-2.512400150299072
 70
   192
  0
VERTEX
  5
643
  8
0
 10
13.94283485412598
 20
360.8760375976562
 30
-8.165300369262695
 70
   192
  0
VERTEX
  5
644
  8
0
 10
13.94283485412598
 20
369.240478515625
 30
-9.957683563232422
 70
   192
  0
VERTEX
  5
645
  8
0
 10
13.94283485412598
 20
357.107421875
 30
-2.512400150299072
 70
   192
  0
VERTEX
  5
646
  8
0
 10
13.94283485412598
 20
358.333984375
 30
-5.392179489135742
 70
   192
  0
VERTEX
  5
647
  8
0
 10
10.44853496551514
 20
356.1553649902344
 30
5.070217132568359
 70
   192
  0
VERTEX
  5
648
  8
0
 10
10.44853496551514
 20
357.9804992675781
 30
7.871569633483887
 70
   192
  0
VERTEX
  5
649
  8
0
 10
10.44853496551514
 20
360.9222412109375
 30
10.31377506256104
 70
   192
  0
VERTEX
  5
64A
  8
0
 10
10.44853496551514
 20
355.2657165527344
 30
2.370563507080078
 70
   192
  0
VERTEX
  5
64B
  8
0
 10
7.661692142486572
 20
353.7995300292969
 30
6.171645164489746
 70
   192
  0
VERTEX
  5
64C
  8
0
 10
7.661692142486572
 20
352.7166137695312
 30
2.88553261756897
 70
   192
  0
VERTEX
  5
64D
  8
0
 10
10.44853496551514
 20
364.8412475585938
 30
11.7750940322876
 70
   192
  0
VERTEX
  5
64E
  8
0
 10
10.44853496551514
 20
369.1587524414062
 30
11.7750940322876
 70
   192
  0
VERTEX
  5
64F
  8
0
 10
10.44853496551514
 20
373.0777587890625
 30
10.31377506256104
 70
   192
  0
VERTEX
  5
650
  8
0
 10
10.44853496551514
 20
376.0195007324219
 30
7.871569633483887
 70
   192
  0
VERTEX
  5
651
  8
0
 10
7.661692142486572
 20
381.2833862304688
 30
2.88553261756897
 70
   192
  0
VERTEX
  5
652
  8
0
 10
10.44853496551514
 20
377.8446350097656
 30
5.070217132568359
 70
   192
  0
VERTEX
  5
653
  8
0
 10
10.44853496551514
 20
378.7342834472656
 30
2.370563507080078
 70
   192
  0
VERTEX
  5
654
  8
0
 10
7.661692142486572
 20
356.0211486816406
 30
9.581549644470215
 70
   192
  0
VERTEX
  5
655
  8
0
 10
7.661692142486572
 20
359.6019287109375
 30
12.55428695678711
 70
   192
  0
VERTEX
  5
656
  8
0
 10
7.661692142486572
 20
364.3722839355469
 30
14.33305549621582
 70
   192
  0
VERTEX
  5
657
  8
0
 10
7.661692142486572
 20
369.6277160644531
 30
14.33305549621582
 70
   192
  0
VERTEX
  5
658
  8
0
 10
7.661692142486572
 20
374.3980712890625
 30
12.55428695678711
 70
   192
  0
VERTEX
  5
659
  8
0
 10
7.661692142486572
 20
377.9788513183594
 30
9.581549644470215
 70
   192
  0
VERTEX
  5
65A
  8
0
 10
7.661692142486572
 20
380.2004699707031
 30
6.171645164489746
 70
   192
  0
VERTEX
  5
65B
  8
0
 10
4.963555812835693
 20
384.4783630371094
 30
-7.282649517059326
 70
   192
  0
VERTEX
  5
65C
  8
0
 10
4.963555812835693
 20
385.6244812011719
 30
-3.414488077163696
 70
   192
  0
VERTEX
  5
65D
  8
0
 10
4.963555812835693
 20
382.1479187011719
 30
-11.36093330383301
 70
   192
  0
VERTEX
  5
65E
  8
0
 10
4.963555812835693
 20
378.3609313964844
 30
-15.14791011810303
 70
   192
  0
VERTEX
  5
65F
  8
0
 10
4.963555812835693
 20
360.8589477539062
 30
-17.91138076782227
 70
   192
  0
VERTEX
  5
660
  8
0
 10
4.963555812835693
 20
367.0
 30
-18.93488883972168
 70
   192
  0
VERTEX
  5
661
  8
0
 10
4.963555812835693
 20
373.1410522460938
 30
-17.91138076782227
 70
   192
  0
VERTEX
  5
662
  8
0
 10
4.963555812835693
 20
351.8520812988281
 30
-11.36093330383301
 70
   192
  0
VERTEX
  5
663
  8
0
 10
4.963555812835693
 20
355.6390686035156
 30
-15.14791011810303
 70
   192
  0
VERTEX
  5
664
  8
0
 10
4.963555812835693
 20
348.3755187988281
 30
-3.414488077163696
 70
   192
  0
VERTEX
  5
665
  8
0
 10
4.963555812835693
 20
349.5216369628906
 30
-7.282649517059326
 70
   192
  0
VERTEX
  5
666
  8
0
 10
2.893203496932983
 20
354.9957275390625
 30
16.00570678710938
 70
   192
  0
VERTEX
  5
667
  8
0
 10
2.893203496932983
 20
360.5111999511719
 30
18.92566680908203
 70
   192
  0
VERTEX
  5
668
  8
0
 10
2.893203496932983
 20
367.0
 30
20.00713348388672
 70
   192
  0
VERTEX
  5
669
  8
0
 10
2.893203496932983
 20
350.9942932128906
 30
12.00428009033203
 70
   192
  0
VERTEX
  5
66A
  8
0
 10
2.893203496932983
 20
348.5318908691406
 30
7.695051670074463
 70
   192
  0
VERTEX
  5
66B
  8
0
 10
2.893203496932983
 20
347.3208618164062
 30
3.60784387588501
 70
   192
  0
VERTEX
  5
66C
  8
0
 10
2.893203496932983
 20
373.4888000488281
 30
18.92566680908203
 70
   192
  0
VERTEX
  5
66D
  8
0
 10
2.893203496932983
 20
379.0042724609375
 30
16.00570678710938
 70
   192
  0
VERTEX
  5
66E
  8
0
 10
2.893203496932983
 20
383.0057067871094
 30
12.00428009033203
 70
   192
  0
VERTEX
  5
66F
  8
0
 10
2.893203496932983
 20
385.4681091308594
 30
7.695051670074463
 70
   192
  0
VERTEX
  5
670
  8
0
 10
2.893203496932983
 20
386.6791381835938
 30
3.60784387588501
 70
   192
  0
VERTEX
  5
671
  8
0
 10
1.613131999969482
 20
388.3064880371094
 30
-3.906191349029541
 70
   192
  0
VERTEX
  5
672
  8
0
 10
1.613131999969482
 20
386.9953308105469
 30
-8.331387519836426
 70
   192
  0
VERTEX
  5
673
  8
0
 10
1.613131999969482
 20
384.3292846679688
 30
-12.99696445465088
 70
   192
  0
VERTEX
  5
674
  8
0
 10
1.613131999969482
 20
379.9969787597656
 30
-17.32928466796875
 70
   192
  0
VERTEX
  5
675
  8
0
 10
1.613131999969482
 20
367.0
 30
-21.66160583496094
 70
   192
  0
VERTEX
  5
676
  8
0
 10
1.613131999969482
 20
359.974609375
 30
-20.49070930480957
 70
   192
  0
VERTEX
  5
677
  8
0
 10
1.613131999969482
 20
374.025390625
 30
-20.49070930480957
 70
   192
  0
VERTEX
  5
678
  8
0
 10
1.613131999969482
 20
347.0046691894531
 30
-8.331387519836426
 70
   192
  0
VERTEX
  5
679
  8
0
 10
0.5
 20
348.3207397460938
 30
-11.62264156341553
 70
   192
  0
VERTEX
  5
67A
  8
0
 10
0.5
 20
351.8275756835938
 30
-15.93103408813477
 70
   192
  0
VERTEX
  5
67B
  8
0
 10
0.5
 20
355.8307800292969
 30
-18.9538459777832
 70
   192
  0
VERTEX
  5
67C
  8
0
 10
1.613131999969482
 20
349.6707153320312
 30
-12.99696445465088
 70
   192
  0
VERTEX
  5
67D
  8
0
 10
1.613131999969482
 20
345.6935119628906
 30
-3.906191349029541
 70
   192
  0
VERTEX
  5
67E
  8
0
 10
0.5
 20
345.8800048828125
 30
-6.159999847412109
 70
   192
  0
VERTEX
  5
67F
  8
0
 10
1.613131999969482
 20
354.0030212402344
 30
-17.32928466796875
 70
   192
  0
VERTEX
  5
680
  8
0
 10
0.5
 20
359.8648681640625
 30
-20.81081008911133
 70
   192
  0
VERTEX
  5
681
  8
0
 10
0.5
 20
363.6352844238281
 30
-21.74117660522461
 70
   192
  0
VERTEX
  5
682
  8
0
 62
   123
 10
0.0
 20
0.0
 30
0.0
 70
   128
 71
     3
 72
     2
 73
     1
  0
VERTEX
  5
683
  8
0
 62
   123
 10
0.0
 20
0.0
 30
0.0
 70
   128
 71
     6
 72
     5
 73
     4
  0
VERTEX
  5
684
  8
0
 62
   123
 10
0.0
 20
0.0
 30
0.0
 70
   128
 71
     3
 72
     8
 73
     7
  0
VERTEX
  5
685
  8
0
 62
   123
 10
0.0
 20
0.0
 30
0.0
 70
   128
 71
     8
 72
     3
 73
     1
  0
VERTEX
  5
686
  8
0
 62
   123
 10
0.0
 20
0.0
 30
0.0
 70
   128
 71
    10
 72
     9
 73
     7
  0
VERTEX
  5
687
  8
0
 62
   123
 10
0.0
 20
0.0
 30
0.0
 70
   128
 71
     7
 72
     8
 73
    10
  0
VERTEX
  5
688
  8
0
 62
   123
 10
0.0
 20
0.0
 30
0.0
 70
   128
 71
    10
 72
    11
 73
     9
  0
VERTEX
  5
689
  8
0
 62
   123
 10
0.0
 20
0.0
 30
0.0
 70
   128
 71
    11
 72
    12
 73
     9
  0
VERTEX
  5
68A
  8
0
 62
   123
 10
0.0
 20
0.0
 30
0.0
 70
   128
 71
    13
 72
     1
 73
     2
  0
VERTEX
  5
68B
  8
0
 62
   123
 10
0.0
 20
0.0
 30
0.0
 70
   128
 71
    15
 72
    14
 73
    13
  0
VERTEX
  5
68C
  8
0
 62
   123
 10
0.0
 20
0.0
 30
0.0
 70
   128
 71
    13
 72
     2
 73
    15
  0
VERTEX
  5
68D
  8
0
 62
   123
 10
0.0
 20
0.0
 30
0.0
 70
   128
 71
     4
 72
    14
 73
    16
  0
VERTEX
  5
68E
  8
0
 62
   123
 10
0.0
 20
0.0
 30
0.0
 70
   128
 71
    15
 72
    16
 73
    14
  0
VERTEX
  5
68F
  8
0
 62
   123
 10
0.0
 20
0.0
 30
0.0
 70
   128
 71
    19
 72
    18
 73
    17
  0
VERTEX
  5
690
  8
0
 62
   123
 10
0.0
 20
0.0
 30
0.0
 70
   128
 71
    20
 72
     4
 73
    16
  0
VERTEX
  5
691
  8
0
 62
   123
 10
0.0
 20
0.0
 30
0.0
 70
   128
 71
    23
 72
    22
 73
    21
  0
VERTEX
  5
692
  8
0
 62
   123
 10
0.0
 20
0.0
 30
0.0
 70
   128
 71
    26
 72
    25
 73
    24
  0
VERTEX
  5
693
  8
0
 62
   123
 10
0.0
 20
0.0
 30
0.0
 70
   128
 71
    21
 72
    28
 73
    27
  0
VERTEX
  5
694
  8
0
 62
   123
 10
0.0
 20
0.0
 30
0.0
 70
   128
 71
    27
 72
    23
 73
    21
  0
VERTEX
  5
695
  8
0
 62
   123
 10
0.0
 20
0.0
 30
0.0
 70
   128
 71
    24
 72
    22
 73
    26
  0
VERTEX
  5
696
  8
0
 62
   123
 10
0.0
 20
0.0
 30
0.0
 70
   128
 71
    23
 72
    26
 73
    22
  0
VERTEX
  5
697
  8
0
 62
   123
 10
0.0
 20
0.0
 30
0.0
 70
   128
 71
    19
 72
    17
 73
    25
  0
VERTEX
  5
698
  8
0
 62
   123
 10
0.0
 20
0.0
 30
0.0
 70
   128
 71
    25
 72
    17
 73
    24
  0
VERTEX
  5
699
  8
0
 62
   123
 10
0.0
 20
0.0
 30
0.0
 70
   128
 71
     6
 72
    18
 73
     5
  0
VERTEX
  5
69A
  8
0
 62
   123
 10
0.0
 20
0.0
 30
0.0
 70
   128
 71
     5
 72
    18
 73
    19
  0
VERTEX
  5
69B
  8
0
 62
   123
 10
0.0
 20
0.0
 30
0.0
 70
   128
 71
    20
 72
     6
 73
     4
  0
VERTEX
  5
69C
  8
0
 62
   123
 10
0.0
 20
0.0
 30
0.0
 70
   128
 71
    31
 72
    30
 73
    29
  0
VERTEX
  5
69D
  8
0
 62
   123
 10
0.0
 20
0.0
 30
0.0
 70
   128
 71
    33
 72
    22
 73
    32
  0
VERTEX
  5
69E
  8
0
 62
   123
 10
0.0
 20
0.0
 30
0.0
 70
   128
 71
    34
 72
    21
 73
    33
  0
VERTEX
  5
69F
  8
0
 62
   123
 10
0.0
 20
0.0
 30
0.0
 70
   128
 71
    24
 72
    35
 73
    32
  0
VERTEX
  5
6A0
  8
0
 62
   123
 10
0.0
 20
0.0
 30
0.0
 70
   128
 71
    17
 72
    35
 73
    24
  0
VERTEX
  5
6A1
  8
0
 62
   123
 10
0.0
 20
0.0
 30
0.0
 70
   128
 71
    36
 72
    17
 73
    18
  0
VERTEX
  5
6A2
  8
0
 62
   123
 10
0.0
 20
0.0
 30
0.0
 70
   128
 71
    18
 72
     6
 73
    37
  0
VERTEX
  5
6A3
  8
0
 62
   123
 10
0.0
 20
0.0
 30
0.0
 70
   128
 71
    35
 72
    17
 73
    36
  0
VERTEX
  5
6A4
  8
0
 62
   123
 10
0.0
 20
0.0
 30
0.0
 70
   128
 71
    37
 72
    20
 73
    38
  0
VERTEX
  5
6A5
  8
0
 62
   123
 10
0.0
 20
0.0
 30
0.0
 70
   128
 71
    37
 72
    36
 73
    18
  0
VERTEX
  5
6A6
  8
0
 62
   123
 10
0.0
 20
0.0
 30
0.0
 70
   128
 71
    20
 72
    37
 73
     6
  0
VERTEX
  5
6A7
  8
0
 62
   123
 10
0.0
 20
0.0
 30
0.0
 70
   128
 71
    38
 72
    40
 73
    39
  0
VERTEX
  5
6A8
  8
0
 62
   123
 10
0.0
 20
0.0
 30
0.0
 70
   128
 71
    33
 72
    32
 73
    41
  0
VERTEX
  5
6A9
  8
0
 62
   123
 10
0.0
 20
0.0
 30
0.0
 70
   128
 71
    34
 72
    33
 73
    42
  0
VERTEX
  5
6AA
  8
0
 62
   123
 10
0.0
 20
0.0
 30
0.0
 70
   128
 71
    28
 72
    34
 73
    43
  0
VERTEX
  5
6AB
  8
0
 62
   123
 10
0.0
 20
0.0
 30
0.0
 70
   128
 71
    28
 72
    21
 73
    34
  0
VERTEX
  5
6AC
  8
0
 62
   123
 10
0.0
 20
0.0
 30
0.0
 70
   128
 71
    45
 72
    43
 73
    44
  0
VERTEX
  5
6AD
  8
0
 62
   123
 10
0.0
 20
0.0
 30
0.0
 70
   128
 71
    46
 72
    28
 73
    43
  0
VERTEX
  5
6AE
  8
0
 62
   123
 10
0.0
 20
0.0
 30
0.0
 70
   128
 71
    44
 72
    48
 73
    47
  0
VERTEX
  5
6AF
  8
0
 62
   123
 10
0.0
 20
0.0
 30
0.0
 70
   128
 71
    43
 72
    45
 73
    46
  0
VERTEX
  5
6B0
  8
0
 62
   123
 10
0.0
 20
0.0
 30
0.0
 70
   128
 71
    50
 72
    49
 73
    48
  0
VERTEX
  5
6B1
  8
0
 62
   123
 10
0.0
 20
0.0
 30
0.0
 70
   128
 71
    47
 72
    45
 73
    44
  0
VERTEX
  5
6B2
  8
0
 62
   123
 10
0.0
 20
0.0
 30
0.0
 70
   128
 71
    50
 72
    29
 73
    51
  0
VERTEX
  5
6B3
  8
0
 62
   123
 10
0.0
 20
0.0
 30
0.0
 70
   128
 71
    47
 72
    48
 73
    49
  0
VERTEX
  5
6B4
  8
0
 62
   123
 10
0.0
 20
0.0
 30
0.0
 70
   128
 71
    53
 72
    52
 73
    29
  0
VERTEX
  5
6B5
  8
0
 62
   123
 10
0.0
 20
0.0
 30
0.0
 70
   128
 71
    31
 72
    29
 73
    50
  0
VERTEX
  5
6B6
  8
0
 62
   123
 10
0.0
 20
0.0
 30
0.0
 70
   128
 71
    53
 72
    29
 73
    30
  0
VERTEX
  5
6B7
  8
0
 62
   123
 10
0.0
 20
0.0
 30
0.0
 70
   128
 71
    53
 72
    54
 73
    52
  0
VERTEX
  5
6B8
  8
0
 62
   123
 10
0.0
 20
0.0
 30
0.0
 70
   128
 71
    55
 72
    31
 73
    50
  0
VERTEX
  5
6B9
  8
0
 62
   123
 10
0.0
 20
0.0
 30
0.0
 70
   128
 71
    29
 72
    52
 73
    51
  0
VERTEX
  5
6BA
  8
0
 62
   123
 10
0.0
 20
0.0
 30
0.0
 70
   128
 71
    56
 72
    55
 73
    48
  0
VERTEX
  5
6BB
  8
0
 62
   123
 10
0.0
 20
0.0
 30
0.0
 70
   128
 71
    50
 72
    51
 73
    49
  0
VERTEX
  5
6BC
  8
0
 62
   123
 10
0.0
 20
0.0
 30
0.0
 70
   128
 71
    50
 72
    48
 73
    55
  0
VERTEX
  5
6BD
  8
0
 62
   123
 10
0.0
 20
0.0
 30
0.0
 70
   128
 71
    57
 72
    56
 73
    44
  0
VERTEX
  5
6BE
  8
0
 62
   123
 10
0.0
 20
0.0
 30
0.0
 70
   128
 71
    48
 72
    44
 73
    56
  0
VERTEX
  5
6BF
  8
0
 62
   123
 10
0.0
 20
0.0
 30
0.0
 70
   128
 71
    58
 72
    57
 73
    43
  0
VERTEX
  5
6C0
  8
0
 62
   123
 10
0.0
 20
0.0
 30
0.0
 70
   128
 71
    44
 72
    43
 73
    57
  0
VERTEX
  5
6C1
  8
0
 62
   123
 10
0.0
 20
0.0
 30
0.0
 70
   128
 71
    34
 72
    42
 73
    58
  0
VERTEX
  5
6C2
  8
0
 62
   123
 10
0.0
 20
0.0
 30
0.0
 70
   128
 71
    41
 72
    42
 73
    33
  0
VERTEX
  5
6C3
  8
0
 62
   123
 10
0.0
 20
0.0
 30
0.0
 70
   128
 71
    43
 72
    34
 73
    58
  0
VERTEX
  5
6C4
  8
0
 62
   123
 10
0.0
 20
0.0
 30
0.0
 70
   128
 71
    59
 72
    41
 73
    32
  0
VERTEX
  5
6C5
  8
0
 62
   123
 10
0.0
 20
0.0
 30
0.0
 70
   128
 71
    33
 72
    21
 73
    22
  0
VERTEX
  5
6C6
  8
0
 62
   123
 10
0.0
 20
0.0
 30
0.0
 70
   128
 71
    60
 72
    59
 73
    35
  0
VERTEX
  5
6C7
  8
0
 62
   123
 10
0.0
 20
0.0
 30
0.0
 70
   128
 71
    32
 72
    22
 73
    24
  0
VERTEX
  5
6C8
  8
0
 62
   123
 10
0.0
 20
0.0
 30
0.0
 70
   128
 71
    32
 72
    35
 73
    59
  0
VERTEX
  5
6C9
  8
0
 62
   123
 10
0.0
 20
0.0
 30
0.0
 70
   128
 71
    61
 72
    60
 73
    36
  0
VERTEX
  5
6CA
  8
0
 62
   123
 10
0.0
 20
0.0
 30
0.0
 70
   128
 71
    35
 72
    36
 73
    60
  0
VERTEX
  5
6CB
  8
0
 62
   123
 10
0.0
 20
0.0
 30
0.0
 70
   128
 71
    39
 72
    61
 73
    37
  0
VERTEX
  5
6CC
  8
0
 62
   123
 10
0.0
 20
0.0
 30
0.0
 70
   128
 71
    36
 72
    37
 73
    61
  0
VERTEX
  5
6CD
  8
0
 62
   123
 10
0.0
 20
0.0
 30
0.0
 70
   128
 71
    39
 72
    37
 73
    38
  0
VERTEX
  5
6CE
  8
0
 62
   123
 10
0.0
 20
0.0
 30
0.0
 70
   128
 71
    63
 72
    30
 73
    62
  0
VERTEX
  5
6CF
  8
0
 62
   123
 10
0.0
 20
0.0
 30
0.0
 70
   128
 71
    66
 72
    65
 73
    64
  0
VERTEX
  5
6D0
  8
0
 62
   123
 10
0.0
 20
0.0
 30
0.0
 70
   128
 71
    69
 72
    68
 73
    67
  0
VERTEX
  5
6D1
  8
0
 62
   123
 10
0.0
 20
0.0
 30
0.0
 70
   128
 71
    72
 72
    71
 73
    70
  0
VERTEX
  5
6D2
  8
0
 62
   123
 10
0.0
 20
0.0
 30
0.0
 70
   128
 71
    74
 72
    62
 73
    73
  0
VERTEX
  5
6D3
  8
0
 62
   123
 10
0.0
 20
0.0
 30
0.0
 70
   128
 71
    77
 72
    76
 73
    75
  0
VERTEX
  5
6D4
  8
0
 62
   123
 10
0.0
 20
0.0
 30
0.0
 70
   128
 71
    71
 72
    72
 73
    78
  0
VERTEX
  5
6D5
  8
0
 62
   123
 10
0.0
 20
0.0
 30
0.0
 70
   128
 71
    81
 72
    80
 73
    79
  0
VERTEX
  5
6D6
  8
0
 62
   123
 10
0.0
 20
0.0
 30
0.0
 70
   128
 71
    75
 72
    65
 73
    77
  0
VERTEX
  5
6D7
  8
0
 62
   123
 10
0.0
 20
0.0
 30
0.0
 70
   128
 71
    84
 72
    83
 73
    82
  0
VERTEX
  5
6D8
  8
0
 62
   123
 10
0.0
 20
0.0
 30
0.0
 70
   128
 71
    85
 72
    82
 73
    79
  0
VERTEX
  5
6D9
  8
0
 62
   123
 10
0.0
 20
0.0
 30
0.0
 70
   128
 71
    86
 72
    84
 73
    82
  0
VERTEX
  5
6DA
  8
0
 62
   123
 10
0.0
 20
0.0
 30
0.0
 70
   128
 71
    84
 72
    86
 73
    40
  0
VERTEX
  5
6DB
  8
0
 62
   123
 10
0.0
 20
0.0
 30
0.0
 70
   128
 71
    82
 72
    87
 73
    86
  0
VERTEX
  5
6DC
  8
0
 62
   123
 10
0.0
 20
0.0
 30
0.0
 70
   128
 71
    81
 72
    64
 73
    80
  0
VERTEX
  5
6DD
  8
0
 62
   123
 10
0.0
 20
0.0
 30
0.0
 70
   128
 71
    64
 72
    81
 73
    66
  0
VERTEX
  5
6DE
  8
0
 62
   123
 10
0.0
 20
0.0
 30
0.0
 70
   128
 71
    76
 72
    88
 73
    75
  0
VERTEX
  5
6DF
  8
0
 62
   123
 10
0.0
 20
0.0
 30
0.0
 70
   128
 71
    66
 72
    77
 73
    65
  0
VERTEX
  5
6E0
  8
0
 62
   123
 10
0.0
 20
0.0
 30
0.0
 70
   128
 71
    89
 72
    74
 73
    73
  0
VERTEX
  5
6E1
  8
0
 62
   123
 10
0.0
 20
0.0
 30
0.0
 70
   128
 71
    88
 72
    90
 73
    78
  0
VERTEX
  5
6E2
  8
0
 62
   123
 10
0.0
 20
0.0
 30
0.0
 70
   128
 71
    90
 72
    71
 73
    78
  0
VERTEX
  5
6E3
  8
0
 62
   123
 10
0.0
 20
0.0
 30
0.0
 70
   128
 71
    76
 72
    90
 73
    88
  0
VERTEX
  5
6E4
  8
0
 62
   123
 10
0.0
 20
0.0
 30
0.0
 70
   128
 71
    72
 72
    70
 73
    89
  0
VERTEX
  5
6E5
  8
0
 62
   123
 10
0.0
 20
0.0
 30
0.0
 70
   128
 71
    70
 72
    74
 73
    89
  0
VERTEX
  5
6E6
  8
0
 62
   123
 10
0.0
 20
0.0
 30
0.0
 70
   128
 71
    62
 72
    30
 73
    68
  0
VERTEX
  5
6E7
  8
0
 62
   123
 10
0.0
 20
0.0
 30
0.0
 70
   128
 71
    69
 72
    73
 73
    62
  0
VERTEX
  5
6E8
  8
0
 62
   123
 10
0.0
 20
0.0
 30
0.0
 70
   128
 71
    82
 72
    85
 73
    87
  0
VERTEX
  5
6E9
  8
0
 62
   123
 10
0.0
 20
0.0
 30
0.0
 70
   128
 71
    79
 72
    80
 73
    85
  0
VERTEX
  5
6EA
  8
0
 62
   123
 10
0.0
 20
0.0
 30
0.0
 70
   128
 71
    91
 72
    79
 73
    83
  0
VERTEX
  5
6EB
  8
0
 62
   123
 10
0.0
 20
0.0
 30
0.0
 70
   128
 71
    83
 72
    79
 73
    82
  0
VERTEX
  5
6EC
  8
0
 62
   123
 10
0.0
 20
0.0
 30
0.0
 70
   128
 71
    92
 72
    81
 73
    91
  0
VERTEX
  5
6ED
  8
0
 62
   123
 10
0.0
 20
0.0
 30
0.0
 70
   128
 71
    91
 72
    81
 73
    79
  0
VERTEX
  5
6EE
  8
0
 62
   123
 10
0.0
 20
0.0
 30
0.0
 70
   128
 71
    93
 72
    66
 73
    92
  0
VERTEX
  5
6EF
  8
0
 62
   123
 10
0.0
 20
0.0
 30
0.0
 70
   128
 71
    92
 72
    66
 73
    81
  0
VERTEX
  5
6F0
  8
0
 62
   123
 10
0.0
 20
0.0
 30
0.0
 70
   128
 71
    94
 72
    77
 73
    93
  0
VERTEX
  5
6F1
  8
0
 62
   123
 10
0.0
 20
0.0
 30
0.0
 70
   128
 71
    93
 72
    77
 73
    66
  0
VERTEX
  5
6F2
  8
0
 62
   123
 10
0.0
 20
0.0
 30
0.0
 70
   128
 71
    95
 72
    76
 73
    94
  0
VERTEX
  5
6F3
  8
0
 62
   123
 10
0.0
 20
0.0
 30
0.0
 70
   128
 71
    94
 72
    76
 73
    77
  0
VERTEX
  5
6F4
  8
0
 62
   123
 10
0.0
 20
0.0
 30
0.0
 70
   128
 71
    96
 72
    90
 73
    95
  0
VERTEX
  5
6F5
  8
0
 62
   123
 10
0.0
 20
0.0
 30
0.0
 70
   128
 71
    95
 72
    90
 73
    76
  0
VERTEX
  5
6F6
  8
0
 62
   123
 10
0.0
 20
0.0
 30
0.0
 70
   128
 71
    97
 72
    71
 73
    96
  0
VERTEX
  5
6F7
  8
0
 62
   123
 10
0.0
 20
0.0
 30
0.0
 70
   128
 71
    96
 72
    71
 73
    90
  0
VERTEX
  5
6F8
  8
0
 62
   123
 10
0.0
 20
0.0
 30
0.0
 70
   128
 71
    98
 72
    70
 73
    97
  0
VERTEX
  5
6F9
  8
0
 62
   123
 10
0.0
 20
0.0
 30
0.0
 70
   128
 71
    97
 72
    70
 73
    71
  0
VERTEX
  5
6FA
  8
0
 62
   123
 10
0.0
 20
0.0
 30
0.0
 70
   128
 71
    63
 72
    74
 73
    98
  0
VERTEX
  5
6FB
  8
0
 62
   123
 10
0.0
 20
0.0
 30
0.0
 70
   128
 71
    98
 72
    74
 73
    70
  0
VERTEX
  5
6FC
  8
0
 62
   123
 10
0.0
 20
0.0
 30
0.0
 70
   128
 71
    62
 72
    74
 73
    63
  0
VERTEX
  5
6FD
  8
0
 62
   123
 10
0.0
 20
0.0
 30
0.0
 70
   128
 71
    69
 72
    62
 73
    68
  0
VERTEX
  5
6FE
  8
0
 62
   123
 10
0.0
 20
0.0
 30
0.0
 70
   128
 71
   101
 72
   100
 73
    99
  0
VERTEX
  5
6FF
  8
0
 62
   123
 10
0.0
 20
0.0
 30
0.0
 70
   128
 71
   104
 72
   103
 73
   102
  0
VERTEX
  5
700
  8
0
 62
   123
 10
0.0
 20
0.0
 30
0.0
 70
   128
 71
   106
 72
   105
 73
   104
  0
VERTEX
  5
701
  8
0
 62
   123
 10
0.0
 20
0.0
 30
0.0
 70
   128
 71
   108
 72
   102
 73
   107
  0
VERTEX
  5
702
  8
0
 62
   123
 10
0.0
 20
0.0
 30
0.0
 70
   128
 71
   103
 72
   107
 73
   102
  0
VERTEX
  5
703
  8
0
 62
   123
 10
0.0
 20
0.0
 30
0.0
 70
   128
 71
   111
 72
   110
 73
   109
  0
VERTEX
  5
704
  8
0
 62
   123
 10
0.0
 20
0.0
 30
0.0
 70
   128
 71
   114
 72
   113
 73
   112
  0
VERTEX
  5
705
  8
0
 62
   123
 10
0.0
 20
0.0
 30
0.0
 70
   128
 71
   114
 72
   111
 73
    87
  0
VERTEX
  5
706
  8
0
 62
   123
 10
0.0
 20
0.0
 30
0.0
 70
   128
 71
   110
 72
   108
 73
   109
  0
VERTEX
  5
707
  8
0
 62
   123
 10
0.0
 20
0.0
 30
0.0
 70
   128
 71
   107
 72
   109
 73
   108
  0
VERTEX
  5
708
  8
0
 62
   123
 10
0.0
 20
0.0
 30
0.0
 70
   128
 71
    87
 72
   113
 73
   114
  0
VERTEX
  5
709
  8
0
 62
   123
 10
0.0
 20
0.0
 30
0.0
 70
   128
 71
   113
 72
   115
 73
   112
  0
VERTEX
  5
70A
  8
0
 62
   123
 10
0.0
 20
0.0
 30
0.0
 70
   128
 71
   104
 72
   105
 73
   103
  0
VERTEX
  5
70B
  8
0
 62
   123
 10
0.0
 20
0.0
 30
0.0
 70
   128
 71
   116
 72
   105
 73
   106
  0
VERTEX
  5
70C
  8
0
 62
   123
 10
0.0
 20
0.0
 30
0.0
 70
   128
 71
   118
 72
   117
 73
   116
  0
VERTEX
  5
70D
  8
0
 62
   123
 10
0.0
 20
0.0
 30
0.0
 70
   128
 71
   118
 72
   116
 73
   106
  0
VERTEX
  5
70E
  8
0
 62
   123
 10
0.0
 20
0.0
 30
0.0
 70
   128
 71
   120
 72
   117
 73
   119
  0
VERTEX
  5
70F
  8
0
 62
   123
 10
0.0
 20
0.0
 30
0.0
 70
   128
 71
   117
 72
   118
 73
   119
  0
VERTEX
  5
710
  8
0
 62
   123
 10
0.0
 20
0.0
 30
0.0
 70
   128
 71
   120
 72
   122
 73
   121
  0
VERTEX
  5
711
  8
0
 62
   123
 10
0.0
 20
0.0
 30
0.0
 70
   128
 71
   119
 72
   122
 73
   120
  0
VERTEX
  5
712
  8
0
 62
   123
 10
0.0
 20
0.0
 30
0.0
 70
   128
 71
   124
 72
   123
 73
   121
  0
VERTEX
  5
713
  8
0
 62
   123
 10
0.0
 20
0.0
 30
0.0
 70
   128
 71
   124
 72
   121
 73
   122
  0
VERTEX
  5
714
  8
0
 62
   123
 10
0.0
 20
0.0
 30
0.0
 70
   128
 71
   125
 72
   123
 73
    99
  0
VERTEX
  5
715
  8
0
 62
   123
 10
0.0
 20
0.0
 30
0.0
 70
   128
 71
   123
 72
   124
 73
    99
  0
VERTEX
  5
716
  8
0
 62
   123
 10
0.0
 20
0.0
 30
0.0
 70
   128
 71
    99
 72
   126
 73
   125
  0
VERTEX
  5
717
  8
0
 62
   123
 10
0.0
 20
0.0
 30
0.0
 70
   128
 71
   126
 72
    67
 73
   125
  0
VERTEX
  5
718
  8
0
 62
   123
 10
0.0
 20
0.0
 30
0.0
 70
   128
 71
   127
 72
   101
 73
   124
  0
VERTEX
  5
719
  8
0
 62
   123
 10
0.0
 20
0.0
 30
0.0
 70
   128
 71
   126
 72
    99
 73
   100
  0
VERTEX
  5
71A
  8
0
 62
   123
 10
0.0
 20
0.0
 30
0.0
 70
   128
 71
   128
 72
   127
 73
   122
  0
VERTEX
  5
71B
  8
0
 62
   123
 10
0.0
 20
0.0
 30
0.0
 70
   128
 71
    99
 72
   124
 73
   101
  0
VERTEX
  5
71C
  8
0
 62
   123
 10
0.0
 20
0.0
 30
0.0
 70
   128
 71
   129
 72
   128
 73
   119
  0
VERTEX
  5
71D
  8
0
 62
   123
 10
0.0
 20
0.0
 30
0.0
 70
   128
 71
   124
 72
   122
 73
   127
  0
VERTEX
  5
71E
  8
0
 62
   123
 10
0.0
 20
0.0
 30
0.0
 70
   128
 71
   130
 72
   129
 73
   118
  0
VERTEX
  5
71F
  8
0
 62
   123
 10
0.0
 20
0.0
 30
0.0
 70
   128
 71
   122
 72
   119
 73
   128
  0
VERTEX
  5
720
  8
0
 62
   123
 10
0.0
 20
0.0
 30
0.0
 70
   128
 71
   131
 72
   130
 73
   106
  0
VERTEX
  5
721
  8
0
 62
   123
 10
0.0
 20
0.0
 30
0.0
 70
   128
 71
   119
 72
   118
 73
   129
  0
VERTEX
  5
722
  8
0
 62
   123
 10
0.0
 20
0.0
 30
0.0
 70
   128
 71
   132
 72
   131
 73
   104
  0
VERTEX
  5
723
  8
0
 62
   123
 10
0.0
 20
0.0
 30
0.0
 70
   128
 71
   118
 72
   106
 73
   130
  0
VERTEX
  5
724
  8
0
 62
   123
 10
0.0
 20
0.0
 30
0.0
 70
   128
 71
   133
 72
   132
 73
   102
  0
VERTEX
  5
725
  8
0
 62
   123
 10
0.0
 20
0.0
 30
0.0
 70
   128
 71
   106
 72
   104
 73
   131
  0
VERTEX
  5
726
  8
0
 62
   123
 10
0.0
 20
0.0
 30
0.0
 70
   128
 71
   134
 72
   133
 73
   108
  0
VERTEX
  5
727
  8
0
 62
   123
 10
0.0
 20
0.0
 30
0.0
 70
   128
 71
   104
 72
   102
 73
   132
  0
VERTEX
  5
728
  8
0
 62
   123
 10
0.0
 20
0.0
 30
0.0
 70
   128
 71
   135
 72
   134
 73
   110
  0
VERTEX
  5
729
  8
0
 62
   123
 10
0.0
 20
0.0
 30
0.0
 70
   128
 71
   102
 72
   108
 73
   133
  0
VERTEX
  5
72A
  8
0
 62
   123
 10
0.0
 20
0.0
 30
0.0
 70
   128
 71
   112
 72
   135
 73
   114
  0
VERTEX
  5
72B
  8
0
 62
   123
 10
0.0
 20
0.0
 30
0.0
 70
   128
 71
   108
 72
   110
 73
   134
  0
VERTEX
  5
72C
  8
0
 62
   123
 10
0.0
 20
0.0
 30
0.0
 70
   128
 71
   110
 72
   114
 73
   135
  0
VERTEX
  5
72D
  8
0
 62
   123
 10
0.0
 20
0.0
 30
0.0
 70
   128
 71
   114
 72
   110
 73
   111
  0
VERTEX
  5
72E
  8
0
 62
   123
 10
0.0
 20
0.0
 30
0.0
 70
   128
 71
   138
 72
   137
 73
   136
  0
VERTEX
  5
72F
  8
0
 62
   123
 10
0.0
 20
0.0
 30
0.0
 70
   128
 71
   141
 72
   140
 73
   139
  0
VERTEX
  5
730
  8
0
 62
   123
 10
0.0
 20
0.0
 30
0.0
 70
   128
 71
   143
 72
   136
 73
   142
  0
VERTEX
  5
731
  8
0
 62
   123
 10
0.0
 20
0.0
 30
0.0
 70
   128
 71
   137
 72
   138
 73
   144
  0
VERTEX
  5
732
  8
0
 62
   123
 10
0.0
 20
0.0
 30
0.0
 70
   128
 71
   144
 72
   145
 73
   137
  0
VERTEX
  5
733
  8
0
 62
   123
 10
0.0
 20
0.0
 30
0.0
 70
   128
 71
   148
 72
   147
 73
   146
  0
VERTEX
  5
734
  8
0
 62
   123
 10
0.0
 20
0.0
 30
0.0
 70
   128
 71
   151
 72
   150
 73
   149
  0
VERTEX
  5
735
  8
0
 62
   123
 10
0.0
 20
0.0
 30
0.0
 70
   128
 71
   146
 72
   152
 73
   148
  0
VERTEX
  5
736
  8
0
 62
   123
 10
0.0
 20
0.0
 30
0.0
 70
   128
 71
   141
 72
   151
 73
   149
  0
VERTEX
  5
737
  8
0
 62
   123
 10
0.0
 20
0.0
 30
0.0
 70
   128
 71
   155
 72
   154
 73
   153
  0
VERTEX
  5
738
  8
0
 62
   123
 10
0.0
 20
0.0
 30
0.0
 70
   128
 71
   158
 72
   157
 73
   156
  0
VERTEX
  5
739
  8
0
 62
   123
 10
0.0
 20
0.0
 30
0.0
 70
   128
 71
   154
 72
   155
 73
   159
  0
VERTEX
  5
73A
  8
0
 62
   123
 10
0.0
 20
0.0
 30
0.0
 70
   128
 71
   156
 72
   160
 73
   158
  0
VERTEX
  5
73B
  8
0
 62
   123
 10
0.0
 20
0.0
 30
0.0
 70
   128
 71
   162
 72
   161
 73
   156
  0
VERTEX
  5
73C
  8
0
 62
   123
 10
0.0
 20
0.0
 30
0.0
 70
   128
 71
   154
 72
   163
 73
   160
  0
VERTEX
  5
73D
  8
0
 62
   123
 10
0.0
 20
0.0
 30
0.0
 70
   128
 71
   153
 72
   140
 73
   155
  0
VERTEX
  5
73E
  8
0
 62
   123
 10
0.0
 20
0.0
 30
0.0
 70
   128
 71
   158
 72
   115
 73
   157
  0
VERTEX
  5
73F
  8
0
 62
   123
 10
0.0
 20
0.0
 30
0.0
 70
   128
 71
   150
 72
   164
 73
   149
  0
VERTEX
  5
740
  8
0
 62
   123
 10
0.0
 20
0.0
 30
0.0
 70
   128
 71
   141
 72
   139
 73
   151
  0
VERTEX
  5
741
  8
0
 62
   123
 10
0.0
 20
0.0
 30
0.0
 70
   128
 71
   139
 72
   140
 73
   153
  0
VERTEX
  5
742
  8
0
 62
   123
 10
0.0
 20
0.0
 30
0.0
 70
   128
 71
   164
 72
   165
 73
   152
  0
VERTEX
  5
743
  8
0
 62
   123
 10
0.0
 20
0.0
 30
0.0
 70
   128
 71
   147
 72
   144
 73
   166
  0
VERTEX
  5
744
  8
0
 62
   123
 10
0.0
 20
0.0
 30
0.0
 70
   128
 71
   150
 72
   165
 73
   164
  0
VERTEX
  5
745
  8
0
 62
   123
 10
0.0
 20
0.0
 30
0.0
 70
   128
 71
   147
 72
   166
 73
   146
  0
VERTEX
  5
746
  8
0
 62
   123
 10
0.0
 20
0.0
 30
0.0
 70
   128
 71
   165
 72
   148
 73
   152
  0
VERTEX
  5
747
  8
0
 62
   123
 10
0.0
 20
0.0
 30
0.0
 70
   128
 71
   100
 72
   167
 73
   145
  0
VERTEX
  5
748
  8
0
 62
   123
 10
0.0
 20
0.0
 30
0.0
 70
   128
 71
   136
 72
   137
 73
   142
  0
VERTEX
  5
749
  8
0
 62
   123
 10
0.0
 20
0.0
 30
0.0
 70
   128
 71
   166
 72
   144
 73
   138
  0
VERTEX
  5
74A
  8
0
 62
   123
 10
0.0
 20
0.0
 30
0.0
 70
   128
 71
   154
 72
   161
 73
   153
  0
VERTEX
  5
74B
  8
0
 62
   123
 10
0.0
 20
0.0
 30
0.0
 70
   128
 71
   154
 72
   159
 73
   163
  0
VERTEX
  5
74C
  8
0
 62
   123
 10
0.0
 20
0.0
 30
0.0
 70
   128
 71
   156
 72
   161
 73
   154
  0
VERTEX
  5
74D
  8
0
 62
   123
 10
0.0
 20
0.0
 30
0.0
 70
   128
 71
   139
 72
   153
 73
   168
  0
VERTEX
  5
74E
  8
0
 62
   123
 10
0.0
 20
0.0
 30
0.0
 70
   128
 71
   161
 72
   168
 73
   153
  0
VERTEX
  5
74F
  8
0
 62
   123
 10
0.0
 20
0.0
 30
0.0
 70
   128
 71
   151
 72
   139
 73
   169
  0
VERTEX
  5
750
  8
0
 62
   123
 10
0.0
 20
0.0
 30
0.0
 70
   128
 71
   168
 72
   169
 73
   139
  0
VERTEX
  5
751
  8
0
 62
   123
 10
0.0
 20
0.0
 30
0.0
 70
   128
 71
   150
 72
   151
 73
   170
  0
VERTEX
  5
752
  8
0
 62
   123
 10
0.0
 20
0.0
 30
0.0
 70
   128
 71
   169
 72
   170
 73
   151
  0
VERTEX
  5
753
  8
0
 62
   123
 10
0.0
 20
0.0
 30
0.0
 70
   128
 71
   165
 72
   150
 73
   171
  0
VERTEX
  5
754
  8
0
 62
   123
 10
0.0
 20
0.0
 30
0.0
 70
   128
 71
   170
 72
   171
 73
   150
  0
VERTEX
  5
755
  8
0
 62
   123
 10
0.0
 20
0.0
 30
0.0
 70
   128
 71
   148
 72
   165
 73
   172
  0
VERTEX
  5
756
  8
0
 62
   123
 10
0.0
 20
0.0
 30
0.0
 70
   128
 71
   171
 72
   172
 73
   165
  0
VERTEX
  5
757
  8
0
 62
   123
 10
0.0
 20
0.0
 30
0.0
 70
   128
 71
   147
 72
   148
 73
   173
  0
VERTEX
  5
758
  8
0
 62
   123
 10
0.0
 20
0.0
 30
0.0
 70
   128
 71
   172
 72
   173
 73
   148
  0
VERTEX
  5
759
  8
0
 62
   123
 10
0.0
 20
0.0
 30
0.0
 70
   128
 71
   144
 72
   147
 73
   174
  0
VERTEX
  5
75A
  8
0
 62
   123
 10
0.0
 20
0.0
 30
0.0
 70
   128
 71
   173
 72
   174
 73
   147
  0
VERTEX
  5
75B
  8
0
 62
   123
 10
0.0
 20
0.0
 30
0.0
 70
   128
 71
   167
 72
   137
 73
   145
  0
VERTEX
  5
75C
  8
0
 62
   123
 10
0.0
 20
0.0
 30
0.0
 70
   128
 71
   174
 72
   145
 73
   144
  0
VERTEX
  5
75D
  8
0
 62
   123
 10
0.0
 20
0.0
 30
0.0
 70
   128
 71
   142
 72
   137
 73
   167
  0
VERTEX
  5
75E
  8
0
 62
   123
 10
0.0
 20
0.0
 30
0.0
 70
   128
 71
   154
 72
   160
 73
   156
  0
VERTEX
  5
75F
  8
0
 62
   123
 10
0.0
 20
0.0
 30
0.0
 70
   128
 71
   162
 72
   156
 73
   157
  0
VERTEX
  5
760
  8
0
 62
   123
 10
0.0
 20
0.0
 30
0.0
 70
   128
 71
   175
 72
   161
 73
   162
  0
VERTEX
  5
761
  8
0
 62
   123
 10
0.0
 20
0.0
 30
0.0
 70
   128
 71
   175
 72
   168
 73
   161
  0
VERTEX
  5
762
  8
0
 62
   123
 10
0.0
 20
0.0
 30
0.0
 70
   128
 71
   176
 72
   168
 73
   175
  0
VERTEX
  5
763
  8
0
 62
   123
 10
0.0
 20
0.0
 30
0.0
 70
   128
 71
   177
 72
   169
 73
   176
  0
VERTEX
  5
764
  8
0
 62
   123
 10
0.0
 20
0.0
 30
0.0
 70
   128
 71
   169
 72
   168
 73
   176
  0
VERTEX
  5
765
  8
0
 62
   123
 10
0.0
 20
0.0
 30
0.0
 70
   128
 71
   178
 72
   170
 73
   177
  0
VERTEX
  5
766
  8
0
 62
   123
 10
0.0
 20
0.0
 30
0.0
 70
   128
 71
   170
 72
   169
 73
   177
  0
VERTEX
  5
767
  8
0
 62
   123
 10
0.0
 20
0.0
 30
0.0
 70
   128
 71
   179
 72
   171
 73
   178
  0
VERTEX
  5
768
  8
0
 62
   123
 10
0.0
 20
0.0
 30
0.0
 70
   128
 71
   171
 72
   170
 73
   178
  0
VERTEX
  5
769
  8
0
 62
   123
 10
0.0
 20
0.0
 30
0.0
 70
   128
 71
   180
 72
   172
 73
   179
  0
VERTEX
  5
76A
  8
0
 62
   123
 10
0.0
 20
0.0
 30
0.0
 70
   128
 71
   172
 72
   171
 73
   179
  0
VERTEX
  5
76B
  8
0
 62
   123
 10
0.0
 20
0.0
 30
0.0
 70
   128
 71
   181
 72
   173
 73
   180
  0
VERTEX
  5
76C
  8
0
 62
   123
 10
0.0
 20
0.0
 30
0.0
 70
   128
 71
   173
 72
   172
 73
   180
  0
VERTEX
  5
76D
  8
0
 62
   123
 10
0.0
 20
0.0
 30
0.0
 70
   128
 71
   181
 72
   182
 73
   174
  0
VERTEX
  5
76E
  8
0
 62
   123
 10
0.0
 20
0.0
 30
0.0
 70
   128
 71
   174
 72
   173
 73
   181
  0
VERTEX
  5
76F
  8
0
 62
   123
 10
0.0
 20
0.0
 30
0.0
 70
   128
 71
   182
 72
   183
 73
   145
  0
VERTEX
  5
770
  8
0
 62
   123
 10
0.0
 20
0.0
 30
0.0
 70
   128
 71
   145
 72
   174
 73
   182
  0
VERTEX
  5
771
  8
0
 62
   123
 10
0.0
 20
0.0
 30
0.0
 70
   128
 71
   183
 72
   100
 73
   145
  0
VERTEX
  5
772
  8
0
 62
   123
 10
0.0
 20
0.0
 30
0.0
 70
   128
 71
   186
 72
   185
 73
   184
  0
VERTEX
  5
773
  8
0
 62
   123
 10
0.0
 20
0.0
 30
0.0
 70
   128
 71
   189
 72
   188
 73
   187
  0
VERTEX
  5
774
  8
0
 62
   123
 10
0.0
 20
0.0
 30
0.0
 70
   128
 71
   191
 72
   187
 73
   190
  0
VERTEX
  5
775
  8
0
 62
   123
 10
0.0
 20
0.0
 30
0.0
 70
   128
 71
   189
 72
   192
 73
   188
  0
VERTEX
  5
776
  8
0
 62
   123
 10
0.0
 20
0.0
 30
0.0
 70
   128
 71
   187
 72
   188
 73
   190
  0
VERTEX
  5
777
  8
0
 62
   123
 10
0.0
 20
0.0
 30
0.0
 70
   128
 71
   192
 72
   194
 73
   193
  0
VERTEX
  5
778
  8
0
 62
   123
 10
0.0
 20
0.0
 30
0.0
 70
   128
 71
   193
 72
   196
 73
   195
  0
VERTEX
  5
779
  8
0
 62
   123
 10
0.0
 20
0.0
 30
0.0
 70
   128
 71
   197
 72
   193
 73
   194
  0
VERTEX
  5
77A
  8
0
 62
   123
 10
0.0
 20
0.0
 30
0.0
 70
   128
 71
   192
 72
   189
 73
   194
  0
VERTEX
  5
77B
  8
0
 62
   123
 10
0.0
 20
0.0
 30
0.0
 70
   128
 71
   193
 72
   197
 73
   163
  0
VERTEX
  5
77C
  8
0
 62
   123
 10
0.0
 20
0.0
 30
0.0
 70
   128
 71
   195
 72
   196
 73
   198
  0
VERTEX
  5
77D
  8
0
 62
   123
 10
0.0
 20
0.0
 30
0.0
 70
   128
 71
   191
 72
   190
 73
   199
  0
VERTEX
  5
77E
  8
0
 62
   123
 10
0.0
 20
0.0
 30
0.0
 70
   128
 71
   190
 72
   200
 73
   199
  0
VERTEX
  5
77F
  8
0
 62
   123
 10
0.0
 20
0.0
 30
0.0
 70
   128
 71
   199
 72
   200
 73
   201
  0
VERTEX
  5
780
  8
0
 62
   123
 10
0.0
 20
0.0
 30
0.0
 70
   128
 71
   201
 72
   200
 73
   202
  0
VERTEX
  5
781
  8
0
 62
   123
 10
0.0
 20
0.0
 30
0.0
 70
   128
 71
   204
 72
   203
 73
   202
  0
VERTEX
  5
782
  8
0
 62
   123
 10
0.0
 20
0.0
 30
0.0
 70
   128
 71
   205
 72
   204
 73
   202
  0
VERTEX
  5
783
  8
0
 62
   123
 10
0.0
 20
0.0
 30
0.0
 70
   128
 71
   204
 72
   206
 73
   203
  0
VERTEX
  5
784
  8
0
 62
   123
 10
0.0
 20
0.0
 30
0.0
 70
   128
 71
   207
 72
   206
 73
   204
  0
VERTEX
  5
785
  8
0
 62
   123
 10
0.0
 20
0.0
 30
0.0
 70
   128
 71
   184
 72
   207
 73
   204
  0
VERTEX
  5
786
  8
0
 62
   123
 10
0.0
 20
0.0
 30
0.0
 70
   128
 71
   184
 72
   185
 73
   208
  0
VERTEX
  5
787
  8
0
 62
   123
 10
0.0
 20
0.0
 30
0.0
 70
   128
 71
   209
 72
   184
 73
   208
  0
VERTEX
  5
788
  8
0
 62
   123
 10
0.0
 20
0.0
 30
0.0
 70
   128
 71
   208
 72
   143
 73
   209
  0
VERTEX
  5
789
  8
0
 62
   123
 10
0.0
 20
0.0
 30
0.0
 70
   128
 71
   186
 72
   184
 73
   210
  0
VERTEX
  5
78A
  8
0
 62
   123
 10
0.0
 20
0.0
 30
0.0
 70
   128
 71
   207
 72
   184
 73
   209
  0
VERTEX
  5
78B
  8
0
 62
   123
 10
0.0
 20
0.0
 30
0.0
 70
   128
 71
   204
 72
   210
 73
   184
  0
VERTEX
  5
78C
  8
0
 62
   123
 10
0.0
 20
0.0
 30
0.0
 70
   128
 71
   210
 72
   204
 73
   205
  0
VERTEX
  5
78D
  8
0
 62
   123
 10
0.0
 20
0.0
 30
0.0
 70
   128
 71
   205
 72
   202
 73
   211
  0
VERTEX
  5
78E
  8
0
 62
   123
 10
0.0
 20
0.0
 30
0.0
 70
   128
 71
   202
 72
   203
 73
   201
  0
VERTEX
  5
78F
  8
0
 62
   123
 10
0.0
 20
0.0
 30
0.0
 70
   128
 71
   200
 72
   211
 73
   202
  0
VERTEX
  5
790
  8
0
 62
   123
 10
0.0
 20
0.0
 30
0.0
 70
   128
 71
   211
 72
   200
 73
   199
  0
VERTEX
  5
791
  8
0
 62
   123
 10
0.0
 20
0.0
 30
0.0
 70
   128
 71
   190
 72
   212
 73
   199
  0
VERTEX
  5
792
  8
0
 62
   123
 10
0.0
 20
0.0
 30
0.0
 70
   128
 71
   188
 72
   213
 73
   212
  0
VERTEX
  5
793
  8
0
 62
   123
 10
0.0
 20
0.0
 30
0.0
 70
   128
 71
   188
 72
   190
 73
   212
  0
VERTEX
  5
794
  8
0
 62
   123
 10
0.0
 20
0.0
 30
0.0
 70
   128
 71
   192
 72
   214
 73
   213
  0
VERTEX
  5
795
  8
0
 62
   123
 10
0.0
 20
0.0
 30
0.0
 70
   128
 71
   188
 72
   192
 73
   213
  0
VERTEX
  5
796
  8
0
 62
   123
 10
0.0
 20
0.0
 30
0.0
 70
   128
 71
   193
 72
   195
 73
   214
  0
VERTEX
  5
797
  8
0
 62
   123
 10
0.0
 20
0.0
 30
0.0
 70
   128
 71
   214
 72
   192
 73
   193
  0
VERTEX
  5
798
  8
0
 62
   123
 10
0.0
 20
0.0
 30
0.0
 70
   128
 71
   196
 72
   193
 73
   163
  0
VERTEX
  5
799
  8
0
 62
   123
 10
0.0
 20
0.0
 30
0.0
 70
   128
 71
   164
 72
   216
 73
   215
  0
VERTEX
  5
79A
  8
0
 62
   123
 10
0.0
 20
0.0
 30
0.0
 70
   128
 71
   219
 72
   218
 73
   217
  0
VERTEX
  5
79B
  8
0
 62
   123
 10
0.0
 20
0.0
 30
0.0
 70
   128
 71
   222
 72
   221
 73
   220
  0
VERTEX
  5
79C
  8
0
 62
   123
 10
0.0
 20
0.0
 30
0.0
 70
   128
 71
   224
 72
   223
 73
   217
  0
VERTEX
  5
79D
  8
0
 62
   123
 10
0.0
 20
0.0
 30
0.0
 70
   128
 71
   219
 72
   221
 73
   218
  0
VERTEX
  5
79E
  8
0
 62
   123
 10
0.0
 20
0.0
 30
0.0
 70
   128
 71
   221
 72
   222
 73
   218
  0
VERTEX
  5
79F
  8
0
 62
   123
 10
0.0
 20
0.0
 30
0.0
 70
   128
 71
   219
 72
   217
 73
   223
  0
VERTEX
  5
7A0
  8
0
 62
   123
 10
0.0
 20
0.0
 30
0.0
 70
   128
 71
   223
 72
   224
 73
   199
  0
VERTEX
  5
7A1
  8
0
 62
   123
 10
0.0
 20
0.0
 30
0.0
 70
   128
 71
   220
 72
   226
 73
   225
  0
VERTEX
  5
7A2
  8
0
 62
   123
 10
0.0
 20
0.0
 30
0.0
 70
   128
 71
   228
 72
   227
 73
   226
  0
VERTEX
  5
7A3
  8
0
 62
   123
 10
0.0
 20
0.0
 30
0.0
 70
   128
 71
   222
 72
   220
 73
   225
  0
VERTEX
  5
7A4
  8
0
 62
   123
 10
0.0
 20
0.0
 30
0.0
 70
   128
 71
   216
 72
   228
 73
   215
  0
VERTEX
  5
7A5
  8
0
 62
   123
 10
0.0
 20
0.0
 30
0.0
 70
   128
 71
   226
 72
   227
 73
   225
  0
VERTEX
  5
7A6
  8
0
 62
   123
 10
0.0
 20
0.0
 30
0.0
 70
   128
 71
   216
 72
   227
 73
   228
  0
VERTEX
  5
7A7
  8
0
 62
   123
 10
0.0
 20
0.0
 30
0.0
 70
   128
 71
   227
 72
   215
 73
   216
  0
VERTEX
  5
7A8
  8
0
 62
   123
 10
0.0
 20
0.0
 30
0.0
 70
   128
 71
   225
 72
   228
 73
   227
  0
VERTEX
  5
7A9
  8
0
 62
   123
 10
0.0
 20
0.0
 30
0.0
 70
   128
 71
   227
 72
   228
 73
   215
  0
VERTEX
  5
7AA
  8
0
 62
   123
 10
0.0
 20
0.0
 30
0.0
 70
   128
 71
   222
 72
   226
 73
   225
  0
VERTEX
  5
7AB
  8
0
 62
   123
 10
0.0
 20
0.0
 30
0.0
 70
   128
 71
   225
 72
   226
 73
   228
  0
VERTEX
  5
7AC
  8
0
 62
   123
 10
0.0
 20
0.0
 30
0.0
 70
   128
 71
   218
 72
   220
 73
   222
  0
VERTEX
  5
7AD
  8
0
 62
   123
 10
0.0
 20
0.0
 30
0.0
 70
   128
 71
   222
 72
   220
 73
   226
  0
VERTEX
  5
7AE
  8
0
 62
   123
 10
0.0
 20
0.0
 30
0.0
 70
   128
 71
   217
 72
   221
 73
   218
  0
VERTEX
  5
7AF
  8
0
 62
   123
 10
0.0
 20
0.0
 30
0.0
 70
   128
 71
   218
 72
   221
 73
   220
  0
VERTEX
  5
7B0
  8
0
 62
   123
 10
0.0
 20
0.0
 30
0.0
 70
   128
 71
   224
 72
   219
 73
   217
  0
VERTEX
  5
7B1
  8
0
 62
   123
 10
0.0
 20
0.0
 30
0.0
 70
   128
 71
   217
 72
   219
 73
   221
  0
VERTEX
  5
7B2
  8
0
 62
   123
 10
0.0
 20
0.0
 30
0.0
 70
   128
 71
   224
 72
   223
 73
   219
  0
VERTEX
  5
7B3
  8
0
 62
   123
 10
0.0
 20
0.0
 30
0.0
 70
   128
 71
   230
 72
     5
 73
   229
  0
VERTEX
  5
7B4
  8
0
 62
   123
 10
0.0
 20
0.0
 30
0.0
 70
   128
 71
    11
 72
    10
 73
    14
  0
VERTEX
  5
7B5
  8
0
 62
   123
 10
0.0
 20
0.0
 30
0.0
 70
   128
 71
    14
 72
    10
 73
     1
  0
VERTEX
  5
7B6
  8
0
 62
   123
 10
0.0
 20
0.0
 30
0.0
 70
   128
 71
     4
 72
   230
 73
    11
  0
VERTEX
  5
7B7
  8
0
 62
   123
 10
0.0
 20
0.0
 30
0.0
 70
   128
 71
    13
 72
    14
 73
     1
  0
VERTEX
  5
7B8
  8
0
 62
   123
 10
0.0
 20
0.0
 30
0.0
 70
   128
 71
     8
 72
     1
 73
    10
  0
VERTEX
  5
7B9
  8
0
 62
   123
 10
0.0
 20
0.0
 30
0.0
 70
   128
 71
     4
 72
    11
 73
    14
  0
VERTEX
  5
7BA
  8
0
 62
   123
 10
0.0
 20
0.0
 30
0.0
 70
   128
 71
   229
 72
     5
 73
    19
  0
VERTEX
  5
7BB
  8
0
 62
   123
 10
0.0
 20
0.0
 30
0.0
 70
   128
 71
     5
 72
   230
 73
     4
  0
VERTEX
  5
7BC
  8
0
 62
   123
 10
0.0
 20
0.0
 30
0.0
 70
   128
 71
   231
 72
   229
 73
    25
  0
VERTEX
  5
7BD
  8
0
 62
   123
 10
0.0
 20
0.0
 30
0.0
 70
   128
 71
    19
 72
    25
 73
   229
  0
VERTEX
  5
7BE
  8
0
 62
   123
 10
0.0
 20
0.0
 30
0.0
 70
   128
 71
    26
 72
   231
 73
    25
  0
VERTEX
  5
7BF
  8
0
 62
   123
 10
0.0
 20
0.0
 30
0.0
 70
   128
 71
   233
 72
    26
 73
   232
  0
VERTEX
  5
7C0
  8
0
 62
   123
 10
0.0
 20
0.0
 30
0.0
 70
   128
 71
   233
 72
   231
 73
    26
  0
VERTEX
  5
7C1
  8
0
 62
   123
 10
0.0
 20
0.0
 30
0.0
 70
   128
 71
    26
 72
    23
 73
   232
  0
VERTEX
  5
7C2
  8
0
 62
   123
 10
0.0
 20
0.0
 30
0.0
 70
   128
 71
   234
 72
    23
 73
    27
  0
VERTEX
  5
7C3
  8
0
 62
   123
 10
0.0
 20
0.0
 30
0.0
 70
   128
 71
    23
 72
   234
 73
   232
  0
VERTEX
  5
7C4
  8
0
 62
   123
 10
0.0
 20
0.0
 30
0.0
 70
   128
 71
   237
 72
   236
 73
   235
  0
VERTEX
  5
7C5
  8
0
 62
   123
 10
0.0
 20
0.0
 30
0.0
 70
   128
 71
   236
 72
   234
 73
    27
  0
VERTEX
  5
7C6
  8
0
 62
   123
 10
0.0
 20
0.0
 30
0.0
 70
   128
 71
   239
 72
   235
 73
   238
  0
VERTEX
  5
7C7
  8
0
 62
   123
 10
0.0
 20
0.0
 30
0.0
 70
   128
 71
   236
 72
   238
 73
   235
  0
VERTEX
  5
7C8
  8
0
 62
   123
 10
0.0
 20
0.0
 30
0.0
 70
   128
 71
   236
 72
    27
 73
   238
  0
VERTEX
  5
7C9
  8
0
 62
   123
 10
0.0
 20
0.0
 30
0.0
 70
   128
 71
   242
 72
   241
 73
   240
  0
VERTEX
  5
7CA
  8
0
 62
   123
 10
0.0
 20
0.0
 30
0.0
 70
   128
 71
   245
 72
   244
 73
   243
  0
VERTEX
  5
7CB
  8
0
 62
   123
 10
0.0
 20
0.0
 30
0.0
 70
   128
 71
   244
 72
   245
 73
   199
  0
VERTEX
  5
7CC
  8
0
 62
   123
 10
0.0
 20
0.0
 30
0.0
 70
   128
 71
   241
 72
   242
 73
   246
  0
VERTEX
  5
7CD
  8
0
 62
   123
 10
0.0
 20
0.0
 30
0.0
 70
   128
 71
   249
 72
   248
 73
   247
  0
VERTEX
  5
7CE
  8
0
 62
   123
 10
0.0
 20
0.0
 30
0.0
 70
   128
 71
   248
 72
   249
 73
   250
  0
VERTEX
  5
7CF
  8
0
 62
   123
 10
0.0
 20
0.0
 30
0.0
 70
   128
 71
   248
 72
   250
 73
   164
  0
VERTEX
  5
7D0
  8
0
 62
   123
 10
0.0
 20
0.0
 30
0.0
 70
   128
 71
   251
 72
   247
 73
   246
  0
VERTEX
  5
7D1
  8
0
 62
   123
 10
0.0
 20
0.0
 30
0.0
 70
   128
 71
   246
 72
   242
 73
   251
  0
VERTEX
  5
7D2
  8
0
 62
   123
 10
0.0
 20
0.0
 30
0.0
 70
   128
 71
   251
 72
   249
 73
   247
  0
VERTEX
  5
7D3
  8
0
 62
   123
 10
0.0
 20
0.0
 30
0.0
 70
   128
 71
   253
 72
   252
 73
   243
  0
VERTEX
  5
7D4
  8
0
 62
   123
 10
0.0
 20
0.0
 30
0.0
 70
   128
 71
   240
 72
   241
 73
   252
  0
VERTEX
  5
7D5
  8
0
 62
   123
 10
0.0
 20
0.0
 30
0.0
 70
   128
 71
   245
 72
   244
 73
   253
  0
VERTEX
  5
7D6
  8
0
 62
   123
 10
0.0
 20
0.0
 30
0.0
 70
   128
 71
   240
 72
   252
 73
   253
  0
VERTEX
  5
7D7
  8
0
 62
   123
 10
0.0
 20
0.0
 30
0.0
 70
   128
 71
   253
 72
   243
 73
   244
  0
VERTEX
  5
7D8
  8
0
 62
   123
 10
0.0
 20
0.0
 30
0.0
 70
   128
 71
   240
 72
   243
 73
   253
  0
VERTEX
  5
7D9
  8
0
 62
   123
 10
0.0
 20
0.0
 30
0.0
 70
   128
 71
   253
 72
   243
 73
   245
  0
VERTEX
  5
7DA
  8
0
 62
   123
 10
0.0
 20
0.0
 30
0.0
 70
   128
 71
   242
 72
   252
 73
   240
  0
VERTEX
  5
7DB
  8
0
 62
   123
 10
0.0
 20
0.0
 30
0.0
 70
   128
 71
   240
 72
   252
 73
   243
  0
VERTEX
  5
7DC
  8
0
 62
   123
 10
0.0
 20
0.0
 30
0.0
 70
   128
 71
   251
 72
   241
 73
   242
  0
VERTEX
  5
7DD
  8
0
 62
   123
 10
0.0
 20
0.0
 30
0.0
 70
   128
 71
   242
 72
   241
 73
   252
  0
VERTEX
  5
7DE
  8
0
 62
   123
 10
0.0
 20
0.0
 30
0.0
 70
   128
 71
   249
 72
   246
 73
   251
  0
VERTEX
  5
7DF
  8
0
 62
   123
 10
0.0
 20
0.0
 30
0.0
 70
   128
 71
   251
 72
   246
 73
   241
  0
VERTEX
  5
7E0
  8
0
 62
   123
 10
0.0
 20
0.0
 30
0.0
 70
   128
 71
   250
 72
   247
 73
   249
  0
VERTEX
  5
7E1
  8
0
 62
   123
 10
0.0
 20
0.0
 30
0.0
 70
   128
 71
   249
 72
   247
 73
   246
  0
VERTEX
  5
7E2
  8
0
 62
   123
 10
0.0
 20
0.0
 30
0.0
 70
   128
 71
   250
 72
   248
 73
   247
  0
VERTEX
  5
7E3
  8
0
 62
   123
 10
0.0
 20
0.0
 30
0.0
 70
   128
 71
   255
 72
   249
 73
   254
  0
VERTEX
  5
7E4
  8
0
 62
   123
 10
0.0
 20
0.0
 30
0.0
 70
   128
 71
   216
 72
   227
 73
   256
  0
VERTEX
  5
7E5
  8
0
 62
   123
 10
0.0
 20
0.0
 30
0.0
 70
   128
 71
   254
 72
   250
 73
   257
  0
VERTEX
  5
7E6
  8
0
 62
   123
 10
0.0
 20
0.0
 30
0.0
 70
   128
 71
   205
 72
   253
 73
   210
  0
VERTEX
  5
7E7
  8
0
 62
   123
 10
0.0
 20
0.0
 30
0.0
 70
   128
 71
   186
 72
   242
 73
   185
  0
VERTEX
  5
7E8
  8
0
 62
   123
 10
0.0
 20
0.0
 30
0.0
 70
   128
 71
   244
 72
   253
 73
   205
  0
VERTEX
  5
7E9
  8
0
 62
   123
 10
0.0
 20
0.0
 30
0.0
 70
   128
 71
   199
 72
   244
 73
   211
  0
VERTEX
  5
7EA
  8
0
 62
   123
 10
0.0
 20
0.0
 30
0.0
 70
   128
 71
   213
 72
   217
 73
   224
  0
VERTEX
  5
7EB
  8
0
 62
   123
 10
0.0
 20
0.0
 30
0.0
 70
   128
 71
   255
 72
   251
 73
   249
  0
VERTEX
  5
7EC
  8
0
 62
   123
 10
0.0
 20
0.0
 30
0.0
 70
   128
 71
   242
 72
   251
 73
   258
  0
VERTEX
  5
7ED
  8
0
 62
   123
 10
0.0
 20
0.0
 30
0.0
 70
   128
 71
   218
 72
   217
 73
   214
  0
VERTEX
  5
7EE
  8
0
 62
   123
 10
0.0
 20
0.0
 30
0.0
 70
   128
 71
   210
 72
   240
 73
   186
  0
VERTEX
  5
7EF
  8
0
 62
   123
 10
0.0
 20
0.0
 30
0.0
 70
   128
 71
   211
 72
   244
 73
   205
  0
VERTEX
  5
7F0
  8
0
 62
   123
 10
0.0
 20
0.0
 30
0.0
 70
   128
 71
   253
 72
   240
 73
   210
  0
VERTEX
  5
7F1
  8
0
 62
   123
 10
0.0
 20
0.0
 30
0.0
 70
   128
 71
   240
 72
   242
 73
   186
  0
VERTEX
  5
7F2
  8
0
 62
   123
 10
0.0
 20
0.0
 30
0.0
 70
   128
 71
   185
 72
   242
 73
   258
  0
VERTEX
  5
7F3
  8
0
 62
   123
 10
0.0
 20
0.0
 30
0.0
 70
   128
 71
   258
 72
   251
 73
   255
  0
VERTEX
  5
7F4
  8
0
 62
   123
 10
0.0
 20
0.0
 30
0.0
 70
   128
 71
   249
 72
   250
 73
   254
  0
VERTEX
  5
7F5
  8
0
 62
   123
 10
0.0
 20
0.0
 30
0.0
 70
   128
 71
   250
 72
   164
 73
   257
  0
VERTEX
  5
7F6
  8
0
 62
   123
 10
0.0
 20
0.0
 30
0.0
 70
   128
 71
   259
 72
   216
 73
   256
  0
VERTEX
  5
7F7
  8
0
 62
   123
 10
0.0
 20
0.0
 30
0.0
 70
   128
 71
   164
 72
   216
 73
   259
  0
VERTEX
  5
7F8
  8
0
 62
   123
 10
0.0
 20
0.0
 30
0.0
 70
   128
 71
   227
 72
   225
 73
   260
  0
VERTEX
  5
7F9
  8
0
 62
   123
 10
0.0
 20
0.0
 30
0.0
 70
   128
 71
   227
 72
   260
 73
   256
  0
VERTEX
  5
7FA
  8
0
 62
   123
 10
0.0
 20
0.0
 30
0.0
 70
   128
 71
   225
 72
   222
 73
   261
  0
VERTEX
  5
7FB
  8
0
 62
   123
 10
0.0
 20
0.0
 30
0.0
 70
   128
 71
   225
 72
   261
 73
   260
  0
VERTEX
  5
7FC
  8
0
 62
   123
 10
0.0
 20
0.0
 30
0.0
 70
   128
 71
   198
 72
   222
 73
   195
  0
VERTEX
  5
7FD
  8
0
 62
   123
 10
0.0
 20
0.0
 30
0.0
 70
   128
 71
   222
 72
   198
 73
   261
  0
VERTEX
  5
7FE
  8
0
 62
   123
 10
0.0
 20
0.0
 30
0.0
 70
   128
 71
   195
 72
   218
 73
   214
  0
VERTEX
  5
7FF
  8
0
 62
   123
 10
0.0
 20
0.0
 30
0.0
 70
   128
 71
   222
 72
   218
 73
   195
  0
VERTEX
  5
800
  8
0
 62
   123
 10
0.0
 20
0.0
 30
0.0
 70
   128
 71
   217
 72
   213
 73
   214
  0
VERTEX
  5
801
  8
0
 62
   123
 10
0.0
 20
0.0
 30
0.0
 70
   128
 71
   212
 72
   224
 73
   199
  0
VERTEX
  5
802
  8
0
 62
   123
 10
0.0
 20
0.0
 30
0.0
 70
   128
 71
   224
 72
   212
 73
   213
  0
VERTEX
  5
803
  8
0
 62
   123
 10
0.0
 20
0.0
 30
0.0
 70
   128
 71
   263
 72
   256
 73
   262
  0
VERTEX
  5
804
  8
0
 62
   123
 10
0.0
 20
0.0
 30
0.0
 70
   128
 71
   164
 72
   152
 73
   264
  0
VERTEX
  5
805
  8
0
 62
   123
 10
0.0
 20
0.0
 30
0.0
 70
   128
 71
   155
 72
   262
 73
   265
  0
VERTEX
  5
806
  8
0
 62
   123
 10
0.0
 20
0.0
 30
0.0
 70
   128
 71
   265
 72
   261
 73
   198
  0
VERTEX
  5
807
  8
0
 62
   123
 10
0.0
 20
0.0
 30
0.0
 70
   128
 71
   166
 72
   266
 73
   146
  0
VERTEX
  5
808
  8
0
 62
   123
 10
0.0
 20
0.0
 30
0.0
 70
   128
 71
   267
 72
   149
 73
   164
  0
VERTEX
  5
809
  8
0
 62
   123
 10
0.0
 20
0.0
 30
0.0
 70
   128
 71
   268
 72
   208
 73
   258
  0
VERTEX
  5
80A
  8
0
 62
   123
 10
0.0
 20
0.0
 30
0.0
 70
   128
 71
   166
 72
   269
 73
   266
  0
VERTEX
  5
80B
  8
0
 62
   123
 10
0.0
 20
0.0
 30
0.0
 70
   128
 71
   136
 72
   268
 73
   138
  0
VERTEX
  5
80C
  8
0
 62
   123
 10
0.0
 20
0.0
 30
0.0
 70
   128
 71
   136
 72
   143
 73
   268
  0
VERTEX
  5
80D
  8
0
 62
   123
 10
0.0
 20
0.0
 30
0.0
 70
   128
 71
   138
 72
   268
 73
   269
  0
VERTEX
  5
80E
  8
0
 62
   123
 10
0.0
 20
0.0
 30
0.0
 70
   128
 71
   185
 72
   258
 73
   208
  0
VERTEX
  5
80F
  8
0
 62
   123
 10
0.0
 20
0.0
 30
0.0
 70
   128
 71
   264
 72
   146
 73
   266
  0
VERTEX
  5
810
  8
0
 62
   123
 10
0.0
 20
0.0
 30
0.0
 70
   128
 71
   138
 72
   269
 73
   166
  0
VERTEX
  5
811
  8
0
 62
   123
 10
0.0
 20
0.0
 30
0.0
 70
   128
 71
   264
 72
   267
 73
   164
  0
VERTEX
  5
812
  8
0
 62
   123
 10
0.0
 20
0.0
 30
0.0
 70
   128
 71
   152
 72
   146
 73
   264
  0
VERTEX
  5
813
  8
0
 62
   123
 10
0.0
 20
0.0
 30
0.0
 70
   128
 71
   149
 72
   267
 73
   263
  0
VERTEX
  5
814
  8
0
 62
   123
 10
0.0
 20
0.0
 30
0.0
 70
   128
 71
   141
 72
   263
 73
   262
  0
VERTEX
  5
815
  8
0
 62
   123
 10
0.0
 20
0.0
 30
0.0
 70
   128
 71
   265
 72
   159
 73
   155
  0
VERTEX
  5
816
  8
0
 62
   123
 10
0.0
 20
0.0
 30
0.0
 70
   128
 71
   140
 72
   262
 73
   155
  0
VERTEX
  5
817
  8
0
 62
   123
 10
0.0
 20
0.0
 30
0.0
 70
   128
 71
   141
 72
   262
 73
   140
  0
VERTEX
  5
818
  8
0
 62
   123
 10
0.0
 20
0.0
 30
0.0
 70
   128
 71
   159
 72
   196
 73
   163
  0
VERTEX
  5
819
  8
0
 62
   123
 10
0.0
 20
0.0
 30
0.0
 70
   128
 71
   196
 72
   159
 73
   265
  0
VERTEX
  5
81A
  8
0
 62
   123
 10
0.0
 20
0.0
 30
0.0
 70
   128
 71
   196
 72
   265
 73
   198
  0
VERTEX
  5
81B
  8
0
 62
   123
 10
0.0
 20
0.0
 30
0.0
 70
   128
 71
   260
 72
   261
 73
   262
  0
VERTEX
  5
81C
  8
0
 62
   123
 10
0.0
 20
0.0
 30
0.0
 70
   128
 71
   265
 72
   262
 73
   261
  0
VERTEX
  5
81D
  8
0
 62
   123
 10
0.0
 20
0.0
 30
0.0
 70
   128
 71
   260
 72
   262
 73
   256
  0
VERTEX
  5
81E
  8
0
 62
   123
 10
0.0
 20
0.0
 30
0.0
 70
   128
 71
   256
 72
   263
 73
   259
  0
VERTEX
  5
81F
  8
0
 62
   123
 10
0.0
 20
0.0
 30
0.0
 70
   128
 71
   263
 72
   141
 73
   149
  0
VERTEX
  5
820
  8
0
 62
   123
 10
0.0
 20
0.0
 30
0.0
 70
   128
 71
   267
 72
   259
 73
   263
  0
VERTEX
  5
821
  8
0
 62
   123
 10
0.0
 20
0.0
 30
0.0
 70
   128
 71
   259
 72
   267
 73
   164
  0
VERTEX
  5
822
  8
0
 62
   123
 10
0.0
 20
0.0
 30
0.0
 70
   128
 71
   264
 72
   257
 73
   164
  0
VERTEX
  5
823
  8
0
 62
   123
 10
0.0
 20
0.0
 30
0.0
 70
   128
 71
   266
 72
   254
 73
   257
  0
VERTEX
  5
824
  8
0
 62
   123
 10
0.0
 20
0.0
 30
0.0
 70
   128
 71
   264
 72
   266
 73
   257
  0
VERTEX
  5
825
  8
0
 62
   123
 10
0.0
 20
0.0
 30
0.0
 70
   128
 71
   269
 72
   255
 73
   254
  0
VERTEX
  5
826
  8
0
 62
   123
 10
0.0
 20
0.0
 30
0.0
 70
   128
 71
   266
 72
   269
 73
   254
  0
VERTEX
  5
827
  8
0
 62
   123
 10
0.0
 20
0.0
 30
0.0
 70
   128
 71
   268
 72
   258
 73
   255
  0
VERTEX
  5
828
  8
0
 62
   123
 10
0.0
 20
0.0
 30
0.0
 70
   128
 71
   255
 72
   269
 73
   268
  0
VERTEX
  5
829
  8
0
 62
   123
 10
0.0
 20
0.0
 30
0.0
 70
   128
 71
   208
 72
   268
 73
   143
  0
VERTEX
  5
82A
  8
0
 62
   123
 10
0.0
 20
0.0
 30
0.0
 70
   128
 71
   271
 72
   206
 73
   270
  0
VERTEX
  5
82B
  8
0
 62
   123
 10
0.0
 20
0.0
 30
0.0
 70
   128
 71
   271
 72
   203
 73
   206
  0
VERTEX
  5
82C
  8
0
 62
   123
 10
0.0
 20
0.0
 30
0.0
 70
   128
 71
   272
 72
   201
 73
   203
  0
VERTEX
  5
82D
  8
0
 62
   123
 10
0.0
 20
0.0
 30
0.0
 70
   128
 71
   270
 72
   207
 73
   273
  0
VERTEX
  5
82E
  8
0
 62
   123
 10
0.0
 20
0.0
 30
0.0
 70
   128
 71
   273
 72
   207
 73
   209
  0
VERTEX
  5
82F
  8
0
 62
   123
 10
0.0
 20
0.0
 30
0.0
 70
   128
 71
   272
 72
   203
 73
   271
  0
VERTEX
  5
830
  8
0
 62
   123
 10
0.0
 20
0.0
 30
0.0
 70
   128
 71
   167
 72
   100
 73
   101
  0
VERTEX
  5
831
  8
0
 62
   123
 10
0.0
 20
0.0
 30
0.0
 70
   128
 71
   275
 72
   127
 73
   274
  0
VERTEX
  5
832
  8
0
 62
   123
 10
0.0
 20
0.0
 30
0.0
 70
   128
 71
   206
 72
   207
 73
   270
  0
VERTEX
  5
833
  8
0
 62
   123
 10
0.0
 20
0.0
 30
0.0
 70
   128
 71
   142
 72
   273
 73
   143
  0
VERTEX
  5
834
  8
0
 62
   123
 10
0.0
 20
0.0
 30
0.0
 70
   128
 71
   275
 72
   142
 73
   167
  0
VERTEX
  5
835
  8
0
 62
   123
 10
0.0
 20
0.0
 30
0.0
 70
   128
 71
   275
 72
   167
 73
   101
  0
VERTEX
  5
836
  8
0
 62
   123
 10
0.0
 20
0.0
 30
0.0
 70
   128
 71
   201
 72
   272
 73
   276
  0
VERTEX
  5
837
  8
0
 62
   123
 10
0.0
 20
0.0
 30
0.0
 70
   128
 71
   276
 72
   199
 73
   201
  0
VERTEX
  5
838
  8
0
 62
   123
 10
0.0
 20
0.0
 30
0.0
 70
   128
 71
   199
 72
   277
 73
   191
  0
VERTEX
  5
839
  8
0
 62
   123
 10
0.0
 20
0.0
 30
0.0
 70
   128
 71
   278
 72
   187
 73
   191
  0
VERTEX
  5
83A
  8
0
 62
   123
 10
0.0
 20
0.0
 30
0.0
 70
   128
 71
   277
 72
   199
 73
   276
  0
VERTEX
  5
83B
  8
0
 62
   123
 10
0.0
 20
0.0
 30
0.0
 70
   128
 71
   187
 72
   279
 73
   189
  0
VERTEX
  5
83C
  8
0
 62
   123
 10
0.0
 20
0.0
 30
0.0
 70
   128
 71
   277
 72
   278
 73
   191
  0
VERTEX
  5
83D
  8
0
 62
   123
 10
0.0
 20
0.0
 30
0.0
 70
   128
 71
   282
 72
   281
 73
   280
  0
VERTEX
  5
83E
  8
0
 62
   123
 10
0.0
 20
0.0
 30
0.0
 70
   128
 71
   187
 72
   278
 73
   279
  0
VERTEX
  5
83F
  8
0
 62
   123
 10
0.0
 20
0.0
 30
0.0
 70
   128
 71
   189
 72
   281
 73
   194
  0
VERTEX
  5
840
  8
0
 62
   123
 10
0.0
 20
0.0
 30
0.0
 70
   128
 71
   281
 72
   189
 73
   279
  0
VERTEX
  5
841
  8
0
 62
   123
 10
0.0
 20
0.0
 30
0.0
 70
   128
 71
   158
 72
   280
 73
   115
  0
VERTEX
  5
842
  8
0
 62
   123
 10
0.0
 20
0.0
 30
0.0
 70
   128
 71
   160
 72
   197
 73
   282
  0
VERTEX
  5
843
  8
0
 62
   123
 10
0.0
 20
0.0
 30
0.0
 70
   128
 71
   194
 72
   281
 73
   282
  0
VERTEX
  5
844
  8
0
 62
   123
 10
0.0
 20
0.0
 30
0.0
 70
   128
 71
   194
 72
   282
 73
   197
  0
VERTEX
  5
845
  8
0
 62
   123
 10
0.0
 20
0.0
 30
0.0
 70
   128
 71
   197
 72
   160
 73
   163
  0
VERTEX
  5
846
  8
0
 62
   123
 10
0.0
 20
0.0
 30
0.0
 70
   128
 71
   273
 72
   274
 73
   270
  0
VERTEX
  5
847
  8
0
 62
   123
 10
0.0
 20
0.0
 30
0.0
 70
   128
 71
   273
 72
   209
 73
   143
  0
VERTEX
  5
848
  8
0
 62
   123
 10
0.0
 20
0.0
 30
0.0
 70
   128
 71
   275
 72
   274
 73
   273
  0
VERTEX
  5
849
  8
0
 62
   123
 10
0.0
 20
0.0
 30
0.0
 70
   128
 71
   271
 72
   270
 73
   283
  0
VERTEX
  5
84A
  8
0
 62
   123
 10
0.0
 20
0.0
 30
0.0
 70
   128
 71
   274
 72
   283
 73
   270
  0
VERTEX
  5
84B
  8
0
 62
   123
 10
0.0
 20
0.0
 30
0.0
 70
   128
 71
   272
 72
   271
 73
   284
  0
VERTEX
  5
84C
  8
0
 62
   123
 10
0.0
 20
0.0
 30
0.0
 70
   128
 71
   283
 72
   284
 73
   271
  0
VERTEX
  5
84D
  8
0
 62
   123
 10
0.0
 20
0.0
 30
0.0
 70
   128
 71
   276
 72
   272
 73
   285
  0
VERTEX
  5
84E
  8
0
 62
   123
 10
0.0
 20
0.0
 30
0.0
 70
   128
 71
   284
 72
   285
 73
   272
  0
VERTEX
  5
84F
  8
0
 62
   123
 10
0.0
 20
0.0
 30
0.0
 70
   128
 71
   277
 72
   276
 73
   286
  0
VERTEX
  5
850
  8
0
 62
   123
 10
0.0
 20
0.0
 30
0.0
 70
   128
 71
   285
 72
   286
 73
   276
  0
VERTEX
  5
851
  8
0
 62
   123
 10
0.0
 20
0.0
 30
0.0
 70
   128
 71
   278
 72
   277
 73
   287
  0
VERTEX
  5
852
  8
0
 62
   123
 10
0.0
 20
0.0
 30
0.0
 70
   128
 71
   286
 72
   287
 73
   277
  0
VERTEX
  5
853
  8
0
 62
   123
 10
0.0
 20
0.0
 30
0.0
 70
   128
 71
   279
 72
   278
 73
   288
  0
VERTEX
  5
854
  8
0
 62
   123
 10
0.0
 20
0.0
 30
0.0
 70
   128
 71
   287
 72
   288
 73
   278
  0
VERTEX
  5
855
  8
0
 62
   123
 10
0.0
 20
0.0
 30
0.0
 70
   128
 71
   281
 72
   279
 73
   289
  0
VERTEX
  5
856
  8
0
 62
   123
 10
0.0
 20
0.0
 30
0.0
 70
   128
 71
   288
 72
   289
 73
   279
  0
VERTEX
  5
857
  8
0
 62
   123
 10
0.0
 20
0.0
 30
0.0
 70
   128
 71
   158
 72
   282
 73
   280
  0
VERTEX
  5
858
  8
0
 62
   123
 10
0.0
 20
0.0
 30
0.0
 70
   128
 71
   289
 72
   280
 73
   281
  0
VERTEX
  5
859
  8
0
 62
   123
 10
0.0
 20
0.0
 30
0.0
 70
   128
 71
   160
 72
   282
 73
   158
  0
VERTEX
  5
85A
  8
0
 62
   123
 10
0.0
 20
0.0
 30
0.0
 70
   128
 71
   273
 72
   142
 73
   275
  0
VERTEX
  5
85B
  8
0
 62
   123
 10
0.0
 20
0.0
 30
0.0
 70
   128
 71
   127
 72
   275
 73
   101
  0
VERTEX
  5
85C
  8
0
 62
   123
 10
0.0
 20
0.0
 30
0.0
 70
   128
 71
   128
 72
   274
 73
   127
  0
VERTEX
  5
85D
  8
0
 62
   123
 10
0.0
 20
0.0
 30
0.0
 70
   128
 71
   128
 72
   283
 73
   274
  0
VERTEX
  5
85E
  8
0
 62
   123
 10
0.0
 20
0.0
 30
0.0
 70
   128
 71
   129
 72
   283
 73
   128
  0
VERTEX
  5
85F
  8
0
 62
   123
 10
0.0
 20
0.0
 30
0.0
 70
   128
 71
   130
 72
   284
 73
   129
  0
VERTEX
  5
860
  8
0
 62
   123
 10
0.0
 20
0.0
 30
0.0
 70
   128
 71
   284
 72
   283
 73
   129
  0
VERTEX
  5
861
  8
0
 62
   123
 10
0.0
 20
0.0
 30
0.0
 70
   128
 71
   131
 72
   285
 73
   130
  0
VERTEX
  5
862
  8
0
 62
   123
 10
0.0
 20
0.0
 30
0.0
 70
   128
 71
   285
 72
   284
 73
   130
  0
VERTEX
  5
863
  8
0
 62
   123
 10
0.0
 20
0.0
 30
0.0
 70
   128
 71
   132
 72
   286
 73
   131
  0
VERTEX
  5
864
  8
0
 62
   123
 10
0.0
 20
0.0
 30
0.0
 70
   128
 71
   286
 72
   285
 73
   131
  0
VERTEX
  5
865
  8
0
 62
   123
 10
0.0
 20
0.0
 30
0.0
 70
   128
 71
   133
 72
   287
 73
   132
  0
VERTEX
  5
866
  8
0
 62
   123
 10
0.0
 20
0.0
 30
0.0
 70
   128
 71
   287
 72
   286
 73
   132
  0
VERTEX
  5
867
  8
0
 62
   123
 10
0.0
 20
0.0
 30
0.0
 70
   128
 71
   134
 72
   288
 73
   133
  0
VERTEX
  5
868
  8
0
 62
   123
 10
0.0
 20
0.0
 30
0.0
 70
   128
 71
   288
 72
   287
 73
   133
  0
VERTEX
  5
869
  8
0
 62
   123
 10
0.0
 20
0.0
 30
0.0
 70
   128
 71
   134
 72
   135
 73
   289
  0
VERTEX
  5
86A
  8
0
 62
   123
 10
0.0
 20
0.0
 30
0.0
 70
   128
 71
   289
 72
   288
 73
   134
  0
VERTEX
  5
86B
  8
0
 62
   123
 10
0.0
 20
0.0
 30
0.0
 70
   128
 71
   135
 72
   112
 73
   280
  0
VERTEX
  5
86C
  8
0
 62
   123
 10
0.0
 20
0.0
 30
0.0
 70
   128
 71
   280
 72
   289
 73
   135
  0
VERTEX
  5
86D
  8
0
 62
   123
 10
0.0
 20
0.0
 30
0.0
 70
   128
 71
   112
 72
   115
 73
   280
  0
VERTEX
  5
86E
  8
0
 62
   123
 10
0.0
 20
0.0
 30
0.0
 70
   128
 71
   291
 72
    80
 73
   290
  0
VERTEX
  5
86F
  8
0
 62
   123
 10
0.0
 20
0.0
 30
0.0
 70
   128
 71
   293
 72
   292
 73
    65
  0
VERTEX
  5
870
  8
0
 62
   123
 10
0.0
 20
0.0
 30
0.0
 70
   128
 71
   290
 72
    80
 73
    64
  0
VERTEX
  5
871
  8
0
 62
   123
 10
0.0
 20
0.0
 30
0.0
 70
   128
 71
   291
 72
   157
 73
   115
  0
VERTEX
  5
872
  8
0
 62
   123
 10
0.0
 20
0.0
 30
0.0
 70
   128
 71
   295
 72
    78
 73
   294
  0
VERTEX
  5
873
  8
0
 62
   123
 10
0.0
 20
0.0
 30
0.0
 70
   128
 71
   296
 72
    75
 73
    88
  0
VERTEX
  5
874
  8
0
 62
   123
 10
0.0
 20
0.0
 30
0.0
 70
   128
 71
    89
 72
    73
 73
   297
  0
VERTEX
  5
875
  8
0
 62
   123
 10
0.0
 20
0.0
 30
0.0
 70
   128
 71
   298
 72
    72
 73
    89
  0
VERTEX
  5
876
  8
0
 62
   123
 10
0.0
 20
0.0
 30
0.0
 70
   128
 71
   126
 72
   183
 73
   299
  0
VERTEX
  5
877
  8
0
 62
   123
 10
0.0
 20
0.0
 30
0.0
 70
   128
 71
   300
 72
    73
 73
    69
  0
VERTEX
  5
878
  8
0
 62
   123
 10
0.0
 20
0.0
 30
0.0
 70
   128
 71
    67
 72
   126
 73
   299
  0
VERTEX
  5
879
  8
0
 62
   123
 10
0.0
 20
0.0
 30
0.0
 70
   128
 71
    69
 72
    67
 73
   299
  0
VERTEX
  5
87A
  8
0
 62
   123
 10
0.0
 20
0.0
 30
0.0
 70
   128
 71
   297
 72
    73
 73
   300
  0
VERTEX
  5
87B
  8
0
 62
   123
 10
0.0
 20
0.0
 30
0.0
 70
   128
 71
   100
 72
   183
 73
   126
  0
VERTEX
  5
87C
  8
0
 62
   123
 10
0.0
 20
0.0
 30
0.0
 70
   128
 71
   298
 72
   294
 73
    72
  0
VERTEX
  5
87D
  8
0
 62
   123
 10
0.0
 20
0.0
 30
0.0
 70
   128
 71
   298
 72
    89
 73
   297
  0
VERTEX
  5
87E
  8
0
 62
   123
 10
0.0
 20
0.0
 30
0.0
 70
   128
 71
    88
 72
    78
 73
   295
  0
VERTEX
  5
87F
  8
0
 62
   123
 10
0.0
 20
0.0
 30
0.0
 70
   128
 71
    72
 72
   294
 73
    78
  0
VERTEX
  5
880
  8
0
 62
   123
 10
0.0
 20
0.0
 30
0.0
 70
   128
 71
    75
 72
   296
 73
   293
  0
VERTEX
  5
881
  8
0
 62
   123
 10
0.0
 20
0.0
 30
0.0
 70
   128
 71
    88
 72
   295
 73
   296
  0
VERTEX
  5
882
  8
0
 62
   123
 10
0.0
 20
0.0
 30
0.0
 70
   128
 71
   293
 72
    65
 73
    75
  0
VERTEX
  5
883
  8
0
 62
   123
 10
0.0
 20
0.0
 30
0.0
 70
   128
 71
   290
 72
    64
 73
   292
  0
VERTEX
  5
884
  8
0
 62
   123
 10
0.0
 20
0.0
 30
0.0
 70
   128
 71
   292
 72
    64
 73
    65
  0
VERTEX
  5
885
  8
0
 62
   123
 10
0.0
 20
0.0
 30
0.0
 70
   128
 71
   113
 72
   291
 73
   115
  0
VERTEX
  5
886
  8
0
 62
   123
 10
0.0
 20
0.0
 30
0.0
 70
   128
 71
   162
 72
   157
 73
   290
  0
VERTEX
  5
887
  8
0
 62
   123
 10
0.0
 20
0.0
 30
0.0
 70
   128
 71
    85
 72
   113
 73
    87
  0
VERTEX
  5
888
  8
0
 62
   123
 10
0.0
 20
0.0
 30
0.0
 70
   128
 71
   291
 72
   113
 73
    85
  0
VERTEX
  5
889
  8
0
 62
   123
 10
0.0
 20
0.0
 30
0.0
 70
   128
 71
   291
 72
    85
 73
    80
  0
VERTEX
  5
88A
  8
0
 62
   123
 10
0.0
 20
0.0
 30
0.0
 70
   128
 71
   175
 72
   162
 73
   292
  0
VERTEX
  5
88B
  8
0
 62
   123
 10
0.0
 20
0.0
 30
0.0
 70
   128
 71
   291
 72
   290
 73
   157
  0
VERTEX
  5
88C
  8
0
 62
   123
 10
0.0
 20
0.0
 30
0.0
 70
   128
 71
   176
 72
   175
 73
   293
  0
VERTEX
  5
88D
  8
0
 62
   123
 10
0.0
 20
0.0
 30
0.0
 70
   128
 71
   290
 72
   292
 73
   162
  0
VERTEX
  5
88E
  8
0
 62
   123
 10
0.0
 20
0.0
 30
0.0
 70
   128
 71
   177
 72
   176
 73
   296
  0
VERTEX
  5
88F
  8
0
 62
   123
 10
0.0
 20
0.0
 30
0.0
 70
   128
 71
   292
 72
   293
 73
   175
  0
VERTEX
  5
890
  8
0
 62
   123
 10
0.0
 20
0.0
 30
0.0
 70
   128
 71
   178
 72
   177
 73
   295
  0
VERTEX
  5
891
  8
0
 62
   123
 10
0.0
 20
0.0
 30
0.0
 70
   128
 71
   293
 72
   296
 73
   176
  0
VERTEX
  5
892
  8
0
 62
   123
 10
0.0
 20
0.0
 30
0.0
 70
   128
 71
   179
 72
   178
 73
   294
  0
VERTEX
  5
893
  8
0
 62
   123
 10
0.0
 20
0.0
 30
0.0
 70
   128
 71
   296
 72
   295
 73
   177
  0
VERTEX
  5
894
  8
0
 62
   123
 10
0.0
 20
0.0
 30
0.0
 70
   128
 71
   180
 72
   179
 73
   298
  0
VERTEX
  5
895
  8
0
 62
   123
 10
0.0
 20
0.0
 30
0.0
 70
   128
 71
   295
 72
   294
 73
   178
  0
VERTEX
  5
896
  8
0
 62
   123
 10
0.0
 20
0.0
 30
0.0
 70
   128
 71
   181
 72
   180
 73
   297
  0
VERTEX
  5
897
  8
0
 62
   123
 10
0.0
 20
0.0
 30
0.0
 70
   128
 71
   294
 72
   298
 73
   179
  0
VERTEX
  5
898
  8
0
 62
   123
 10
0.0
 20
0.0
 30
0.0
 70
   128
 71
   182
 72
   181
 73
   300
  0
VERTEX
  5
899
  8
0
 62
   123
 10
0.0
 20
0.0
 30
0.0
 70
   128
 71
   298
 72
   297
 73
   180
  0
VERTEX
  5
89A
  8
0
 62
   123
 10
0.0
 20
0.0
 30
0.0
 70
   128
 71
   183
 72
   182
 73
   299
  0
VERTEX
  5
89B
  8
0
 62
   123
 10
0.0
 20
0.0
 30
0.0
 70
   128
 71
   297
 72
   300
 73
   181
  0
VERTEX
  5
89C
  8
0
 62
   123
 10
0.0
 20
0.0
 30
0.0
 70
   128
 71
   300
 72
   299
 73
   182
  0
VERTEX
  5
89D
  8
0
 62
   123
 10
0.0
 20
0.0
 30
0.0
 70
   128
 71
   299
 72
   300
 73
    69
  0
VERTEX
  5
89E
  8
0
 62
   123
 10
0.0
 20
0.0
 30
0.0
 70
   128
 71
   302
 72
   120
 73
   301
  0
VERTEX
  5
89F
  8
0
 62
   123
 10
0.0
 20
0.0
 30
0.0
 70
   128
 71
   121
 72
   301
 73
   120
  0
VERTEX
  5
8A0
  8
0
 62
   123
 10
0.0
 20
0.0
 30
0.0
 70
   128
 71
   116
 72
   117
 73
   303
  0
VERTEX
  5
8A1
  8
0
 62
   123
 10
0.0
 20
0.0
 30
0.0
 70
   128
 71
   123
 72
   305
 73
   304
  0
VERTEX
  5
8A2
  8
0
 62
   123
 10
0.0
 20
0.0
 30
0.0
 70
   128
 71
   123
 72
   304
 73
   121
  0
VERTEX
  5
8A3
  8
0
 62
   123
 10
0.0
 20
0.0
 30
0.0
 70
   128
 71
   120
 72
   302
 73
   117
  0
VERTEX
  5
8A4
  8
0
 62
   123
 10
0.0
 20
0.0
 30
0.0
 70
   128
 71
   304
 72
   301
 73
   121
  0
VERTEX
  5
8A5
  8
0
 62
   123
 10
0.0
 20
0.0
 30
0.0
 70
   128
 71
    55
 72
   306
 73
    31
  0
VERTEX
  5
8A6
  8
0
 62
   123
 10
0.0
 20
0.0
 30
0.0
 70
   128
 71
    31
 72
   306
 73
    68
  0
VERTEX
  5
8A7
  8
0
 62
   123
 10
0.0
 20
0.0
 30
0.0
 70
   128
 71
    68
 72
    30
 73
    31
  0
VERTEX
  5
8A8
  8
0
 62
   123
 10
0.0
 20
0.0
 30
0.0
 70
   128
 71
   306
 72
   305
 73
   125
  0
VERTEX
  5
8A9
  8
0
 62
   123
 10
0.0
 20
0.0
 30
0.0
 70
   128
 71
    67
 72
    68
 73
   306
  0
VERTEX
  5
8AA
  8
0
 62
   123
 10
0.0
 20
0.0
 30
0.0
 70
   128
 71
   117
 72
   302
 73
   303
  0
VERTEX
  5
8AB
  8
0
 62
   123
 10
0.0
 20
0.0
 30
0.0
 70
   128
 71
   105
 72
   116
 73
   307
  0
VERTEX
  5
8AC
  8
0
 62
   123
 10
0.0
 20
0.0
 30
0.0
 70
   128
 71
   105
 72
   308
 73
   103
  0
VERTEX
  5
8AD
  8
0
 62
   123
 10
0.0
 20
0.0
 30
0.0
 70
   128
 71
   307
 72
   116
 73
   303
  0
VERTEX
  5
8AE
  8
0
 62
   123
 10
0.0
 20
0.0
 30
0.0
 70
   128
 71
   107
 72
   103
 73
   309
  0
VERTEX
  5
8AF
  8
0
 62
   123
 10
0.0
 20
0.0
 30
0.0
 70
   128
 71
   307
 72
   308
 73
   105
  0
VERTEX
  5
8B0
  8
0
 62
   123
 10
0.0
 20
0.0
 30
0.0
 70
   128
 71
   310
 72
   109
 73
   107
  0
VERTEX
  5
8B1
  8
0
 62
   123
 10
0.0
 20
0.0
 30
0.0
 70
   128
 71
   103
 72
   308
 73
   309
  0
VERTEX
  5
8B2
  8
0
 62
   123
 10
0.0
 20
0.0
 30
0.0
 70
   128
 71
    40
 72
   311
 73
    39
  0
VERTEX
  5
8B3
  8
0
 62
   123
 10
0.0
 20
0.0
 30
0.0
 70
   128
 71
   310
 72
   107
 73
   309
  0
VERTEX
  5
8B4
  8
0
 62
   123
 10
0.0
 20
0.0
 30
0.0
 70
   128
 71
    86
 72
   311
 73
    40
  0
VERTEX
  5
8B5
  8
0
 62
   123
 10
0.0
 20
0.0
 30
0.0
 70
   128
 71
   310
 72
   311
 73
   109
  0
VERTEX
  5
8B6
  8
0
 62
   123
 10
0.0
 20
0.0
 30
0.0
 70
   128
 71
    86
 72
    87
 73
   111
  0
VERTEX
  5
8B7
  8
0
 62
   123
 10
0.0
 20
0.0
 30
0.0
 70
   128
 71
   109
 72
   311
 73
   111
  0
VERTEX
  5
8B8
  8
0
 62
   123
 10
0.0
 20
0.0
 30
0.0
 70
   128
 71
   306
 72
   125
 73
    67
  0
VERTEX
  5
8B9
  8
0
 62
   123
 10
0.0
 20
0.0
 30
0.0
 70
   128
 71
   305
 72
   123
 73
   125
  0
VERTEX
  5
8BA
  8
0
 62
   123
 10
0.0
 20
0.0
 30
0.0
 70
   128
 71
    56
 72
   305
 73
    55
  0
VERTEX
  5
8BB
  8
0
 62
   123
 10
0.0
 20
0.0
 30
0.0
 70
   128
 71
    55
 72
   305
 73
   306
  0
VERTEX
  5
8BC
  8
0
 62
   123
 10
0.0
 20
0.0
 30
0.0
 70
   128
 71
    57
 72
   304
 73
    56
  0
VERTEX
  5
8BD
  8
0
 62
   123
 10
0.0
 20
0.0
 30
0.0
 70
   128
 71
    56
 72
   304
 73
   305
  0
VERTEX
  5
8BE
  8
0
 62
   123
 10
0.0
 20
0.0
 30
0.0
 70
   128
 71
    58
 72
   301
 73
    57
  0
VERTEX
  5
8BF
  8
0
 62
   123
 10
0.0
 20
0.0
 30
0.0
 70
   128
 71
    57
 72
   301
 73
   304
  0
VERTEX
  5
8C0
  8
0
 62
   123
 10
0.0
 20
0.0
 30
0.0
 70
   128
 71
    42
 72
   302
 73
    58
  0
VERTEX
  5
8C1
  8
0
 62
   123
 10
0.0
 20
0.0
 30
0.0
 70
   128
 71
    58
 72
   302
 73
   301
  0
VERTEX
  5
8C2
  8
0
 62
   123
 10
0.0
 20
0.0
 30
0.0
 70
   128
 71
    41
 72
   303
 73
    42
  0
VERTEX
  5
8C3
  8
0
 62
   123
 10
0.0
 20
0.0
 30
0.0
 70
   128
 71
    42
 72
   303
 73
   302
  0
VERTEX
  5
8C4
  8
0
 62
   123
 10
0.0
 20
0.0
 30
0.0
 70
   128
 71
    59
 72
   307
 73
    41
  0
VERTEX
  5
8C5
  8
0
 62
   123
 10
0.0
 20
0.0
 30
0.0
 70
   128
 71
    41
 72
   307
 73
   303
  0
VERTEX
  5
8C6
  8
0
 62
   123
 10
0.0
 20
0.0
 30
0.0
 70
   128
 71
    60
 72
   308
 73
    59
  0
VERTEX
  5
8C7
  8
0
 62
   123
 10
0.0
 20
0.0
 30
0.0
 70
   128
 71
    59
 72
   308
 73
   307
  0
VERTEX
  5
8C8
  8
0
 62
   123
 10
0.0
 20
0.0
 30
0.0
 70
   128
 71
    61
 72
   309
 73
    60
  0
VERTEX
  5
8C9
  8
0
 62
   123
 10
0.0
 20
0.0
 30
0.0
 70
   128
 71
    60
 72
   309
 73
   308
  0
VERTEX
  5
8CA
  8
0
 62
   123
 10
0.0
 20
0.0
 30
0.0
 70
   128
 71
    39
 72
   310
 73
    61
  0
VERTEX
  5
8CB
  8
0
 62
   123
 10
0.0
 20
0.0
 30
0.0
 70
   128
 71
    61
 72
   310
 73
   309
  0
VERTEX
  5
8CC
  8
0
 62
   123
 10
0.0
 20
0.0
 30
0.0
 70
   128
 71
   311
 72
   310
 73
    39
  0
VERTEX
  5
8CD
  8
0
 62
   123
 10
0.0
 20
0.0
 30
0.0
 70
   128
 71
   111
 72
   311
 73
    86
  0
VERTEX
  5
8CE
  8
0
 62
   123
 10
0.0
 20
0.0
 30
0.0
 70
   128
 71
   313
 72
    84
 73
   312
  0
VERTEX
  5
8CF
  8
0
 62
   123
 10
0.0
 20
0.0
 30
0.0
 70
   128
 71
     3
 72
   315
 73
   314
  0
VERTEX
  5
8D0
  8
0
 62
   123
 10
0.0
 20
0.0
 30
0.0
 70
   128
 71
   313
 72
   312
 73
    15
  0
VERTEX
  5
8D1
  8
0
 62
   123
 10
0.0
 20
0.0
 30
0.0
 70
   128
 71
   312
 72
    84
 73
    40
  0
VERTEX
  5
8D2
  8
0
 62
   123
 10
0.0
 20
0.0
 30
0.0
 70
   128
 71
   317
 72
    94
 73
   316
  0
VERTEX
  5
8D3
  8
0
 62
   123
 10
0.0
 20
0.0
 30
0.0
 70
   128
 71
    12
 72
   318
 73
     9
  0
VERTEX
  5
8D4
  8
0
 62
   123
 10
0.0
 20
0.0
 30
0.0
 70
   128
 71
   321
 72
   320
 73
   319
  0
VERTEX
  5
8D5
  8
0
 62
   123
 10
0.0
 20
0.0
 30
0.0
 70
   128
 71
   323
 72
   322
 73
   321
  0
VERTEX
  5
8D6
  8
0
 62
   123
 10
0.0
 20
0.0
 30
0.0
 70
   128
 71
   324
 72
   319
 73
   320
  0
VERTEX
  5
8D7
  8
0
 62
   123
 10
0.0
 20
0.0
 30
0.0
 70
   128
 71
   324
 72
   320
 73
   325
  0
VERTEX
  5
8D8
  8
0
 62
   123
 10
0.0
 20
0.0
 30
0.0
 70
   128
 71
    54
 72
   324
 73
   325
  0
VERTEX
  5
8D9
  8
0
 62
   123
 10
0.0
 20
0.0
 30
0.0
 70
   128
 71
    54
 72
    53
 73
   324
  0
VERTEX
  5
8DA
  8
0
 62
   123
 10
0.0
 20
0.0
 30
0.0
 70
   128
 71
   319
 72
   323
 73
   321
  0
VERTEX
  5
8DB
  8
0
 62
   123
 10
0.0
 20
0.0
 30
0.0
 70
   128
 71
    30
 72
    63
 73
    53
  0
VERTEX
  5
8DC
  8
0
 62
   123
 10
0.0
 20
0.0
 30
0.0
 70
   128
 71
   323
 72
   326
 73
   322
  0
VERTEX
  5
8DD
  8
0
 62
   123
 10
0.0
 20
0.0
 30
0.0
 70
   128
 71
   313
 72
     2
 73
   314
  0
VERTEX
  5
8DE
  8
0
 62
   123
 10
0.0
 20
0.0
 30
0.0
 70
   128
 71
   326
 72
   317
 73
   327
  0
VERTEX
  5
8DF
  8
0
 62
   123
 10
0.0
 20
0.0
 30
0.0
 70
   128
 71
   326
 72
    95
 73
   317
  0
VERTEX
  5
8E0
  8
0
 62
   123
 10
0.0
 20
0.0
 30
0.0
 70
   128
 71
   318
 72
    12
 73
   316
  0
VERTEX
  5
8E1
  8
0
 62
   123
 10
0.0
 20
0.0
 30
0.0
 70
   128
 71
    12
 72
   328
 73
   316
  0
VERTEX
  5
8E2
  8
0
 62
   123
 10
0.0
 20
0.0
 30
0.0
 70
   128
 71
   328
 72
   317
 73
   316
  0
VERTEX
  5
8E3
  8
0
 62
   123
 10
0.0
 20
0.0
 30
0.0
 70
   128
 71
     7
 72
     9
 73
   318
  0
VERTEX
  5
8E4
  8
0
 62
   123
 10
0.0
 20
0.0
 30
0.0
 70
   128
 71
   315
 72
     7
 73
   318
  0
VERTEX
  5
8E5
  8
0
 62
   123
 10
0.0
 20
0.0
 30
0.0
 70
   128
 71
     7
 72
   315
 73
     3
  0
VERTEX
  5
8E6
  8
0
 62
   123
 10
0.0
 20
0.0
 30
0.0
 70
   128
 71
   312
 72
    40
 73
    38
  0
VERTEX
  5
8E7
  8
0
 62
   123
 10
0.0
 20
0.0
 30
0.0
 70
   128
 71
    16
 72
    15
 73
   312
  0
VERTEX
  5
8E8
  8
0
 62
   123
 10
0.0
 20
0.0
 30
0.0
 70
   128
 71
     2
 72
     3
 73
   314
  0
VERTEX
  5
8E9
  8
0
 62
   123
 10
0.0
 20
0.0
 30
0.0
 70
   128
 71
    16
 72
    38
 73
    20
  0
VERTEX
  5
8EA
  8
0
 62
   123
 10
0.0
 20
0.0
 30
0.0
 70
   128
 71
    16
 72
   312
 73
    38
  0
VERTEX
  5
8EB
  8
0
 62
   123
 10
0.0
 20
0.0
 30
0.0
 70
   128
 71
    83
 72
    84
 73
   313
  0
VERTEX
  5
8EC
  8
0
 62
   123
 10
0.0
 20
0.0
 30
0.0
 70
   128
 71
    91
 72
    83
 73
   314
  0
VERTEX
  5
8ED
  8
0
 62
   123
 10
0.0
 20
0.0
 30
0.0
 70
   128
 71
   313
 72
    15
 73
     2
  0
VERTEX
  5
8EE
  8
0
 62
   123
 10
0.0
 20
0.0
 30
0.0
 70
   128
 71
   313
 72
   314
 73
    83
  0
VERTEX
  5
8EF
  8
0
 62
   123
 10
0.0
 20
0.0
 30
0.0
 70
   128
 71
    92
 72
    91
 73
   315
  0
VERTEX
  5
8F0
  8
0
 62
   123
 10
0.0
 20
0.0
 30
0.0
 70
   128
 71
   314
 72
   315
 73
    91
  0
VERTEX
  5
8F1
  8
0
 62
   123
 10
0.0
 20
0.0
 30
0.0
 70
   128
 71
    93
 72
    92
 73
   318
  0
VERTEX
  5
8F2
  8
0
 62
   123
 10
0.0
 20
0.0
 30
0.0
 70
   128
 71
   315
 72
   318
 73
    92
  0
VERTEX
  5
8F3
  8
0
 62
   123
 10
0.0
 20
0.0
 30
0.0
 70
   128
 71
   316
 72
    94
 73
    93
  0
VERTEX
  5
8F4
  8
0
 62
   123
 10
0.0
 20
0.0
 30
0.0
 70
   128
 71
    95
 72
    94
 73
   317
  0
VERTEX
  5
8F5
  8
0
 62
   123
 10
0.0
 20
0.0
 30
0.0
 70
   128
 71
   318
 72
   316
 73
    93
  0
VERTEX
  5
8F6
  8
0
 62
   123
 10
0.0
 20
0.0
 30
0.0
 70
   128
 71
    96
 72
    95
 73
   326
  0
VERTEX
  5
8F7
  8
0
 62
   123
 10
0.0
 20
0.0
 30
0.0
 70
   128
 71
   317
 72
   328
 73
   327
  0
VERTEX
  5
8F8
  8
0
 62
   123
 10
0.0
 20
0.0
 30
0.0
 70
   128
 71
    97
 72
    96
 73
   323
  0
VERTEX
  5
8F9
  8
0
 62
   123
 10
0.0
 20
0.0
 30
0.0
 70
   128
 71
   326
 72
   327
 73
   322
  0
VERTEX
  5
8FA
  8
0
 62
   123
 10
0.0
 20
0.0
 30
0.0
 70
   128
 71
   326
 72
   323
 73
    96
  0
VERTEX
  5
8FB
  8
0
 62
   123
 10
0.0
 20
0.0
 30
0.0
 70
   128
 71
    98
 72
    97
 73
   319
  0
VERTEX
  5
8FC
  8
0
 62
   123
 10
0.0
 20
0.0
 30
0.0
 70
   128
 71
   323
 72
   319
 73
    97
  0
VERTEX
  5
8FD
  8
0
 62
   123
 10
0.0
 20
0.0
 30
0.0
 70
   128
 71
    63
 72
    98
 73
   324
  0
VERTEX
  5
8FE
  8
0
 62
   123
 10
0.0
 20
0.0
 30
0.0
 70
   128
 71
   319
 72
   324
 73
    98
  0
VERTEX
  5
8FF
  8
0
 62
   123
 10
0.0
 20
0.0
 30
0.0
 70
   128
 71
    63
 72
   324
 73
    53
  0
VERTEX
  5
900
  8
0
 62
   123
 10
0.0
 20
0.0
 30
0.0
 70
   128
 71
    12
 72
    11
 73
   328
  0
VERTEX
  5
901
  8
0
 62
   123
 10
0.0
 20
0.0
 30
0.0
 70
   128
 71
   322
 72
   231
 73
   321
  0
VERTEX
  5
902
  8
0
 62
   123
 10
0.0
 20
0.0
 30
0.0
 70
   128
 71
   230
 72
   229
 73
   327
  0
VERTEX
  5
903
  8
0
 62
   123
 10
0.0
 20
0.0
 30
0.0
 70
   128
 71
   325
 72
   232
 73
   234
  0
VERTEX
  5
904
  8
0
 62
   123
 10
0.0
 20
0.0
 30
0.0
 70
   128
 71
   320
 72
   321
 73
   233
  0
VERTEX
  5
905
  8
0
 62
   123
 10
0.0
 20
0.0
 30
0.0
 70
   128
 71
   237
 72
    49
 73
    51
  0
VERTEX
  5
906
  8
0
 62
   123
 10
0.0
 20
0.0
 30
0.0
 70
   128
 71
   234
 72
   236
 73
    52
  0
VERTEX
  5
907
  8
0
 62
   123
 10
0.0
 20
0.0
 30
0.0
 70
   128
 71
   239
 72
    47
 73
   235
  0
VERTEX
  5
908
  8
0
 62
   123
 10
0.0
 20
0.0
 30
0.0
 70
   128
 71
    49
 72
   235
 73
    47
  0
VERTEX
  5
909
  8
0
 62
   123
 10
0.0
 20
0.0
 30
0.0
 70
   128
 71
    45
 72
   239
 73
   238
  0
VERTEX
  5
90A
  8
0
 62
   123
 10
0.0
 20
0.0
 30
0.0
 70
   128
 71
   239
 72
    45
 73
    47
  0
VERTEX
  5
90B
  8
0
 62
   123
 10
0.0
 20
0.0
 30
0.0
 70
   128
 71
   238
 72
    27
 73
    46
  0
VERTEX
  5
90C
  8
0
 62
   123
 10
0.0
 20
0.0
 30
0.0
 70
   128
 71
    46
 72
    45
 73
   238
  0
VERTEX
  5
90D
  8
0
 62
   123
 10
0.0
 20
0.0
 30
0.0
 70
   128
 71
    46
 72
    27
 73
    28
  0
VERTEX
  5
90E
  8
0
 62
   123
 10
0.0
 20
0.0
 30
0.0
 70
   128
 71
   237
 72
    51
 73
   236
  0
VERTEX
  5
90F
  8
0
 62
   123
 10
0.0
 20
0.0
 30
0.0
 70
   128
 71
   237
 72
   235
 73
    49
  0
VERTEX
  5
910
  8
0
 62
   123
 10
0.0
 20
0.0
 30
0.0
 70
   128
 71
   234
 72
    52
 73
    54
  0
VERTEX
  5
911
  8
0
 62
   123
 10
0.0
 20
0.0
 30
0.0
 70
   128
 71
   236
 72
    51
 73
    52
  0
VERTEX
  5
912
  8
0
 62
   123
 10
0.0
 20
0.0
 30
0.0
 70
   128
 71
   325
 72
   320
 73
   232
  0
VERTEX
  5
913
  8
0
 62
   123
 10
0.0
 20
0.0
 30
0.0
 70
   128
 71
    54
 72
   325
 73
   234
  0
VERTEX
  5
914
  8
0
 62
   123
 10
0.0
 20
0.0
 30
0.0
 70
   128
 71
   321
 72
   231
 73
   233
  0
VERTEX
  5
915
  8
0
 62
   123
 10
0.0
 20
0.0
 30
0.0
 70
   128
 71
   320
 72
   233
 73
   232
  0
VERTEX
  5
916
  8
0
 62
   123
 10
0.0
 20
0.0
 30
0.0
 70
   128
 71
   327
 72
   229
 73
   322
  0
VERTEX
  5
917
  8
0
 62
   123
 10
0.0
 20
0.0
 30
0.0
 70
   128
 71
   322
 72
   229
 73
   231
  0
VERTEX
  5
918
  8
0
 62
   123
 10
0.0
 20
0.0
 30
0.0
 70
   128
 71
    11
 72
   230
 73
   328
  0
VERTEX
  5
919
  8
0
 62
   123
 10
0.0
 20
0.0
 30
0.0
 70
   128
 71
   328
 72
   230
 73
   327
  0
SEQEND
  5
91A
  8
0
 62
   123
  0
ENDBLK
  5
91D
  8
0
  0
BLOCK
  8
0
  2
____MSBR_6_
 70
     0
 10
0.0
 20
0.0
 30
0.0
  3
____MSBR_6_
  1

  0
POLYLINE
  5
91F
  8
0
 62
   123
 66
     1
 10
0.0
 20
0.0
 30
0.0
 70
    64
 71
    35
 72
    43
  0
VERTEX
  5
920
  8
0
 10
20.5
 20
-213.5566253662109
 30
-6.5
 70
   192
  0
VERTEX
  5
921
  8
0
 10
20.5
 20
-216.4433746337891
 30
-6.5
 70
   192
  0
VERTEX
  5
922
  8
0
 10
19.25
 20
-214.2783050537109
 30
-6.5
 70
   192
  0
VERTEX
  5
923
  8
0
 10
21.75
 20
-214.2783050537109
 30
-6.5
 70
   192
  0
VERTEX
  5
924
  8
0
 10
21.75
 20
-215.7216949462891
 30
-6.5
 70
   192
  0
VERTEX
  5
925
  8
0
 10
19.25
 20
-215.7216949462891
 30
-6.5
 70
   192
  0
VERTEX
  5
926
  8
0
 10
20.5
 20
-213.5566253662109
 30
-8.5
 70
   192
  0
VERTEX
  5
927
  8
0
 10
21.75
 20
-214.2783050537109
 30
-8.5
 70
   192
  0
VERTEX
  5
928
  8
0
 10
21.75
 20
-215.7216949462891
 30
-8.5
 70
   192
  0
VERTEX
  5
929
  8
0
 10
20.5
 20
-216.4433746337891
 30
-8.5
 70
   192
  0
VERTEX
  5
92A
  8
0
 10
19.25
 20
-215.7216949462891
 30
-8.5
 70
   192
  0
VERTEX
  5
92B
  8
0
 10
19.25
 20
-214.2783050537109
 30
-8.5
 70
   192
  0
VERTEX
  5
92C
  8
0
 10
19.5802173614502
 20
-213.2240447998047
 30
-8.5
 70
   192
  0
VERTEX
  5
92D
  8
0
 10
18.79127883911133
 20
-216.0393676757812
 30
-8.5
 70
   192
  0
VERTEX
  5
92E
  8
0
 10
19.13475799560547
 20
-216.4615478515625
 30
-8.5
 70
   192
  0
VERTEX
  5
92F
  8
0
 10
20.0927906036377
 20
-213.0419006347656
 30
-8.5
 70
   192
  0
VERTEX
  5
930
  8
0
 10
19.13475799560547
 20
-213.5384521484375
 30
-8.5
 70
   192
  0
VERTEX
  5
931
  8
0
 10
18.79127883911133
 20
-213.9606323242188
 30
-8.5
 70
   192
  0
VERTEX
  5
932
  8
0
 10
18.5
 20
-215.0
 30
-8.5
 70
   192
  0
VERTEX
  5
933
  8
0
 10
20.63698196411133
 20
-213.0046997070312
 30
-8.5
 70
   192
  0
VERTEX
  5
934
  8
0
 10
22.48129653930664
 20
-214.7271270751953
 30
-8.5
 70
   192
  0
VERTEX
  5
935
  8
0
 10
18.57415008544922
 20
-215.5395355224609
 30
-8.5
 70
   192
  0
VERTEX
  5
936
  8
0
 10
21.6538143157959
 20
-216.6336212158203
 30
-8.5
 70
   192
  0
VERTEX
  5
937
  8
0
 10
22.05111503601074
 20
-216.2625579833984
 30
-8.5
 70
   192
  0
VERTEX
  5
938
  8
0
 10
20.0927906036377
 20
-216.9580993652344
 30
-8.5
 70
   192
  0
VERTEX
  5
939
  8
0
 10
19.5802173614502
 20
-216.7759552001953
 30
-8.5
 70
   192
  0
VERTEX
  5
93A
  8
0
 10
20.63698196411133
 20
-216.9953002929688
 30
-8.5
 70
   192
  0
VERTEX
  5
93B
  8
0
 10
21.16937637329102
 20
-216.8846588134766
 30
-8.5
 70
   192
  0
VERTEX
  5
93C
  8
0
 10
22.48129653930664
 20
-215.2728729248047
 30
-8.5
 70
   192
  0
VERTEX
  5
93D
  8
0
 10
22.05111503601074
 20
-213.7374420166016
 30
-8.5
 70
   192
  0
VERTEX
  5
93E
  8
0
 10
22.33464813232422
 20
-214.2037200927734
 30
-8.5
 70
   192
  0
VERTEX
  5
93F
  8
0
 10
21.6538143157959
 20
-213.3663787841797
 30
-8.5
 70
   192
  0
VERTEX
  5
940
  8
0
 10
18.57415008544922
 20
-214.4604644775391
 30
-8.5
 70
   192
  0
VERTEX
  5
941
  8
0
 10
21.16937637329102
 20
-213.1153411865234
 30
-8.5
 70
   192
  0
VERTEX
  5
942
  8
0
 10
22.33464813232422
 20
-215.7962799072266
 30
-8.5
 70
   192
  0
VERTEX
  5
943
  8
0
 62
   123
 10
0.0
 20
0.0
 30
0.0
 70
   128
 71
     3
 72
     2
 73
     1
  0
VERTEX
  5
944
  8
0
 62
   123
 10
0.0
 20
0.0
 30
0.0
 70
   128
 71
     5
 72
     4
 73
     1
  0
VERTEX
  5
945
  8
0
 62
   123
 10
0.0
 20
0.0
 30
0.0
 70
   128
 71
     1
 72
     2
 73
     5
  0
VERTEX
  5
946
  8
0
 62
   123
 10
0.0
 20
0.0
 30
0.0
 70
   128
 71
     6
 72
     2
 73
     3
  0
VERTEX
  5
947
  8
0
 62
   123
 10
0.0
 20
0.0
 30
0.0
 70
   128
 71
     4
 72
     8
 73
     7
  0
VERTEX
  5
948
  8
0
 62
   123
 10
0.0
 20
0.0
 30
0.0
 70
   128
 71
     7
 72
     1
 73
     4
  0
VERTEX
  5
949
  8
0
 62
   123
 10
0.0
 20
0.0
 30
0.0
 70
   128
 71
     2
 72
    10
 73
     9
  0
VERTEX
  5
94A
  8
0
 62
   123
 10
0.0
 20
0.0
 30
0.0
 70
   128
 71
     9
 72
     5
 73
     2
  0
VERTEX
  5
94B
  8
0
 62
   123
 10
0.0
 20
0.0
 30
0.0
 70
   128
 71
     6
 72
    11
 73
    10
  0
VERTEX
  5
94C
  8
0
 62
   123
 10
0.0
 20
0.0
 30
0.0
 70
   128
 71
    10
 72
     2
 73
     6
  0
VERTEX
  5
94D
  8
0
 62
   123
 10
0.0
 20
0.0
 30
0.0
 70
   128
 71
     3
 72
    12
 73
    11
  0
VERTEX
  5
94E
  8
0
 62
   123
 10
0.0
 20
0.0
 30
0.0
 70
   128
 71
    11
 72
     6
 73
     3
  0
VERTEX
  5
94F
  8
0
 62
   123
 10
0.0
 20
0.0
 30
0.0
 70
   128
 71
     1
 72
     7
 73
    12
  0
VERTEX
  5
950
  8
0
 62
   123
 10
0.0
 20
0.0
 30
0.0
 70
   128
 71
    12
 72
     3
 73
     1
  0
VERTEX
  5
951
  8
0
 62
   123
 10
0.0
 20
0.0
 30
0.0
 70
   128
 71
    12
 72
     7
 73
    13
  0
VERTEX
  5
952
  8
0
 62
   123
 10
0.0
 20
0.0
 30
0.0
 70
   128
 71
    15
 72
    11
 73
    14
  0
VERTEX
  5
953
  8
0
 62
   123
 10
0.0
 20
0.0
 30
0.0
 70
   128
 71
    16
 72
    13
 73
     7
  0
VERTEX
  5
954
  8
0
 62
   123
 10
0.0
 20
0.0
 30
0.0
 70
   128
 71
    12
 72
    13
 73
    17
  0
VERTEX
  5
955
  8
0
 62
   123
 10
0.0
 20
0.0
 30
0.0
 70
   128
 71
    17
 72
    18
 73
    12
  0
VERTEX
  5
956
  8
0
 62
   123
 10
0.0
 20
0.0
 30
0.0
 70
   128
 71
    11
 72
    12
 73
    19
  0
VERTEX
  5
957
  8
0
 62
   123
 10
0.0
 20
0.0
 30
0.0
 70
   128
 71
    16
 72
     7
 73
    20
  0
VERTEX
  5
958
  8
0
 62
   123
 10
0.0
 20
0.0
 30
0.0
 70
   128
 71
    21
 72
     8
 73
     9
  0
VERTEX
  5
959
  8
0
 62
   123
 10
0.0
 20
0.0
 30
0.0
 70
   128
 71
    11
 72
    22
 73
    14
  0
VERTEX
  5
95A
  8
0
 62
   123
 10
0.0
 20
0.0
 30
0.0
 70
   128
 71
    24
 72
     9
 73
    23
  0
VERTEX
  5
95B
  8
0
 62
   123
 10
0.0
 20
0.0
 30
0.0
 70
   128
 71
    26
 72
    25
 73
    10
  0
VERTEX
  5
95C
  8
0
 62
   123
 10
0.0
 20
0.0
 30
0.0
 70
   128
 71
     9
 72
    10
 73
    23
  0
VERTEX
  5
95D
  8
0
 62
   123
 10
0.0
 20
0.0
 30
0.0
 70
   128
 71
    10
 72
    25
 73
    27
  0
VERTEX
  5
95E
  8
0
 62
   123
 10
0.0
 20
0.0
 30
0.0
 70
   128
 71
    28
 72
    10
 73
    27
  0
VERTEX
  5
95F
  8
0
 62
   123
 10
0.0
 20
0.0
 30
0.0
 70
   128
 71
    21
 72
     9
 73
    29
  0
VERTEX
  5
960
  8
0
 62
   123
 10
0.0
 20
0.0
 30
0.0
 70
   128
 71
     8
 72
    31
 73
    30
  0
VERTEX
  5
961
  8
0
 62
   123
 10
0.0
 20
0.0
 30
0.0
 70
   128
 71
    26
 72
    10
 73
    11
  0
VERTEX
  5
962
  8
0
 62
   123
 10
0.0
 20
0.0
 30
0.0
 70
   128
 71
    32
 72
     8
 73
    30
  0
VERTEX
  5
963
  8
0
 62
   123
 10
0.0
 20
0.0
 30
0.0
 70
   128
 71
    19
 72
    12
 73
    33
  0
VERTEX
  5
964
  8
0
 62
   123
 10
0.0
 20
0.0
 30
0.0
 70
   128
 71
    11
 72
    19
 73
    22
  0
VERTEX
  5
965
  8
0
 62
   123
 10
0.0
 20
0.0
 30
0.0
 70
   128
 71
     7
 72
    34
 73
    20
  0
VERTEX
  5
966
  8
0
 62
   123
 10
0.0
 20
0.0
 30
0.0
 70
   128
 71
    32
 72
    34
 73
     7
  0
VERTEX
  5
967
  8
0
 62
   123
 10
0.0
 20
0.0
 30
0.0
 70
   128
 71
    33
 72
    12
 73
    18
  0
VERTEX
  5
968
  8
0
 62
   123
 10
0.0
 20
0.0
 30
0.0
 70
   128
 71
    11
 72
    15
 73
    26
  0
VERTEX
  5
969
  8
0
 62
   123
 10
0.0
 20
0.0
 30
0.0
 70
   128
 71
    10
 72
    28
 73
    23
  0
VERTEX
  5
96A
  8
0
 62
   123
 10
0.0
 20
0.0
 30
0.0
 70
   128
 71
     9
 72
    35
 73
    29
  0
VERTEX
  5
96B
  8
0
 62
   123
 10
0.0
 20
0.0
 30
0.0
 70
   128
 71
    35
 72
     9
 73
    24
  0
VERTEX
  5
96C
  8
0
 62
   123
 10
0.0
 20
0.0
 30
0.0
 70
   128
 71
    32
 72
     7
 73
     8
  0
VERTEX
  5
96D
  8
0
 62
   123
 10
0.0
 20
0.0
 30
0.0
 70
   128
 71
    31
 72
     8
 73
    21
  0
SEQEND
  5
96E
  8
0
 62
   123
  0
ENDBLK
  5
971
  8
0
  0
BLOCK
  8
0
  2
____MSBR_7_
 70
     0
 10
0.0
 20
0.0
 30
0.0
  3
____MSBR_7_
  1

  0
POLYLINE
  5
973
  8
0
 62
   123
 66
     1
 10
0.0
 20
0.0
 30
0.0
 70
    64
 71
    48
 72
    70
  0
VERTEX
  5
974
  8
0
 10
84.5
 20
-206.0
 30
0.0000023966640583
 70
   192
  0
VERTEX
  5
975
  8
0
 10
82.5
 20
-206.0
 30
0.0000023966640583
 70
   192
  0
VERTEX
  5
976
  8
0
 10
82.5
 20
-206.4864807128906
 30
2.918921232223511
 70
   192
  0
VERTEX
  5
977
  8
0
 10
82.5
 20
-207.8000030517578
 30
5.400002479553223
 70
   192
  0
VERTEX
  5
978
  8
0
 10
84.5
 20
-206.3068084716797
 30
2.320974349975586
 70
   192
  0
VERTEX
  5
979
  8
0
 10
82.5
 20
-209.6000061035156
 30
7.200002193450928
 70
   192
  0
VERTEX
  5
97A
  8
0
 10
84.5
 20
-207.1975555419922
 30
4.482396125793457
 70
   192
  0
VERTEX
  5
97B
  8
0
 10
84.5
 20
-208.6239318847656
 30
6.34654426574707
 70
   192
  0
VERTEX
  5
97C
  8
0
 10
82.5
 20
-211.5384674072266
 30
8.307694435119629
 70
   192
  0
VERTEX
  5
97D
  8
0
 10
82.5
 20
-213.3770446777344
 30
8.852461814880371
 70
   192
  0
VERTEX
  5
97E
  8
0
 10
84.5
 20
-210.4945220947266
 30
7.791444301605225
 70
   192
  0
VERTEX
  5
97F
  8
0
 10
82.5
 20
-215.0
 30
9.00000286102295
 70
   192
  0
VERTEX
  5
980
  8
0
 10
84.5
 20
-212.6590881347656
 30
8.689482688903809
 70
   192
  0
VERTEX
  5
981
  8
0
 10
84.5
 20
-215.0
 30
9.00000286102295
 70
   192
  0
VERTEX
  5
982
  8
0
 10
84.5
 20
-206.3105163574219
 30
-2.34091329574585
 70
   192
  0
VERTEX
  5
983
  8
0
 10
84.5
 20
-207.2085571289062
 30
-4.505470275878906
 70
   192
  0
VERTEX
  5
984
  8
0
 10
82.5
 20
-206.4864807128906
 30
-2.918916463851929
 70
   192
  0
VERTEX
  5
985
  8
0
 10
82.5
 20
-207.8000030517578
 30
-5.399997711181641
 70
   192
  0
VERTEX
  5
986
  8
0
 10
84.5
 20
-208.6534576416016
 30
-6.376063823699951
 70
   192
  0
VERTEX
  5
987
  8
0
 10
84.5
 20
-210.5176086425781
 30
-7.802448272705078
 70
   192
  0
VERTEX
  5
988
  8
0
 10
82.5
 20
-209.6000061035156
 30
-7.199997425079346
 70
   192
  0
VERTEX
  5
989
  8
0
 10
84.5
 20
-212.6590881347656
 30
-8.689477920532227
 70
   192
  0
VERTEX
  5
98A
  8
0
 10
82.5
 20
-211.5384674072266
 30
-8.307689666748047
 70
   192
  0
VERTEX
  5
98B
  8
0
 10
82.5
 20
-213.3770446777344
 30
-8.852457046508789
 70
   192
  0
VERTEX
  5
98C
  8
0
 10
84.5
 20
-215.0
 30
-8.99999713897705
 70
   192
  0
VERTEX
  5
98D
  8
0
 10
82.5
 20
-215.0
 30
-8.99999713897705
 70
   192
  0
VERTEX
  5
98E
  8
0
 10
84.5
 20
-222.1999969482422
 30
-5.399997711181641
 70
   192
  0
VERTEX
  5
98F
  8
0
 10
84.5
 20
-220.3999938964844
 30
-7.199997425079346
 70
   192
  0
VERTEX
  5
990
  8
0
 10
84.5
 20
-218.4615325927734
 30
-8.307689666748047
 70
   192
  0
VERTEX
  5
991
  8
0
 10
84.5
 20
-224.0
 30
0.0000023966640583
 70
   192
  0
VERTEX
  5
992
  8
0
 10
84.5
 20
-216.6229553222656
 30
8.852461814880371
 70
   192
  0
VERTEX
  5
993
  8
0
 10
84.5
 20
-223.5135192871094
 30
-2.918916463851929
 70
   192
  0
VERTEX
  5
994
  8
0
 10
84.5
 20
-218.4615325927734
 30
8.307694435119629
 70
   192
  0
VERTEX
  5
995
  8
0
 10
84.5
 20
-220.3999938964844
 30
7.200002193450928
 70
   192
  0
VERTEX
  5
996
  8
0
 10
84.5
 20
-222.1999969482422
 30
5.400002479553223
 70
   192
  0
VERTEX
  5
997
  8
0
 10
84.5
 20
-223.5135192871094
 30
2.918921232223511
 70
   192
  0
VERTEX
  5
998
  8
0
 10
84.5
 20
-216.6229553222656
 30
-8.852457046508789
 70
   192
  0
VERTEX
  5
999
  8
0
 10
82.5
 20
-216.6229553222656
 30
8.852461814880371
 70
   192
  0
VERTEX
  5
99A
  8
0
 10
82.5
 20
-222.1999969482422
 30
5.400002479553223
 70
   192
  0
VERTEX
  5
99B
  8
0
 10
82.5
 20
-220.3999938964844
 30
7.200002193450928
 70
   192
  0
VERTEX
  5
99C
  8
0
 10
82.5
 20
-218.4615325927734
 30
8.307694435119629
 70
   192
  0
VERTEX
  5
99D
  8
0
 10
82.5
 20
-224.0
 30
0.0000023966640583
 70
   192
  0
VERTEX
  5
99E
  8
0
 10
82.5
 20
-223.5135192871094
 30
-2.918916463851929
 70
   192
  0
VERTEX
  5
99F
  8
0
 10
82.5
 20
-223.5135192871094
 30
2.918921232223511
 70
   192
  0
VERTEX
  5
9A0
  8
0
 10
82.5
 20
-220.3999938964844
 30
-7.199997425079346
 70
   192
  0
VERTEX
  5
9A1
  8
0
 10
82.5
 20
-218.4615325927734
 30
-8.307689666748047
 70
   192
  0
VERTEX
  5
9A2
  8
0
 10
82.5
 20
-222.1999969482422
 30
-5.399997711181641
 70
   192
  0
VERTEX
  5
9A3
  8
0
 10
82.5
 20
-216.6229553222656
 30
-8.852457046508789
 70
   192
  0
VERTEX
  5
9A4
  8
0
 62
   123
 10
0.0
 20
0.0
 30
0.0
 70
   128
 71
     3
 72
     2
 73
     1
  0
VERTEX
  5
9A5
  8
0
 62
   123
 10
0.0
 20
0.0
 30
0.0
 70
   128
 71
     3
 72
     5
 73
     4
  0
VERTEX
  5
9A6
  8
0
 62
   123
 10
0.0
 20
0.0
 30
0.0
 70
   128
 71
     5
 72
     3
 73
     1
  0
VERTEX
  5
9A7
  8
0
 62
   123
 10
0.0
 20
0.0
 30
0.0
 70
   128
 71
     7
 72
     6
 73
     4
  0
VERTEX
  5
9A8
  8
0
 62
   123
 10
0.0
 20
0.0
 30
0.0
 70
   128
 71
     4
 72
     5
 73
     7
  0
VERTEX
  5
9A9
  8
0
 62
   123
 10
0.0
 20
0.0
 30
0.0
 70
   128
 71
     9
 72
     6
 73
     8
  0
VERTEX
  5
9AA
  8
0
 62
   123
 10
0.0
 20
0.0
 30
0.0
 70
   128
 71
     7
 72
     8
 73
     6
  0
VERTEX
  5
9AB
  8
0
 62
   123
 10
0.0
 20
0.0
 30
0.0
 70
   128
 71
     9
 72
    11
 73
    10
  0
VERTEX
  5
9AC
  8
0
 62
   123
 10
0.0
 20
0.0
 30
0.0
 70
   128
 71
    11
 72
     9
 73
     8
  0
VERTEX
  5
9AD
  8
0
 62
   123
 10
0.0
 20
0.0
 30
0.0
 70
   128
 71
    13
 72
    12
 73
    10
  0
VERTEX
  5
9AE
  8
0
 62
   123
 10
0.0
 20
0.0
 30
0.0
 70
   128
 71
    10
 72
    11
 73
    13
  0
VERTEX
  5
9AF
  8
0
 62
   123
 10
0.0
 20
0.0
 30
0.0
 70
   128
 71
    13
 72
    14
 73
    12
  0
VERTEX
  5
9B0
  8
0
 62
   123
 10
0.0
 20
0.0
 30
0.0
 70
   128
 71
     1
 72
     2
 73
    15
  0
VERTEX
  5
9B1
  8
0
 62
   123
 10
0.0
 20
0.0
 30
0.0
 70
   128
 71
    17
 72
    16
 73
    15
  0
VERTEX
  5
9B2
  8
0
 62
   123
 10
0.0
 20
0.0
 30
0.0
 70
   128
 71
    15
 72
     2
 73
    17
  0
VERTEX
  5
9B3
  8
0
 62
   123
 10
0.0
 20
0.0
 30
0.0
 70
   128
 71
    19
 72
    16
 73
    18
  0
VERTEX
  5
9B4
  8
0
 62
   123
 10
0.0
 20
0.0
 30
0.0
 70
   128
 71
    17
 72
    18
 73
    16
  0
VERTEX
  5
9B5
  8
0
 62
   123
 10
0.0
 20
0.0
 30
0.0
 70
   128
 71
    19
 72
    21
 73
    20
  0
VERTEX
  5
9B6
  8
0
 62
   123
 10
0.0
 20
0.0
 30
0.0
 70
   128
 71
    21
 72
    19
 73
    18
  0
VERTEX
  5
9B7
  8
0
 62
   123
 10
0.0
 20
0.0
 30
0.0
 70
   128
 71
    23
 72
    22
 73
    20
  0
VERTEX
  5
9B8
  8
0
 62
   123
 10
0.0
 20
0.0
 30
0.0
 70
   128
 71
    20
 72
    21
 73
    23
  0
VERTEX
  5
9B9
  8
0
 62
   123
 10
0.0
 20
0.0
 30
0.0
 70
   128
 71
    25
 72
    22
 73
    24
  0
VERTEX
  5
9BA
  8
0
 62
   123
 10
0.0
 20
0.0
 30
0.0
 70
   128
 71
    23
 72
    24
 73
    22
  0
VERTEX
  5
9BB
  8
0
 62
   123
 10
0.0
 20
0.0
 30
0.0
 70
   128
 71
    26
 72
    25
 73
    24
  0
VERTEX
  5
9BC
  8
0
 62
   123
 10
0.0
 20
0.0
 30
0.0
 70
   128
 71
    19
 72
    20
 73
    22
  0
VERTEX
  5
9BD
  8
0
 62
   123
 10
0.0
 20
0.0
 30
0.0
 70
   128
 71
    11
 72
     8
 73
    27
  0
VERTEX
  5
9BE
  8
0
 62
   123
 10
0.0
 20
0.0
 30
0.0
 70
   128
 71
    19
 72
    15
 73
    16
  0
VERTEX
  5
9BF
  8
0
 62
   123
 10
0.0
 20
0.0
 30
0.0
 70
   128
 71
    15
 72
    19
 73
    22
  0
VERTEX
  5
9C0
  8
0
 62
   123
 10
0.0
 20
0.0
 30
0.0
 70
   128
 71
     1
 72
    15
 73
    22
  0
VERTEX
  5
9C1
  8
0
 62
   123
 10
0.0
 20
0.0
 30
0.0
 70
   128
 71
     5
 72
     1
 73
    25
  0
VERTEX
  5
9C2
  8
0
 62
   123
 10
0.0
 20
0.0
 30
0.0
 70
   128
 71
    22
 72
    25
 73
     1
  0
VERTEX
  5
9C3
  8
0
 62
   123
 10
0.0
 20
0.0
 30
0.0
 70
   128
 71
    28
 72
    27
 73
     8
  0
VERTEX
  5
9C4
  8
0
 62
   123
 10
0.0
 20
0.0
 30
0.0
 70
   128
 71
     7
 72
    29
 73
    28
  0
VERTEX
  5
9C5
  8
0
 62
   123
 10
0.0
 20
0.0
 30
0.0
 70
   128
 71
    31
 72
    14
 73
    30
  0
VERTEX
  5
9C6
  8
0
 62
   123
 10
0.0
 20
0.0
 30
0.0
 70
   128
 71
    32
 72
    14
 73
    13
  0
VERTEX
  5
9C7
  8
0
 62
   123
 10
0.0
 20
0.0
 30
0.0
 70
   128
 71
    31
 72
    34
 73
    33
  0
VERTEX
  5
9C8
  8
0
 62
   123
 10
0.0
 20
0.0
 30
0.0
 70
   128
 71
    34
 72
    36
 73
    35
  0
VERTEX
  5
9C9
  8
0
 62
   123
 10
0.0
 20
0.0
 30
0.0
 70
   128
 71
    36
 72
    34
 73
    31
  0
VERTEX
  5
9CA
  8
0
 62
   123
 10
0.0
 20
0.0
 30
0.0
 70
   128
 71
    32
 72
    30
 73
    14
  0
VERTEX
  5
9CB
  8
0
 62
   123
 10
0.0
 20
0.0
 30
0.0
 70
   128
 71
    31
 72
    30
 73
    36
  0
VERTEX
  5
9CC
  8
0
 62
   123
 10
0.0
 20
0.0
 30
0.0
 70
   128
 71
    13
 72
    11
 73
    27
  0
VERTEX
  5
9CD
  8
0
 62
   123
 10
0.0
 20
0.0
 30
0.0
 70
   128
 71
    13
 72
    27
 73
    32
  0
VERTEX
  5
9CE
  8
0
 62
   123
 10
0.0
 20
0.0
 30
0.0
 70
   128
 71
     7
 72
    28
 73
     8
  0
VERTEX
  5
9CF
  8
0
 62
   123
 10
0.0
 20
0.0
 30
0.0
 70
   128
 71
     7
 72
    37
 73
    29
  0
VERTEX
  5
9D0
  8
0
 62
   123
 10
0.0
 20
0.0
 30
0.0
 70
   128
 71
    37
 72
     5
 73
    25
  0
VERTEX
  5
9D1
  8
0
 62
   123
 10
0.0
 20
0.0
 30
0.0
 70
   128
 71
     7
 72
     5
 73
    37
  0
VERTEX
  5
9D2
  8
0
 62
   123
 10
0.0
 20
0.0
 30
0.0
 70
   128
 71
    12
 72
    14
 73
    38
  0
VERTEX
  5
9D3
  8
0
 62
   123
 10
0.0
 20
0.0
 30
0.0
 70
   128
 71
    40
 72
    34
 73
    39
  0
VERTEX
  5
9D4
  8
0
 62
   123
 10
0.0
 20
0.0
 30
0.0
 70
   128
 71
    31
 72
    33
 73
    41
  0
VERTEX
  5
9D5
  8
0
 62
   123
 10
0.0
 20
0.0
 30
0.0
 70
   128
 71
    43
 72
    42
 73
    30
  0
VERTEX
  5
9D6
  8
0
 62
   123
 10
0.0
 20
0.0
 30
0.0
 70
   128
 71
    36
 72
    44
 73
    35
  0
VERTEX
  5
9D7
  8
0
 62
   123
 10
0.0
 20
0.0
 30
0.0
 70
   128
 71
    28
 72
    46
 73
    45
  0
VERTEX
  5
9D8
  8
0
 62
   123
 10
0.0
 20
0.0
 30
0.0
 70
   128
 71
    32
 72
    27
 73
    47
  0
VERTEX
  5
9D9
  8
0
 62
   123
 10
0.0
 20
0.0
 30
0.0
 70
   128
 71
    48
 72
    46
 73
    29
  0
VERTEX
  5
9DA
  8
0
 62
   123
 10
0.0
 20
0.0
 30
0.0
 70
   128
 71
    28
 72
    29
 73
    46
  0
VERTEX
  5
9DB
  8
0
 62
   123
 10
0.0
 20
0.0
 30
0.0
 70
   128
 71
    48
 72
    37
 73
    26
  0
VERTEX
  5
9DC
  8
0
 62
   123
 10
0.0
 20
0.0
 30
0.0
 70
   128
 71
    37
 72
    48
 73
    29
  0
VERTEX
  5
9DD
  8
0
 62
   123
 10
0.0
 20
0.0
 30
0.0
 70
   128
 71
    26
 72
    37
 73
    25
  0
VERTEX
  5
9DE
  8
0
 62
   123
 10
0.0
 20
0.0
 30
0.0
 70
   128
 71
    27
 72
    45
 73
    47
  0
VERTEX
  5
9DF
  8
0
 62
   123
 10
0.0
 20
0.0
 30
0.0
 70
   128
 71
    27
 72
    28
 73
    45
  0
VERTEX
  5
9E0
  8
0
 62
   123
 10
0.0
 20
0.0
 30
0.0
 70
   128
 71
    32
 72
    43
 73
    30
  0
VERTEX
  5
9E1
  8
0
 62
   123
 10
0.0
 20
0.0
 30
0.0
 70
   128
 71
    32
 72
    47
 73
    43
  0
VERTEX
  5
9E2
  8
0
 62
   123
 10
0.0
 20
0.0
 30
0.0
 70
   128
 71
    42
 72
    44
 73
    36
  0
VERTEX
  5
9E3
  8
0
 62
   123
 10
0.0
 20
0.0
 30
0.0
 70
   128
 71
    30
 72
    42
 73
    36
  0
VERTEX
  5
9E4
  8
0
 62
   123
 10
0.0
 20
0.0
 30
0.0
 70
   128
 71
    39
 72
    34
 73
    35
  0
VERTEX
  5
9E5
  8
0
 62
   123
 10
0.0
 20
0.0
 30
0.0
 70
   128
 71
    44
 72
    39
 73
    35
  0
VERTEX
  5
9E6
  8
0
 62
   123
 10
0.0
 20
0.0
 30
0.0
 70
   128
 71
    41
 72
    33
 73
    40
  0
VERTEX
  5
9E7
  8
0
 62
   123
 10
0.0
 20
0.0
 30
0.0
 70
   128
 71
    40
 72
    33
 73
    34
  0
VERTEX
  5
9E8
  8
0
 62
   123
 10
0.0
 20
0.0
 30
0.0
 70
   128
 71
    14
 72
    31
 73
    38
  0
VERTEX
  5
9E9
  8
0
 62
   123
 10
0.0
 20
0.0
 30
0.0
 70
   128
 71
    38
 72
    31
 73
    41
  0
SEQEND
  5
9EA
  8
0
 62
   123
  0
ENDBLK
  5
9ED
  8
0
  0
BLOCK
  8
0
  2
____MSBR_8_
 70
     0
 10
0.0
 20
0.0
 30
0.0
  3
____MSBR_8_
  1

  0
POLYLINE
  5
9EF
  8
0
 62
   123
 66
     1
 10
0.0
 20
0.0
 30
0.0
 70
    64
 71
    60
 72
    64
  0
VERTEX
  5
9F0
  8
0
 10
75.27497863769531
 20
-206.0000152587891
 30
-0.0144866798073053
 70
   192
  0
VERTEX
  5
9F1
  8
0
 10
82.5
 20
-206.2195129394531
 30
-1.975607395172119
 70
   192
  0
VERTEX
  5
9F2
  8
0
 10
74.47045135498047
 20
-206.4938659667969
 30
-2.940371751785278
 70
   192
  0
VERTEX
  5
9F3
  8
0
 10
74.48654174804688
 20
-206.4844512939453
 30
2.912998676300049
 70
   192
  0
VERTEX
  5
9F4
  8
0
 10
82.5
 20
-206.2195129394531
 30
1.975612163543701
 70
   192
  0
VERTEX
  5
9F5
  8
0
 10
64.52489471435547
 20
-206.4911499023438
 30
2.932487726211548
 70
   192
  0
VERTEX
  5
9F6
  8
0
 10
12.5
 20
-207.8000030517578
 30
5.400002479553223
 70
   192
  0
VERTEX
  5
9F7
  8
0
 10
66.6051025390625
 20
-207.5147399902344
 30
4.997098445892334
 70
   192
  0
VERTEX
  5
9F8
  8
0
 10
82.5
 20
-207.8000030517578
 30
5.400002479553223
 70
   192
  0
VERTEX
  5
9F9
  8
0
 10
69.5154037475586
 20
-208.0971374511719
 30
5.77498197555542
 70
   192
  0
VERTEX
  5
9FA
  8
0
 10
82.5
 20
-210.2452850341797
 30
7.641511917114258
 70
   192
  0
VERTEX
  5
9FB
  8
0
 10
72.41615295410156
 20
-207.5065002441406
 30
4.984723091125488
 70
   192
  0
VERTEX
  5
9FC
  8
0
 10
12.5
 20
-212.7846221923828
 30
8.723079681396484
 70
   192
  0
VERTEX
  5
9FD
  8
0
 10
82.5
 20
-212.7846221923828
 30
8.723079681396484
 70
   192
  0
VERTEX
  5
9FE
  8
0
 10
12.5
 20
-210.2452850341797
 30
7.641511917114258
 70
   192
  0
VERTEX
  5
9FF
  8
0
 10
12.5
 20
-215.0
 30
9.00000286102295
 70
   192
  0
VERTEX
  5
A00
  8
0
 10
82.5
 20
-215.0
 30
9.00000286102295
 70
   192
  0
VERTEX
  5
A01
  8
0
 10
63.72499847412109
 20
-206.0
 30
0.0000023966640583
 70
   192
  0
VERTEX
  5
A02
  8
0
 10
12.5
 20
-206.2195129394531
 30
-1.975607395172119
 70
   192
  0
VERTEX
  5
A03
  8
0
 10
12.5
 20
-206.2195129394531
 30
1.975612163543701
 70
   192
  0
VERTEX
  5
A04
  8
0
 10
64.51812744140625
 20
-206.4871826171875
 30
-2.920965671539307
 70
   192
  0
VERTEX
  5
A05
  8
0
 10
12.5
 20
-207.8000030517578
 30
-5.399997711181641
 70
   192
  0
VERTEX
  5
A06
  8
0
 10
12.5
 20
-210.2452850341797
 30
-7.641507148742676
 70
   192
  0
VERTEX
  5
A07
  8
0
 10
69.48460388183594
 20
-208.0971374511719
 30
-5.774977207183838
 70
   192
  0
VERTEX
  5
A08
  8
0
 10
66.5877456665039
 20
-207.5080108642578
 30
-4.986995697021484
 70
   192
  0
VERTEX
  5
A09
  8
0
 10
82.5
 20
-212.7846221923828
 30
-8.723074913024902
 70
   192
  0
VERTEX
  5
A0A
  8
0
 10
21.34444427490234
 20
-213.1333312988281
 30
-8.49999713897705
 70
   192
  0
VERTEX
  5
A0B
  8
0
 10
20.5
 20
-213.0
 30
-8.49999713897705
 70
   192
  0
VERTEX
  5
A0C
  8
0
 10
82.5
 20
-210.2452850341797
 30
-7.641507148742676
 70
   192
  0
VERTEX
  5
A0D
  8
0
 10
23.0
 20
-215.0
 30
-8.99999713897705
 70
   192
  0
VERTEX
  5
A0E
  8
0
 10
22.01111030578613
 20
-213.8000030517578
 30
-8.49999713897705
 70
   192
  0
VERTEX
  5
A0F
  8
0
 10
82.5
 20
-215.0
 30
-8.99999713897705
 70
   192
  0
VERTEX
  5
A10
  8
0
 10
19.65555572509766
 20
-213.1333312988281
 30
-8.49999713897705
 70
   192
  0
VERTEX
  5
A11
  8
0
 10
18.98888969421387
 20
-213.8000030517578
 30
-8.49999713897705
 70
   192
  0
VERTEX
  5
A12
  8
0
 10
12.5
 20
-212.7846221923828
 30
-8.723074913024902
 70
   192
  0
VERTEX
  5
A13
  8
0
 10
12.5
 20
-215.0
 30
-8.99999713897705
 70
   192
  0
VERTEX
  5
A14
  8
0
 10
18.0
 20
-215.0
 30
-8.99999713897705
 70
   192
  0
VERTEX
  5
A15
  8
0
 10
72.39099884033203
 20
-207.5162506103516
 30
-4.999350547790527
 70
   192
  0
VERTEX
  5
A16
  8
0
 10
82.5
 20
-207.8000030517578
 30
-5.399997711181641
 70
   192
  0
VERTEX
  5
A17
  8
0
 10
12.5
 20
-217.2153778076172
 30
8.723079681396484
 70
   192
  0
VERTEX
  5
A18
  8
0
 10
12.5
 20
-223.7804870605469
 30
1.975612163543701
 70
   192
  0
VERTEX
  5
A19
  8
0
 10
82.5
 20
-222.1999969482422
 30
5.400002479553223
 70
   192
  0
VERTEX
  5
A1A
  8
0
 10
12.5
 20
-222.1999969482422
 30
5.400002479553223
 70
   192
  0
VERTEX
  5
A1B
  8
0
 10
12.5
 20
-219.7547149658203
 30
7.641511917114258
 70
   192
  0
VERTEX
  5
A1C
  8
0
 10
82.5
 20
-219.7547149658203
 30
7.641511917114258
 70
   192
  0
VERTEX
  5
A1D
  8
0
 10
82.5
 20
-217.2153778076172
 30
8.723079681396484
 70
   192
  0
VERTEX
  5
A1E
  8
0
 10
82.5
 20
-222.1999969482422
 30
-5.399997711181641
 70
   192
  0
VERTEX
  5
A1F
  8
0
 10
12.5
 20
-222.1999969482422
 30
-5.399997711181641
 70
   192
  0
VERTEX
  5
A20
  8
0
 10
12.5
 20
-219.7547149658203
 30
-7.641507148742676
 70
   192
  0
VERTEX
  5
A21
  8
0
 10
82.5
 20
-223.7804870605469
 30
1.975612163543701
 70
   192
  0
VERTEX
  5
A22
  8
0
 10
12.5
 20
-223.7804870605469
 30
-1.975607395172119
 70
   192
  0
VERTEX
  5
A23
  8
0
 10
82.5
 20
-223.7804870605469
 30
-1.975607395172119
 70
   192
  0
VERTEX
  5
A24
  8
0
 10
12.5
 20
-217.2153778076172
 30
-8.723074913024902
 70
   192
  0
VERTEX
  5
A25
  8
0
 10
20.5
 20
-217.0
 30
-8.49999713897705
 70
   192
  0
VERTEX
  5
A26
  8
0
 10
82.5
 20
-219.7547149658203
 30
-7.641507148742676
 70
   192
  0
VERTEX
  5
A27
  8
0
 10
18.98888969421387
 20
-216.1999969482422
 30
-8.49999713897705
 70
   192
  0
VERTEX
  5
A28
  8
0
 10
19.65555572509766
 20
-216.8666687011719
 30
-8.49999713897705
 70
   192
  0
VERTEX
  5
A29
  8
0
 10
82.5
 20
-217.2153778076172
 30
-8.723074913024902
 70
   192
  0
VERTEX
  5
A2A
  8
0
 10
22.01111030578613
 20
-216.1999969482422
 30
-8.49999713897705
 70
   192
  0
VERTEX
  5
A2B
  8
0
 10
21.34444427490234
 20
-216.8666687011719
 30
-8.49999713897705
 70
   192
  0
VERTEX
  5
A2C
  8
0
 62
   123
 10
0.0
 20
0.0
 30
0.0
 70
   128
 71
     3
 72
     2
 73
     1
  0
VERTEX
  5
A2D
  8
0
 62
   123
 10
0.0
 20
0.0
 30
0.0
 70
   128
 71
     1
 72
     5
 73
     4
  0
VERTEX
  5
A2E
  8
0
 62
   123
 10
0.0
 20
0.0
 30
0.0
 70
   128
 71
     8
 72
     7
 73
     6
  0
VERTEX
  5
A2F
  8
0
 62
   123
 10
0.0
 20
0.0
 30
0.0
 70
   128
 71
    11
 72
    10
 73
     9
  0
VERTEX
  5
A30
  8
0
 62
   123
 10
0.0
 20
0.0
 30
0.0
 70
   128
 71
    12
 72
     9
 73
    10
  0
VERTEX
  5
A31
  8
0
 62
   123
 10
0.0
 20
0.0
 30
0.0
 70
   128
 71
    11
 72
    14
 73
    13
  0
VERTEX
  5
A32
  8
0
 62
   123
 10
0.0
 20
0.0
 30
0.0
 70
   128
 71
    13
 72
    15
 73
    11
  0
VERTEX
  5
A33
  8
0
 62
   123
 10
0.0
 20
0.0
 30
0.0
 70
   128
 71
    13
 72
    14
 73
    16
  0
VERTEX
  5
A34
  8
0
 62
   123
 10
0.0
 20
0.0
 30
0.0
 70
   128
 71
    14
 72
    17
 73
    16
  0
VERTEX
  5
A35
  8
0
 62
   123
 10
0.0
 20
0.0
 30
0.0
 70
   128
 71
    20
 72
    19
 73
    18
  0
VERTEX
  5
A36
  8
0
 62
   123
 10
0.0
 20
0.0
 30
0.0
 70
   128
 71
    22
 72
    21
 73
    19
  0
VERTEX
  5
A37
  8
0
 62
   123
 10
0.0
 20
0.0
 30
0.0
 70
   128
 71
    18
 72
    19
 73
    21
  0
VERTEX
  5
A38
  8
0
 62
   123
 10
0.0
 20
0.0
 30
0.0
 70
   128
 71
    24
 72
    22
 73
    23
  0
VERTEX
  5
A39
  8
0
 62
   123
 10
0.0
 20
0.0
 30
0.0
 70
   128
 71
    22
 72
    24
 73
    25
  0
VERTEX
  5
A3A
  8
0
 62
   123
 10
0.0
 20
0.0
 30
0.0
 70
   128
 71
    28
 72
    27
 73
    26
  0
VERTEX
  5
A3B
  8
0
 62
   123
 10
0.0
 20
0.0
 30
0.0
 70
   128
 71
    26
 72
    29
 73
    28
  0
VERTEX
  5
A3C
  8
0
 62
   123
 10
0.0
 20
0.0
 30
0.0
 70
   128
 71
    32
 72
    31
 73
    30
  0
VERTEX
  5
A3D
  8
0
 62
   123
 10
0.0
 20
0.0
 30
0.0
 70
   128
 71
    26
 72
    31
 73
    32
  0
VERTEX
  5
A3E
  8
0
 62
   123
 10
0.0
 20
0.0
 30
0.0
 70
   128
 71
    35
 72
    34
 73
    33
  0
VERTEX
  5
A3F
  8
0
 62
   123
 10
0.0
 20
0.0
 30
0.0
 70
   128
 71
    35
 72
    33
 73
    28
  0
VERTEX
  5
A40
  8
0
 62
   123
 10
0.0
 20
0.0
 30
0.0
 70
   128
 71
    27
 72
    31
 73
    26
  0
VERTEX
  5
A41
  8
0
 62
   123
 10
0.0
 20
0.0
 30
0.0
 70
   128
 71
    28
 72
    23
 73
    35
  0
VERTEX
  5
A42
  8
0
 62
   123
 10
0.0
 20
0.0
 30
0.0
 70
   128
 71
    23
 72
    28
 73
    29
  0
VERTEX
  5
A43
  8
0
 62
   123
 10
0.0
 20
0.0
 30
0.0
 70
   128
 71
    34
 72
    35
 73
    36
  0
VERTEX
  5
A44
  8
0
 62
   123
 10
0.0
 20
0.0
 30
0.0
 70
   128
 71
    37
 72
    34
 73
    36
  0
VERTEX
  5
A45
  8
0
 62
   123
 10
0.0
 20
0.0
 30
0.0
 70
   128
 71
    39
 72
     3
 73
    38
  0
VERTEX
  5
A46
  8
0
 62
   123
 10
0.0
 20
0.0
 30
0.0
 70
   128
 71
    25
 72
    21
 73
    22
  0
VERTEX
  5
A47
  8
0
 62
   123
 10
0.0
 20
0.0
 30
0.0
 70
   128
 71
    38
 72
    24
 73
    39
  0
VERTEX
  5
A48
  8
0
 62
   123
 10
0.0
 20
0.0
 30
0.0
 70
   128
 71
    24
 72
    29
 73
    39
  0
VERTEX
  5
A49
  8
0
 62
   123
 10
0.0
 20
0.0
 30
0.0
 70
   128
 71
    29
 72
    24
 73
    23
  0
VERTEX
  5
A4A
  8
0
 62
   123
 10
0.0
 20
0.0
 30
0.0
 70
   128
 71
     2
 72
     3
 73
    39
  0
VERTEX
  5
A4B
  8
0
 62
   123
 10
0.0
 20
0.0
 30
0.0
 70
   128
 71
     6
 72
    20
 73
    18
  0
VERTEX
  5
A4C
  8
0
 62
   123
 10
0.0
 20
0.0
 30
0.0
 70
   128
 71
     1
 72
     2
 73
     5
  0
VERTEX
  5
A4D
  8
0
 62
   123
 10
0.0
 20
0.0
 30
0.0
 70
   128
 71
     4
 72
     9
 73
    12
  0
VERTEX
  5
A4E
  8
0
 62
   123
 10
0.0
 20
0.0
 30
0.0
 70
   128
 71
     4
 72
     5
 73
     9
  0
VERTEX
  5
A4F
  8
0
 62
   123
 10
0.0
 20
0.0
 30
0.0
 70
   128
 71
     8
 72
    10
 73
     7
  0
VERTEX
  5
A50
  8
0
 62
   123
 10
0.0
 20
0.0
 30
0.0
 70
   128
 71
    10
 72
    15
 73
     7
  0
VERTEX
  5
A51
  8
0
 62
   123
 10
0.0
 20
0.0
 30
0.0
 70
   128
 71
    15
 72
    10
 73
    11
  0
VERTEX
  5
A52
  8
0
 62
   123
 10
0.0
 20
0.0
 30
0.0
 70
   128
 71
     6
 72
     7
 73
    20
  0
VERTEX
  5
A53
  8
0
 62
   123
 10
0.0
 20
0.0
 30
0.0
 70
   128
 71
    16
 72
    17
 73
    40
  0
VERTEX
  5
A54
  8
0
 62
   123
 10
0.0
 20
0.0
 30
0.0
 70
   128
 71
    43
 72
    42
 73
    41
  0
VERTEX
  5
A55
  8
0
 62
   123
 10
0.0
 20
0.0
 30
0.0
 70
   128
 71
    46
 72
    45
 73
    44
  0
VERTEX
  5
A56
  8
0
 62
   123
 10
0.0
 20
0.0
 30
0.0
 70
   128
 71
    49
 72
    48
 73
    47
  0
VERTEX
  5
A57
  8
0
 62
   123
 10
0.0
 20
0.0
 30
0.0
 70
   128
 71
    52
 72
    51
 73
    50
  0
VERTEX
  5
A58
  8
0
 62
   123
 10
0.0
 20
0.0
 30
0.0
 70
   128
 71
    49
 72
    54
 73
    53
  0
VERTEX
  5
A59
  8
0
 62
   123
 10
0.0
 20
0.0
 30
0.0
 70
   128
 71
    55
 72
    54
 73
    49
  0
VERTEX
  5
A5A
  8
0
 62
   123
 10
0.0
 20
0.0
 30
0.0
 70
   128
 71
    56
 72
    37
 73
    36
  0
VERTEX
  5
A5B
  8
0
 62
   123
 10
0.0
 20
0.0
 30
0.0
 70
   128
 71
    36
 72
    53
 73
    56
  0
VERTEX
  5
A5C
  8
0
 62
   123
 10
0.0
 20
0.0
 30
0.0
 70
   128
 71
    57
 72
    56
 73
    53
  0
VERTEX
  5
A5D
  8
0
 62
   123
 10
0.0
 20
0.0
 30
0.0
 70
   128
 71
    59
 72
    58
 73
    32
  0
VERTEX
  5
A5E
  8
0
 62
   123
 10
0.0
 20
0.0
 30
0.0
 70
   128
 71
    53
 72
    54
 73
    57
  0
VERTEX
  5
A5F
  8
0
 62
   123
 10
0.0
 20
0.0
 30
0.0
 70
   128
 71
    58
 72
    54
 73
    55
  0
VERTEX
  5
A60
  8
0
 62
   123
 10
0.0
 20
0.0
 30
0.0
 70
   128
 71
    60
 72
    54
 73
    58
  0
VERTEX
  5
A61
  8
0
 62
   123
 10
0.0
 20
0.0
 30
0.0
 70
   128
 71
    60
 72
    58
 73
    59
  0
VERTEX
  5
A62
  8
0
 62
   123
 10
0.0
 20
0.0
 30
0.0
 70
   128
 71
    32
 72
    30
 73
    59
  0
VERTEX
  5
A63
  8
0
 62
   123
 10
0.0
 20
0.0
 30
0.0
 70
   128
 71
    52
 72
    47
 73
    48
  0
VERTEX
  5
A64
  8
0
 62
   123
 10
0.0
 20
0.0
 30
0.0
 70
   128
 71
    55
 72
    49
 73
    47
  0
VERTEX
  5
A65
  8
0
 62
   123
 10
0.0
 20
0.0
 30
0.0
 70
   128
 71
    51
 72
    41
 73
    50
  0
VERTEX
  5
A66
  8
0
 62
   123
 10
0.0
 20
0.0
 30
0.0
 70
   128
 71
    48
 72
    51
 73
    52
  0
VERTEX
  5
A67
  8
0
 62
   123
 10
0.0
 20
0.0
 30
0.0
 70
   128
 71
    43
 72
    45
 73
    42
  0
VERTEX
  5
A68
  8
0
 62
   123
 10
0.0
 20
0.0
 30
0.0
 70
   128
 71
    41
 72
    42
 73
    50
  0
VERTEX
  5
A69
  8
0
 62
   123
 10
0.0
 20
0.0
 30
0.0
 70
   128
 71
    40
 72
    46
 73
    44
  0
VERTEX
  5
A6A
  8
0
 62
   123
 10
0.0
 20
0.0
 30
0.0
 70
   128
 71
    44
 72
    45
 73
    43
  0
VERTEX
  5
A6B
  8
0
 62
   123
 10
0.0
 20
0.0
 30
0.0
 70
   128
 71
    46
 72
    40
 73
    17
  0
SEQEND
  5
A6C
  8
0
 62
   123
  0
ENDBLK
  5
A6F
  8
0
  0
ENDSEC
  0
SECTION
  2
ENTITIES
  0
INSERT
  5
6E
  8
LAYER_1
  2
____MSBR
 10
0.0
 20
0.0
 30
0.0
  0
INSERT
  5
ED
  8
LAYER_1
  2
____MSBR_1_
 10
0.0
 20
0.0
 30
0.0
  0
INSERT
  5
141
  8
LAYER_1
  2
____MSBR_2_
 10
0.0
 20
0.0
 30
0.0
  0
INSERT
  5
1BD
  8
LAYER_1
  2
____MSBR_3_
 10
0.0
 20
0.0
 30
0.0
  0
INSERT
  5
535
  8
LAYER_1
  2
____MSBR_4_
 10
0.0
 20
0.0
 30
0.0
  0
INSERT
  5
91B
  8
LAYER_1
  2
____MSBR_5_
 10
0.0
 20
0.0
 30
0.0
  0
INSERT
  5
96F
  8
LAYER_1
  2
____MSBR_6_
 10
0.0
 20
0.0
 30
0.0
  0
INSERT
  5
9EB
  8
LAYER_1
  2
____MSBR_7_
 10
0.0
 20
0.0
 30
0.0
  0
INSERT
  5
A6D
  8
LAYER_1
  2
____MSBR_8_
 10
0.0
 20
0.0
 30
0.0
  0
ENDSEC
  0
EOF
