  0
SECTION
  2
HEADER
  9
$ACADVER
  1
AC1015
  9
$ACADMAINTVER
 70
     6
  9
$DWGCODEPAGE
  3
ANSI_1252
  9
$INSBASE
 10
0.0
 20
0.0
 30
0.0
  9
$EXTMIN
 10
0.0
 20
0.0
 30
0.0
  9
$EXTMAX
 10
1682.0
 20
2378.0
 30
0.0
  9
$LIMMIN
 10
0.0
 20
0.0
  9
$LIMMAX
 10
1682.0
 20
2378.0
  9
$ORTHOMODE
 70
     0
  9
$REGENMODE
 70
     1
  9
$FILLMODE
 70
     1
  9
$QTEXTMODE
 70
     0
  9
$MIRRTEXT
 70
     1
  9
$LTSCALE
 40
1.0
  9
$ATTMODE
 70
     1
  9
$TEXTSIZE
 40
2.5
  9
$TRACEWID
 40
1.0
  9
$TEXTSTYLE
  7
Standard
  9
$CLAYER
  8
0
  9
$CELTYPE
  6
ByLayer
  9
$CECOLOR
 62
   256
  9
$CELTSCALE
 40
1.0
  9
$DISPSILH
 70
     0
  9
$DIMSCALE
 40
1.0
  9
$DIMASZ
 40
2.5
  9
$DIMEXO
 40
0.625
  9
$DIMDLI
 40
3.75
  9
$DIMRND
 40
0.0
  9
$DIMDLE
 40
0.0
  9
$DIMEXE
 40
1.25
  9
$DIMTP
 40
0.0
  9
$DIMTM
 40
0.0
  9
$DIMTXT
 40
2.5
  9
$DIMCEN
 40
2.5
  9
$DIMTSZ
 40
0.0
  9
$DIMTOL
 70
     0
  9
$DIMLIM
 70
     0
  9
$DIMTIH
 70
     0
  9
$DIMTOH
 70
     0
  9
$DIMSE1
 70
     0
  9
$DIMSE2
 70
     0
  9
$DIMTAD
 70
     1
  9
$DIMZIN
 70
     8
  9
$DIMBLK
  1

  9
$DIMASO
 70
     1
  9
$DIMSHO
 70
     1
  9
$DIMPOST
  1

  9
$DIMAPOST
  1

  9
$DIMALT
 70
     0
  9
$DIMALTD
 70
     3
  9
$DIMALTF
 40
0.0393700787
  9
$DIMLFAC
 40
1.0
  9
$DIMTOFL
 70
     1
  9
$DIMTVP
 40
0.0
  9
$DIMTIX
 70
     0
  9
$DIMSOXD
 70
     0
  9
$DIMSAH
 70
     0
  9
$DIMBLK1
  1

  9
$DIMBLK2
  1

  9
$DIMSTYLE
  2
ISO-25
  9
$DIMCLRD
 70
     0
  9
$DIMCLRE
 70
     0
  9
$DIMCLRT
 70
     0
  9
$DIMTFAC
 40
1.0
  9
$DIMGAP
 40
0.625
  9
$DIMJUST
 70
     0
  9
$DIMSD1
 70
     0
  9
$DIMSD2
 70
     0
  9
$DIMTOLJ
 70
     0
  9
$DIMTZIN
 70
     8
  9
$DIMALTZ
 70
     0
  9
$DIMALTTZ
 70
     0
  9
$DIMUPT
 70
     0
  9
$DIMDEC
 70
     2
  9
$DIMTDEC
 70
     2
  9
$DIMALTU
 70
     2
  9
$DIMALTTD
 70
     3
  9
$DIMTXSTY
  7
Standard
  9
$DIMAUNIT
 70
     0
  9
$DIMADEC
 70
     0
  9
$DIMALTRND
 40
0.0
  9
$DIMAZIN
 70
     0
  9
$DIMDSEP
 70
    44
  9
$DIMATFIT
 70
     3
  9
$DIMFRAC
 70
     0
  9
$DIMLDRBLK
  1

  9
$DIMLUNIT
 70
     2
  9
$DIMLWD
 70
    -2
  9
$DIMLWE
 70
    -2
  9
$DIMTMOVE
 70
     0
  9
$LUNITS
 70
     2
  9
$LUPREC
 70
     4
  9
$SKETCHINC
 40
1.0
  9
$FILLETRAD
 40
10.0
  9
$AUNITS
 70
     0
  9
$AUPREC
 70
     0
  9
$MENU
  1
.
  9
$ELEVATION
 40
0.0
  9
$PELEVATION
 40
0.0
  9
$THICKNESS
 40
0.0
  9
$LIMCHECK
 70
     0
  9
$CHAMFERA
 40
10.0
  9
$CHAMFERB
 40
10.0
  9
$CHAMFERC
 40
20.0
  9
$CHAMFERD
 40
0.0
  9
$SKPOLY
 70
     0
  9
$TDCREATE
 40
2455566.458664919
  9
$TDUCREATE
 40
2455566.416998252
  9
$TDUPDATE
 40
2455566.45866493
  9
$TDUUPDATE
 40
2455566.416998264
  9
$TDINDWG
 40
0.0000000116
  9
$TDUSRTIMER
 40
0.0000000116
  9
$USRTIMER
 70
     1
  9
$ANGBASE
 50
0.0
  9
$ANGDIR
 70
     0
  9
$PDMODE
 70
     0
  9
$PDSIZE
 40
0.0
  9
$PLINEWID
 40
0.0
  9
$SPLFRAME
 70
     0
  9
$SPLINETYPE
 70
     6
  9
$SPLINESEGS
 70
     8
  9
$HANDSEED
  5
318
  9
$SURFTAB1
 70
     6
  9
$SURFTAB2
 70
     6
  9
$SURFTYPE
 70
     6
  9
$SURFU
 70
     6
  9
$SURFV
 70
     6
  9
$UCSBASE
  2

  9
$UCSNAME
  2

  9
$UCSORG
 10
0.0
 20
0.0
 30
0.0
  9
$UCSXDIR
 10
1.0
 20
0.0
 30
0.0
  9
$UCSYDIR
 10
0.0
 20
1.0
 30
0.0
  9
$UCSORTHOREF
  2

  9
$UCSORTHOVIEW
 70
     0
  9
$UCSORGTOP
 10
0.0
 20
0.0
 30
0.0
  9
$UCSORGBOTTOM
 10
0.0
 20
0.0
 30
0.0
  9
$UCSORGLEFT
 10
0.0
 20
0.0
 30
0.0
  9
$UCSORGRIGHT
 10
0.0
 20
0.0
 30
0.0
  9
$UCSORGFRONT
 10
0.0
 20
0.0
 30
0.0
  9
$UCSORGBACK
 10
0.0
 20
0.0
 30
0.0
  9
$PUCSBASE
  2

  9
$PUCSNAME
  2

  9
$PUCSORG
 10
0.0
 20
0.0
 30
0.0
  9
$PUCSXDIR
 10
1.0
 20
0.0
 30
0.0
  9
$PUCSYDIR
 10
0.0
 20
1.0
 30
0.0
  9
$PUCSORTHOREF
  2

  9
$PUCSORTHOVIEW
 70
     0
  9
$PUCSORGTOP
 10
0.0
 20
0.0
 30
0.0
  9
$PUCSORGBOTTOM
 10
0.0
 20
0.0
 30
0.0
  9
$PUCSORGLEFT
 10
0.0
 20
0.0
 30
0.0
  9
$PUCSORGRIGHT
 10
0.0
 20
0.0
 30
0.0
  9
$PUCSORGFRONT
 10
0.0
 20
0.0
 30
0.0
  9
$PUCSORGBACK
 10
0.0
 20
0.0
 30
0.0
  9
$USERI1
 70
     0
  9
$USERI2
 70
     0
  9
$USERI3
 70
     0
  9
$USERI4
 70
     0
  9
$USERI5
 70
     0
  9
$USERR1
 40
0.0
  9
$USERR2
 40
0.0
  9
$USERR3
 40
0.0
  9
$USERR4
 40
0.0
  9
$USERR5
 40
0.0
  9
$WORLDVIEW
 70
     1
  9
$SHADEDGE
 70
     3
  9
$SHADEDIF
 70
    70
  9
$TILEMODE
 70
     1
  9
$MAXACTVP
 70
    64
  9
$PINSBASE
 10
0.0
 20
0.0
 30
0.0
  9
$PLIMCHECK
 70
     0
  9
$PEXTMIN
 10
0.0
 20
0.0
 30
0.0
  9
$PEXTMAX
 10
1682.0
 20
2378.0
 30
0.0
  9
$PLIMMIN
 10
0.0
 20
0.0
  9
$PLIMMAX
 10
1682.0
 20
2378.0
  9
$UNITMODE
 70
     0
  9
$VISRETAIN
 70
     1
  9
$PLINEGEN
 70
     0
  9
$PSLTSCALE
 70
     1
  9
$TREEDEPTH
 70
  3020
  9
$CMLSTYLE
  2
Standard
  9
$CMLJUST
 70
     0
  9
$CMLSCALE
 40
20.0
  9
$PROXYGRAPHICS
 70
     1
  9
$MEASUREMENT
 70
     1
  9
$CELWEIGHT
370
    -1
  9
$ENDCAPS
280
     0
  9
$JOINSTYLE
280
     0
  9
$LWDISPLAY
290
     0
  9
$INSUNITS
 70
     4
  9
$HYPERLINKBASE
  1

  9
$STYLESHEET
  1

  9
$XEDIT
290
     1
  9
$CEPSNTYPE
380
     0
  9
$PSTYLEMODE
290
     1
  9
$FINGERPRINTGUID
  2
{52DC676C-6994-48EB-9FA5-B7AA6B26B6A7}
  9
$VERSIONGUID
  2
{FAEB1C32-E019-11D5-929B-00C0DF256EC4}
  9
$EXTNAMES
290
     1
  9
$PSVPSCALE
 40
0.0
  9
$OLESTARTUP
290
     0
  0
ENDSEC
  0
SECTION
  2
CLASSES
  0
CLASS
  1
ACDBDICTIONARYWDFLT
  2
AcDbDictionaryWithDefault
  3
ObjectDBX Classes
 90
        0
280
     0
281
     0
  0
CLASS
  1
VISUALSTYLE
  2
AcDbVisualStyle
  3
ObjectDBX Classes
 90
     4095
280
     0
281
     0
  0
CLASS
  1
SCALE
  2
AcDbScale
  3
ObjectDBX Classes
 90
     1153
280
     0
281
     0
  0
CLASS
  1
DICTIONARYVAR
  2
AcDbDictionaryVar
  3
ObjectDBX Classes
 90
        0
280
     0
281
     0
  0
CLASS
  1
ACDBPLACEHOLDER
  2
AcDbPlaceHolder
  3
ObjectDBX Classes
 90
        0
280
     0
281
     0
  0
CLASS
  1
LAYOUT
  2
AcDbLayout
  3
ObjectDBX Classes
 90
        0
280
     0
281
     0
  0
ENDSEC
  0
SECTION
  2
TABLES
  0
TABLE
  2
VPORT
  5
8
330
0
100
AcDbSymbolTable
 70
     1
  0
VPORT
  5
29
330
8
100
AcDbSymbolTableRecord
100
AcDbViewportTableRecord
  2
*Active
 70
     0
 10
0.0
 20
0.0
 11
1.0
 21
1.0
 12
344.1869158879
 22
148.5
 13
0.0
 23
0.0
 14
10.0
 24
10.0
 15
10.0
 25
10.0
 16
0.0
 26
0.0
 36
1.0
 17
0.0
 27
0.0
 37
0.0
 40
297.0
 41
1.9729729729
 42
50.0
 43
0.0
 44
0.0
 50
0.0
 51
0.0
 71
     0
 72
   100
 73
     1
 74
     3
 75
     0
 76
     0
 77
     0
 78
     0
281
     0
 65
     1
110
0.0
120
0.0
130
0.0
111
1.0
121
0.0
131
0.0
112
0.0
122
1.0
132
0.0
 79
     0
146
0.0
  0
ENDTAB
  0
TABLE
  2
LTYPE
  5
5
330
0
100
AcDbSymbolTable
 70
     2
  0
LTYPE
  5
14
330
5
100
AcDbSymbolTableRecord
100
AcDbLinetypeTableRecord
  2
ByBlock
 70
     0
  3

 72
    65
 73
     0
 40
0.0
  0
LTYPE
  5
15
330
5
100
AcDbSymbolTableRecord
100
AcDbLinetypeTableRecord
  2
ByLayer
 70
     0
  3

 72
    65
 73
     0
 40
0.0
  0
LTYPE
  5
16
330
5
100
AcDbSymbolTableRecord
100
AcDbLinetypeTableRecord
  2
Continuous
 70
     0
  3
Solid line
 72
    65
 73
     0
 40
0.0
  0
LTYPE
  5
60
330
5
100
AcDbSymbolTableRecord
100
AcDbLinetypeTableRecord
  2
CENTER2
 70
     0
  3
Center (.5x) ___ _ ___ _ ___ _ ___ _ ___ _ ___
 72
    65
 73
     4
 40
28.575
 49
19.05
 74
     4
 75
     0
340
0
 46
0.0
 50
0.0
 44
0.0
 45
0.0
 49
-3.175
 74
     4
 75
     0
340
0
 46
0.0
 50
0.0
 44
0.0
 45
0.0
 49
3.175
 74
     4
 75
     0
340
0
 46
0.0
 50
0.0
 44
0.0
 45
0.0
 49
-3.175
 74
     4
 75
     0
340
0
 46
0.0
 50
0.0
 44
0.0
 45
0.0
  0
ENDTAB
  0
TABLE
  2
LAYER
  5
2
330
0
100
AcDbSymbolTable
 70
     5
  0
LAYER
  5
10
330
2
100
AcDbSymbolTableRecord
100
AcDbLayerTableRecord
  2
0
 70
     0
 62
     7
  6
Continuous
370
    -3
390
F
  0
LAYER
  5
5D
330
2
100
AcDbSymbolTableRecord
100
AcDbLayerTableRecord
  2
Default
 70
     0
 62
     7
  6
Continuous
370
    -3
390
F
  0
LAYER
  5
77
330
2
100
AcDbSymbolTableRecord
100
AcDbLayerTableRecord
  2
DV1_Standard
 70
     0
 62
     7
  6
Continuous
370
    -3
390
F
  0
LAYER
  5
108
330
2
100
AcDbSymbolTableRecord
100
AcDbLayerTableRecord
  2
DV2_Standard
 70
     0
 62
     7
  6
Continuous
370
    -3
390
F
  0
LAYER
  5
1EA
330
2
100
AcDbSymbolTableRecord
100
AcDbLayerTableRecord
  2
DV3_Standard
 70
     0
 62
     7
  6
Continuous
370
    -3
390
F
  0
ENDTAB
  0
TABLE
  2
STYLE
  5
3
330
0
100
AcDbSymbolTable
 70
     2
  0
STYLE
  5
11
330
3
100
AcDbSymbolTableRecord
100
AcDbTextStyleTableRecord
  2
Standard
 70
     0
 40
0.0
 41
1.0
 50
0.0
 71
     0
 42
2.5
  3
txt
  4

  0
STYLE
  5
307
330
3
100
AcDbSymbolTableRecord
100
AcDbTextStyleTableRecord
  2
SEACAD_seiso_ttf
 70
     0
 40
0.0
 41
1.0
 50
0.0
 71
     0
 42
0.2
  3
seiso.ttf
  4

  0
ENDTAB
  0
TABLE
  2
VIEW
  5
6
330
0
100
AcDbSymbolTable
 70
     0
  0
ENDTAB
  0
TABLE
  2
UCS
  5
7
330
0
100
AcDbSymbolTable
 70
     0
  0
ENDTAB
  0
TABLE
  2
APPID
  5
9
330
0
100
AcDbSymbolTable
 70
     1
  0
APPID
  5
12
330
9
100
AcDbSymbolTableRecord
100
AcDbRegAppTableRecord
  2
ACAD
 70
     0
  0
ENDTAB
  0
TABLE
  2
DIMSTYLE
  5
A
330
0
100
AcDbSymbolTable
 70
     1
100
AcDbDimStyleTable
  0
DIMSTYLE
105
27
330
A
100
AcDbSymbolTableRecord
100
AcDbDimStyleTableRecord
  2
ISO-25
 70
     0
 41
2.5
 42
0.625
 43
3.75
 44
1.25
 73
     0
 74
     0
 77
     1
 78
     8
140
2.5
141
2.5
143
0.0393700787
147
0.625
171
     3
172
     1
271
     2
272
     2
274
     3
278
    44
283
     0
284
     8
340
11
  0
ENDTAB
  0
TABLE
  2
BLOCK_RECORD
  5
1
330
0
100
AcDbSymbolTable
 70
     7
  0
BLOCK_RECORD
  5
1F
330
1
100
AcDbSymbolTableRecord
100
AcDbBlockTableRecord
  2
*Model_Space
340
22
  0
BLOCK_RECORD
  5
1B
330
1
100
AcDbSymbolTableRecord
100
AcDbBlockTableRecord
  2
*Paper_Space
340
1E
  0
BLOCK_RECORD
  5
5E
330
1
100
AcDbSymbolTableRecord
100
AcDbBlockTableRecord
  2
SEANNOT_GROUP
340
0
102
{BLKREFS
331
5F
102
}
  0
BLOCK_RECORD
  5
65
330
1
100
AcDbSymbolTableRecord
100
AcDbBlockTableRecord
  2
SEANNOT_GROUP1
340
0
102
{BLKREFS
331
66
102
}
  0
BLOCK_RECORD
  5
6B
330
1
100
AcDbSymbolTableRecord
100
AcDbBlockTableRecord
  2
SEANNOT_GROUP2
340
0
102
{BLKREFS
331
6C
102
}
  0
BLOCK_RECORD
  5
75
330
1
100
AcDbSymbolTableRecord
100
AcDbBlockTableRecord
  2
SE
340
0
102
{BLKREFS
331
76
102
}
  0
BLOCK_RECORD
  5
106
330
1
100
AcDbSymbolTableRecord
100
AcDbBlockTableRecord
  2
SE1
340
0
102
{BLKREFS
331
107
102
}
  0
BLOCK_RECORD
  5
1E8
330
1
100
AcDbSymbolTableRecord
100
AcDbBlockTableRecord
  2
SE2
340
0
102
{BLKREFS
331
1E9
102
}
  0
ENDTAB
  0
ENDSEC
  0
SECTION
  2
BLOCKS
  0
BLOCK
  5
20
330
1F
100
AcDbEntity
  8
0
100
AcDbBlockBegin
  2
*Model_Space
 70
     0
 10
0.0
 20
0.0
 30
0.0
  3
*Model_Space
  1

  0
ENDBLK
  5
21
330
1F
100
AcDbEntity
  8
0
100
AcDbBlockEnd
  0
BLOCK
  5
1C
330
1B
100
AcDbEntity
 67
     1
  8
0
100
AcDbBlockBegin
  2
*Paper_Space
 70
     0
 10
0.0
 20
0.0
 30
0.0
  3
*Paper_Space
  1

  0
ENDBLK
  5
1D
330
1B
100
AcDbEntity
 67
     1
  8
0
100
AcDbBlockEnd
  0
BLOCK
  5
63
330
5E
100
AcDbEntity
  8
0
100
AcDbBlockBegin
  2
SEANNOT_GROUP
 70
     0
 10
0.0
 20
0.0
 30
0.0
  3
SEANNOT_GROUP
  1

  0
LINE
  5
61
330
5E
100
AcDbEntity
  8
Default
  6
CENTER2
 62
     7
100
AcDbLine
 10
76.1606002811
 20
273.1763851348
 30
0.0
 11
36.1606011752
 21
273.1763851348
 31
0.0
  0
LINE
  5
62
330
5E
100
AcDbEntity
  8
Default
  6
CENTER2
 62
     7
100
AcDbLine
 10
56.1606007282
 20
293.1763846878
 30
0.0
 11
56.1606007282
 21
253.1763855818
 31
0.0
  0
ENDBLK
  5
64
330
5E
100
AcDbEntity
  8
0
100
AcDbBlockEnd
  0
BLOCK
  5
69
330
65
100
AcDbEntity
  8
0
100
AcDbBlockBegin
  2
SEANNOT_GROUP1
 70
     0
 10
0.0
 20
0.0
 30
0.0
  3
SEANNOT_GROUP1
  1

  0
LINE
  5
67
330
65
100
AcDbEntity
  8
Default
  6
CENTER2
 62
     7
100
AcDbLine
 10
204.6287223488
 20
273.1763851348
 30
0.0
 11
164.6287232429
 21
273.1763851348
 31
0.0
  0
LINE
  5
68
330
65
100
AcDbEntity
  8
Default
  6
CENTER2
 62
     7
100
AcDbLine
 10
184.6287227958
 20
293.1763846878
 30
0.0
 11
184.6287227958
 21
253.1763855818
 31
0.0
  0
ENDBLK
  5
6A
330
65
100
AcDbEntity
  8
0
100
AcDbBlockEnd
  0
BLOCK
  5
73
330
6B
100
AcDbEntity
  8
0
100
AcDbBlockBegin
  2
SEANNOT_GROUP2
 70
     0
 10
0.0
 20
0.0
 30
0.0
  3
SEANNOT_GROUP2
  1

  0
LINE
  5
6D
330
6B
100
AcDbEntity
  8
Default
  6
CENTER2
 62
     7
100
AcDbLine
 10
76.1606002811
 20
194.514066577
 30
0.0
 11
36.1606011752
 21
194.514066577
 31
0.0
  0
LINE
  5
6E
330
6B
100
AcDbEntity
  8
Default
  6
CENTER2
 62
     7
100
AcDbLine
 10
56.1606007282
 20
214.51406613
 30
0.0
 11
56.1606007282
 21
174.514067024
 31
0.0
  0
LINE
  5
6F
330
6B
100
AcDbEntity
  8
Default
  6
CENTER2
 62
     7
100
AcDbLine
 10
81.1606001694
 20
194.514066577
 30
0.0
 11
75.6197673032
 21
194.514066577
 31
0.0
  0
LINE
  5
70
330
6B
100
AcDbEntity
  8
Default
  6
CENTER2
 62
     7
100
AcDbLine
 10
56.1606007282
 20
219.5140660182
 30
0.0
 11
56.1606007282
 21
213.973233152
 31
0.0
  0
LINE
  5
71
330
6B
100
AcDbEntity
  8
Default
  6
CENTER2
 62
     7
100
AcDbLine
 10
31.160601287
 20
194.514066577
 30
0.0
 11
36.7014341532
 21
194.514066577
 31
0.0
  0
LINE
  5
72
330
6B
100
AcDbEntity
  8
Default
  6
CENTER2
 62
     7
100
AcDbLine
 10
56.1606007282
 20
169.5140671358
 30
0.0
 11
56.1606007282
 21
175.054900002
 31
0.0
  0
ENDBLK
  5
74
330
6B
100
AcDbEntity
  8
0
100
AcDbBlockEnd
  0
BLOCK
  5
104
330
75
100
AcDbEntity
  8
0
100
AcDbBlockBegin
  2
SE
 70
     0
 10
0.0
 20
0.0
 30
0.0
  3
SE
  1

  0
LINE
  5
78
330
75
100
AcDbEntity
  8
DV1_Standard
  6
Continuous
 62
     7
100
AcDbLine
 10
65.3606007282
 20
273.1763851348
 30
0.0
 11
46.9606007282
 21
273.1763851348
 31
0.0
  0
LINE
  5
79
330
75
100
AcDbEntity
  8
DV1_Standard
  6
Continuous
 62
     7
100
AcDbLine
 10
65.3606007282
 20
274.3763851348
 30
0.0
 11
46.9606007282
 21
274.3763851348
 31
0.0
  0
LINE
  5
7A
330
75
100
AcDbEntity
  8
DV1_Standard
  6
Continuous
 62
     7
100
AcDbLine
 10
66.6381007282
 20
275.6538851348
 30
0.0
 11
45.6831007282
 21
275.6538851348
 31
0.0
  0
LINE
  5
7B
330
75
100
AcDbEntity
  8
DV1_Standard
  6
Continuous
 62
     7
100
AcDbLine
 10
60.7295662454
 20
283.1763851348
 30
0.0
 11
58.5479881156
 21
283.1763851348
 31
0.0
  0
LINE
  5
7C
330
75
100
AcDbEntity
  8
DV1_Standard
  6
Continuous
 62
     7
100
AcDbLine
 10
58.5479881156
 20
283.1763851348
 30
0.0
 11
58.1606007282
 21
283.1763851348
 31
0.0
  0
LINE
  5
7D
330
75
100
AcDbEntity
  8
DV1_Standard
  6
Continuous
 62
     7
100
AcDbLine
 10
58.1606007282
 20
283.1763851348
 30
0.0
 11
54.1606007282
 21
283.1763851348
 31
0.0
  0
LINE
  5
7E
330
75
100
AcDbEntity
  8
DV1_Standard
  6
Continuous
 62
     7
100
AcDbLine
 10
54.1606007282
 20
283.1763851348
 30
0.0
 11
53.7732133408
 21
283.1763851348
 31
0.0
  0
LINE
  5
7F
330
75
100
AcDbEntity
  8
DV1_Standard
  6
Continuous
 62
     7
100
AcDbLine
 10
53.7732133408
 20
283.1763851348
 30
0.0
 11
51.5916352109
 21
283.1763851348
 31
0.0
  0
LINE
  5
80
330
75
100
AcDbEntity
  8
DV1_Standard
  6
Continuous
 62
     7
100
AcDbLine
 10
51.5916352109
 20
283.1763851348
 30
0.0
 11
50.5799654259
 21
283.1763851348
 31
0.0
  0
LINE
  5
81
330
75
100
AcDbEntity
  8
DV1_Standard
  6
Continuous
 62
     7
100
AcDbLine
 10
45.0106007282
 20
283.1763851348
 30
0.0
 11
50.5799654259
 21
283.1763851348
 31
0.0
  0
LINE
  5
82
330
75
100
AcDbEntity
  8
DV1_Standard
  6
Continuous
 62
     7
100
AcDbLine
 10
61.7412360305
 20
283.1763851348
 30
0.0
 11
67.3106007282
 21
283.1763851348
 31
0.0
  0
LINE
  5
83
330
75
100
AcDbEntity
  8
DV1_Standard
  6
Continuous
 62
     7
100
AcDbLine
 10
61.7412360305
 20
283.1763851348
 30
0.0
 11
60.7295662454
 21
283.1763851348
 31
0.0
  0
LINE
  5
84
330
75
100
AcDbEntity
  8
DV1_Standard
  6
Continuous
 62
     7
100
AcDbLine
 10
54.1606007282
 20
283.18253841
 30
0.0
 11
54.1606007282
 21
283.8263851348
 31
0.0
  0
LINE
  5
85
330
75
100
AcDbEntity
  8
DV1_Standard
  6
Continuous
 62
     7
100
AcDbLine
 10
58.1606007282
 20
283.8263851348
 30
0.0
 11
58.1606007282
 21
283.18253841
 31
0.0
  0
LINE
  5
86
330
75
100
AcDbEntity
  8
DV1_Standard
  6
Continuous
 62
     7
100
AcDbLine
 10
50.2552683079
 20
283.6763851348
 30
0.0
 11
50.2552683079
 21
283.8263851348
 31
0.0
  0
SPLINE
  5
87
330
75
100
AcDbEntity
  8
DV1_Standard
  6
Continuous
 62
     7
100
AcDbSpline
210
0.0
220
0.0
230
1.0
 70
     8
 71
     3
 72
    12
 73
     8
 74
     0
 42
0.0000000146926385
 43
0.0000000001
 40
0.0
 40
0.0
 40
0.0
 40
0.0
 40
0.2499999999999998
 40
0.2499999999999998
 40
0.4999999999999997
 40
0.4999999999999997
 40
1.0
 40
1.0
 40
1.0
 40
1.0
 10
50.57996542588383
 20
283.1763851347882
 30
0.0
 10
50.52604658088261
 20
283.1763851347888
 30
0.0
 10
50.47589358841775
 20
283.1876326346315
 30
0.0
 10
50.39093781421154
 20
283.2353887781285
 30
0.0
 10
50.35615944440027
 20
283.271727087775
 30
0.0
 10
50.27605845111683
 20
283.4120299335682
 30
0.0
 10
50.25526830787909
 20
283.54425960635
 30
0.0
 10
50.2552683078791
 20
283.6763851347891
 30
0.0
  0
SPLINE
  5
88
330
75
100
AcDbEntity
  8
DV1_Standard
  6
Continuous
 62
     7
100
AcDbSpline
210
0.0
220
0.0
230
1.0
 70
     8
 71
     3
 72
    12
 73
     8
 74
     0
 42
0.0000000146926992
 43
0.0000000001
 40
0.0
 40
0.0
 40
0.0
 40
0.0
 40
0.5000000000000019
 40
0.5000000000000019
 40
0.7500000000000009
 40
0.7500000000000009
 40
1.0
 40
1.0
 40
1.0
 40
1.0
 10
62.06593314847
 20
283.6763851347891
 30
0.0
 10
62.06593314847
 20
283.544095034716
 30
0.0
 10
62.04509186290559
 20
283.4120960872124
 30
0.0
 10
61.96526243340083
 20
283.2720355903416
 30
0.0
 10
61.93073715343211
 20
283.2357337860951
 30
0.0
 10
61.84544004110982
 20
283.187628657319
 30
0.0
 10
61.79523728634198
 20
283.1763851347889
 30
0.0
 10
61.74123603046524
 20
283.1763851347881
 30
0.0
  0
LINE
  5
89
330
75
100
AcDbEntity
  8
DV1_Standard
  6
Continuous
 62
     7
100
AcDbLine
 10
62.0659331485
 20
283.8263851348
 30
0.0
 11
62.0659331485
 21
283.6763851348
 31
0.0
  0
LINE
  5
8A
330
75
100
AcDbEntity
  8
DV1_Standard
  6
Continuous
 62
     7
100
AcDbLine
 10
44.6606007282
 20
283.8263851348
 30
0.0
 11
44.5106007282
 21
283.6763851348
 31
0.0
  0
SPLINE
  5
8B
330
75
100
AcDbEntity
  8
DV1_Standard
  6
Continuous
 62
     7
100
AcDbSpline
210
0.0
220
0.0
230
1.0
 70
     8
 71
     3
 72
    12
 73
     8
 74
     0
 42
0.0000000151349604
 43
0.0000000001
 40
0.0
 40
0.0
 40
0.0
 40
0.0
 40
0.5
 40
0.5
 40
0.75
 40
0.75
 40
1.0
 40
1.0
 40
1.0
 40
1.0
 10
54.59333615418352
 20
283.6763851347891
 30
0.0
 10
54.48931315169078
 20
283.5736852400229
 30
0.0
 10
54.38803682607335
 20
283.4693650997911
 30
0.0
 10
54.26585736165018
 20
283.3328857872388
 30
0.0
 10
54.22970469223124
 20
283.2902334196146
 30
0.0
 10
54.17701727448939
 20
283.2207851255689
 30
0.0
 10
54.16060072817455
 20
283.1940543027649
 30
0.0
 10
54.16060072817454
 20
283.1825384100302
 30
0.0
  0
LINE
  5
8C
330
75
100
AcDbEntity
  8
DV1_Standard
  6
Continuous
 62
     7
100
AcDbLine
 10
54.5933361542
 20
283.8263851348
 30
0.0
 11
54.5933361542
 21
283.6763851348
 31
0.0
  0
SPLINE
  5
8D
330
75
100
AcDbEntity
  8
DV1_Standard
  6
Continuous
 62
     7
100
AcDbSpline
210
0.0
220
0.0
230
1.0
 70
     8
 71
     3
 72
    12
 73
     8
 74
     0
 42
0.0000000151349604
 43
0.0000000001
 40
0.0
 40
0.0
 40
0.0
 40
0.0
 40
0.5000000000000017
 40
0.5000000000000017
 40
0.7500000000000009
 40
0.7500000000000009
 40
1.0
 40
1.0
 40
1.0
 40
1.0
 10
57.72786530216558
 20
283.6763851347891
 30
0.0
 10
57.831888304656
 20
283.5736852400205
 30
0.0
 10
57.93316463027573
 20
283.4693650997911
 30
0.0
 10
58.05534409469892
 20
283.3328857872388
 30
0.0
 10
58.09149676411786
 20
283.2902334196146
 30
0.0
 10
58.14418418185971
 20
283.2207851255689
 30
0.0
 10
58.16060072817455
 20
283.1940543027649
 30
0.0
 10
58.16060072817455
 20
283.1825384100302
 30
0.0
  0
LINE
  5
8E
330
75
100
AcDbEntity
  8
DV1_Standard
  6
Continuous
 62
     7
100
AcDbLine
 10
54.5933361542
 20
283.6763851348
 30
0.0
 11
57.7278653022
 21
283.6763851348
 31
0.0
  0
LINE
  5
8F
330
75
100
AcDbEntity
  8
DV1_Standard
  6
Continuous
 62
     7
100
AcDbLine
 10
57.7278653022
 20
283.6763851348
 30
0.0
 11
57.7278653022
 21
283.8263851348
 31
0.0
  0
LINE
  5
90
330
75
100
AcDbEntity
  8
DV1_Standard
  6
Continuous
 62
     7
100
AcDbLine
 10
65.3606007282
 20
273.1763851348
 30
0.0
 11
65.3606007282
 21
274.3763851348
 31
0.0
  0
LINE
  5
91
330
75
100
AcDbEntity
  8
DV1_Standard
  6
Continuous
 62
     7
100
AcDbLine
 10
46.9606007282
 20
274.3763851348
 30
0.0
 11
46.9606007282
 21
273.1763851348
 31
0.0
  0
LINE
  5
92
330
75
100
AcDbEntity
  8
DV1_Standard
  6
Continuous
 62
     7
100
AcDbLine
 10
45.6831007282
 20
275.6538851348
 30
0.0
 11
46.9606007282
 21
274.3763851348
 31
0.0
  0
LINE
  5
93
330
75
100
AcDbEntity
  8
DV1_Standard
  6
Continuous
 62
     7
100
AcDbLine
 10
65.3606007282
 20
274.3763851348
 30
0.0
 11
66.6381007282
 21
275.6538851348
 31
0.0
  0
LINE
  5
94
330
75
100
AcDbEntity
  8
DV1_Standard
  6
Continuous
 62
     7
100
AcDbLine
 10
66.6381007282
 20
275.6538851348
 30
0.0
 11
66.6381007282
 21
283.1763851348
 31
0.0
  0
LINE
  5
95
330
75
100
AcDbEntity
  8
DV1_Standard
  6
Continuous
 62
     7
100
AcDbLine
 10
45.6831007282
 20
283.1763851348
 30
0.0
 11
45.6831007282
 21
275.6538851348
 31
0.0
  0
ARC
  5
96
330
75
100
AcDbEntity
  8
DV1_Standard
  6
Continuous
 62
     7
100
AcDbCircle
 10
67.3106007282
 20
283.6763851348
 30
0.0
 40
0.5000000000000004
100
AcDbArc
 50
270.0
 51
0.0
  0
ARC
  5
97
330
75
100
AcDbEntity
  8
DV1_Standard
  6
Continuous
 62
     7
100
AcDbCircle
 10
45.0106007282
 20
283.6763851348
 30
0.0
 40
0.5000000000000004
100
AcDbArc
 50
180.0
 51
270.0
  0
LINE
  5
98
330
75
100
AcDbEntity
  8
DV1_Standard
  6
Continuous
 62
     7
100
AcDbLine
 10
67.8106007282
 20
283.6763851348
 30
0.0
 11
67.8106007282
 21
283.8263851348
 31
0.0
  0
LINE
  5
99
330
75
100
AcDbEntity
  8
DV1_Standard
  6
Continuous
 62
     7
100
AcDbLine
 10
46.8451007282
 20
274.4918851348
 30
0.0
 11
46.8451007282
 21
281.1738851348
 31
0.0
  0
LINE
  5
9A
330
75
100
AcDbEntity
  8
DV1_Standard
  6
Continuous
 62
     7
100
AcDbLine
 10
65.4761007282
 20
274.4918851348
 30
0.0
 11
65.4761007282
 21
281.1738851348
 31
0.0
  0
LINE
  5
9B
330
75
100
AcDbEntity
  8
DV1_Standard
  6
Continuous
 62
     7
100
AcDbLine
 10
66.6381007282
 20
281.1738851348
 30
0.0
 11
45.6831007282
 21
281.1738851348
 31
0.0
  0
ELLIPSE
  5
9C
330
75
100
AcDbEntity
  8
DV1_Standard
  6
Continuous
 62
     7
100
AcDbEllipse
 10
56.1606007282
 20
438.2753233338
 30
0.0
 11
-43.80000000000011
 21
-1.387778780781446E-13
 31
0.0
210
0.0
220
0.0
230
1.0
 40
0.7660444431
 41
-3.213323482977476
 42
-3.197072928425669
  0
ARC
  5
9D
330
75
100
AcDbEntity
  8
DV1_Standard
  6
Continuous
 62
     7
100
AcDbCircle
 10
68.9250034235
 20
434.0050825002
 30
0.0
 40
31.04121902730061
100
AcDbArc
 50
358.8691502806
 51
5.0435549012
  0
ARC
  5
9E
330
75
100
AcDbEntity
  8
DV1_Standard
  6
Continuous
 62
     7
100
AcDbCircle
 10
68.9951229303
 20
433.3131944032
 30
0.0
 40
30.96515509889949
100
AcDbArc
 50
353.476623362
 51
0.1466680207
  0
ELLIPSE
  5
9F
330
75
100
AcDbEntity
  8
DV1_Standard
  6
Continuous
 62
     7
100
AcDbEllipse
 10
56.1606007042
 20
433.0044649366
 30
0.0
 11
43.8000000240006
 21
-5.309364059513655E-9
 31
0.0
210
0.0
220
0.0
230
1.0
 40
0.7660444429
 41
6.134233299249293
 42
6.187393116648155
  0
SPLINE
  5
A0
330
75
100
AcDbEntity
  8
DV1_Standard
  6
Continuous
 62
     7
100
AcDbSpline
210
0.0
220
0.0
230
1.0
 70
     8
 71
     3
 72
    20
 73
    16
 74
     0
 42
0.0000000288988323
 43
0.0000000001
 40
0.0
 40
0.0
 40
0.0
 40
0.0
 40
0.196202472329527
 40
0.196202472329527
 40
0.196202472329527
 40
0.4356341537294331
 40
0.4356341537294331
 40
0.4356341537294331
 40
0.6776374330240624
 40
0.6776374330240624
 40
0.6776374330240624
 40
0.9226772175947985
 40
0.9226772175947985
 40
0.9226772175947985
 40
0.9999999999999999
 40
0.9999999999999999
 40
0.9999999999999999
 40
0.9999999999999999
 10
99.37490680297839
 20
427.8767318974497
 30
0.0
 10
99.37671577467974
 20
427.8476955275016
 30
0.0
 10
99.37985244894989
 20
427.8255462391009
 30
0.0
 10
99.38412185843576
 20
427.811570005229
 30
0.0
 10
99.38933254447096
 20
427.7945124315993
 30
0.0
 10
99.39636665574945
 20
427.7891517665039
 30
0.0
 10
99.40455413960005
 20
427.7957878065781
 30
0.0
 10
99.41282901299769
 20
427.8024946767812
 30
0.0
 10
99.4225011783894
 20
427.8216269365659
 30
0.0
 10
99.43269639428671
 20
427.8515263275982
 30
0.0
 10
99.44301747604725
 20
427.8817948439829
 30
0.0
 10
99.45415289904216
 20
427.9239219849255
 30
0.0
 10
99.4651463872614
 20
427.9744375192786
 30
0.0
 10
99.46863796422292
 20
427.9904814602397
 30
0.0
 10
99.47213556903925
 20
428.0074414300282
 30
0.0
 10
99.47560967426715
 20
428.0251760541031
 30
0.0
  0
ARC
  5
A1
330
75
100
AcDbEntity
  8
DV1_Standard
  6
Continuous
 62
     7
100
AcDbCircle
 10
65.6873991239
 20
434.3173918911
 30
0.0
 40
34.27074487120125
100
AcDbArc
 50
356.0889262285
 51
359.8898639389
  0
ARC
  5
A2
330
75
100
AcDbEntity
  8
DV1_Standard
  6
Continuous
 62
     7
100
AcDbCircle
 10
61.8798820145
 20
434.7871999724
 30
0.0
 40
38.08196648718346
100
AcDbArc
 50
359.9179122115
 51
2.024522932
  0
ELLIPSE
  5
A3
330
75
100
AcDbEntity
  8
DV1_Standard
  6
Continuous
 62
     7
100
AcDbEllipse
 10
56.1606007282
 20
436.5397967877
 30
0.0
 11
-43.80000000000453
 21
5.551115123125783E-13
 31
0.0
210
0.0
220
0.0
230
1.0
 40
0.7660444431
 41
3.089332946655898
 42
3.107737301082329
  0
ELLIPSE
  5
A4
330
75
100
AcDbEntity
  8
DV1_Standard
  6
Continuous
 62
     7
100
AcDbEllipse
 10
56.1606007282
 20
434.6114339586
 30
0.0
 11
-43.79999999999497
 21
-2.053912595556540E-12
 31
0.0
210
0.0
220
0.0
230
1.0
 40
0.7660444431
 41
6.227640250269589
 42
6.253500582462958
  0
LINE
  5
A5
330
75
100
AcDbEntity
  8
DV1_Standard
  6
Continuous
 62
     7
100
AcDbLine
 10
12.3798972162
 20
435.6072917346
 30
0.0
 11
12.3298874596
 21
435.6072917346
 31
0.0
  0
LINE
  5
A6
330
75
100
AcDbEntity
  8
DV1_Standard
  6
Continuous
 62
     7
100
AcDbLine
 10
12.2746437721
 20
434.9453249678
 30
0.0
 11
12.3621628102
 21
434.8948040873
 31
0.0
  0
ARC
  5
A7
330
75
100
AcDbEntity
  8
DV1_Standard
  6
Continuous
 62
     7
100
AcDbCircle
 10
38.0641412338
 20
434.6114339586
 30
0.0
 40
25.70354048596316
100
AcDbArc
 50
179.3683266579
 51
180.6316733421
  0
LINE
  5
A8
330
75
100
AcDbEntity
  8
DV1_Standard
  6
Continuous
 62
     7
100
AcDbLine
 10
12.3621628102
 20
434.3280638299
 30
0.0
 11
12.2352018886
 21
434.2547748897
 31
0.0
  0
LINE
  5
A9
330
75
100
AcDbEntity
  8
DV1_Standard
  6
Continuous
 62
     7
100
AcDbLine
 10
12.2177652273
 20
433.6155761825
 30
0.0
 11
12.3798972162
 21
433.6155761825
 31
0.0
  0
ELLIPSE
  5
AA
330
75
100
AcDbEntity
  8
DV1_Standard
  6
Continuous
 62
     7
100
AcDbEllipse
 10
56.1606007282
 20
434.6114339586
 30
0.0
 11
-43.79999999998748
 21
3.941291737419306E-12
 31
0.0
210
0.0
220
0.0
230
1.0
 40
0.7660444431
 41
0.0296847247166701
 42
0.0477863948821723
  0
ELLIPSE
  5
AB
330
75
100
AcDbEntity
  8
DV1_Standard
  6
Continuous
 62
     7
100
AcDbEllipse
 10
56.16060075
 20
433.0044649188
 30
0.0
 11
-43.80000002290455
 21
2.755035088952696E-8
 31
0.0
210
0.0
220
0.0
230
1.0
 40
0.7660444431
 41
-0.7772705381205203
 42
-0.7241107207251005
  0
ELLIPSE
  5
AC
330
75
100
AcDbEntity
  8
DV1_Standard
  6
Continuous
 62
     7
100
AcDbEllipse
 10
56.1606007201
 20
433.0044649664
 30
0.0
 11
43.80000002206936
 21
-1.482142186759461E-8
 31
0.0
210
0.0
220
0.0
230
1.0
 40
0.7660444435
 41
4.877596238042297
 42
4.930756055429969
  0
ELLIPSE
  5
AD
330
75
100
AcDbEntity
  8
DV1_Standard
  6
Continuous
 62
     7
100
AcDbEllipse
 10
56.1606064444
 20
433.7758097716
 30
0.0
 11
0.0
 21
43.83343717747323
 31
0.0
210
0.0
220
0.0
230
1.0
 40
1.0
 41
1.515332063220559
 42
1.528987622751846
  0
ARC
  5
AE
330
75
100
AcDbEntity
  8
DV1_Standard
  6
Continuous
 62
     7
100
AcDbCircle
 10
12.554059407
 20
467.2509531938
 30
0.0
 40
16.15596650958943
100
AcDbArc
 50
303.3889556178
 51
311.9332176568
  0
SPLINE
  5
AF
330
75
100
AcDbEntity
  8
DV1_Standard
  6
Continuous
 62
     7
100
AcDbSpline
210
0.0
220
0.0
230
1.0
 70
     8
 71
     3
 72
    17
 73
    13
 74
     0
 42
0.0000000129058161
 43
0.0000000001
 40
0.0
 40
0.0
 40
0.0
 40
0.0
 40
0.1914360900751606
 40
0.1914360900751606
 40
0.1914360900751606
 40
0.4580367287824014
 40
0.4580367287824014
 40
0.4580367287824014
 40
0.7278458047926821
 40
0.7278458047926821
 40
0.7278458047926821
 40
1.0
 40
1.0
 40
1.0
 40
1.0
 10
25.37925437512936
 20
457.1593447042075
 30
0.0
 10
25.36727606369143
 20
457.1185473810947
 30
0.0
 10
25.35100842776853
 20
457.07565527509
 30
0.0
 10
25.33113168470124
 20
457.0324923944171
 30
0.0
 10
25.30344903034899
 20
456.9723787680312
 30
0.0
 10
25.26802610699517
 20
456.910108405998
 30
0.0
 10
25.22786560975515
 20
456.8506646815226
 30
0.0
 10
25.18722657146929
 20
456.7905126425583
 30
0.0
 10
25.14063947252107
 20
456.7316177429327
 30
0.0
 10
25.0919644607823
 20
456.6786738529352
 30
0.0
 10
25.04287718661707
 20
456.6252815444209
 30
0.0
 10
24.99033084815357
 20
456.5764840871987
 30
0.0
 10
24.9386265191855
 20
456.5362271482831
 30
0.0
  0
ARC
  5
B0
330
75
100
AcDbEntity
  8
DV1_Standard
  6
Continuous
 62
     7
100
AcDbCircle
 10
24.6892736225
 20
420.5197440672
 30
0.0
 40
7.741982994273251
100
AcDbArc
 50
215.9978960396
 51
220.3996996051
  0
ELLIPSE
  5
B1
330
75
100
AcDbEntity
  8
DV1_Standard
  6
Continuous
 62
     7
100
AcDbEllipse
 10
56.1606007368
 20
433.004464938
 30
0.0
 11
-43.80000000866356
 21
-7.745054597663170E-9
 31
0.0
210
0.0
220
0.0
230
1.0
 40
0.7660444431
 41
0.4793665224740774
 42
0.5325263398816255
  0
SPLINE
  5
B2
330
75
100
AcDbEntity
  8
DV1_Standard
  6
Continuous
 62
     7
100
AcDbSpline
210
0.0
220
0.0
230
1.0
 70
     8
 71
     3
 72
    14
 73
    10
 74
     0
 42
0.0000000210025083
 43
0.0000000001
 40
0.0
 40
0.0
 40
0.0
 40
0.0
 40
0.1185349146719734
 40
0.1185349146719734
 40
0.1185349146719734
 40
0.5573603717426419
 40
0.5573603717426419
 40
0.5573603717426419
 40
0.9999999999999999
 40
0.9999999999999999
 40
0.9999999999999999
 40
0.9999999999999999
 10
17.0894966606223
 20
417.9560451513729
 30
0.0
 10
17.09600729595384
 20
417.9374158905312
 30
0.0
 10
17.10279231798118
 20
417.9188175860658
 30
0.0
 10
17.10981510618835
 20
417.9003658031861
 30
0.0
 10
17.13581095874764
 20
417.8320638961595
 30
0.0
 10
17.16577174056876
 20
417.7639153891918
 30
0.0
 10
17.19731544812484
 20
417.7014368343042
 30
0.0
 10
17.22912632121315
 20
417.6384291052114
 30
0.0
 10
17.26341611755723
 20
417.5794707163223
 30
0.0
 10
17.2974182393834
 20
417.5293613685586
 30
0.0
  0
LINE
  5
B3
330
75
100
AcDbEntity
  8
DV1_Standard
  6
Continuous
 62
     7
100
AcDbLine
 10
99.9606007282
 20
433.5866566366
 30
0.0
 11
99.9606007282
 21
434.7258065241
 31
0.0
  0
ARC
  5
B4
330
75
100
AcDbEntity
  8
DV1_Standard
  6
Continuous
 62
     7
100
AcDbCircle
 10
242.0497872251
 20
395.8317276663
 30
0.0
 40
188.1834633534685
100
AcDbArc
 50
179.4712853978
 51
180.8280722326
  0
ARC
  5
B5
330
75
100
AcDbEntity
  8
DV1_Standard
  6
Continuous
 62
     7
100
AcDbCircle
 10
-116.2425841455
 20
395.9814415963
 30
0.0
 40
174.7019469712394
100
AcDbArc
 50
359.0740326031
 51
0.5196661534
  0
ARC
  5
B6
330
75
100
AcDbEntity
  8
DV1_Standard
  6
Continuous
 62
     7
100
AcDbCircle
 10
57.6400449367
 20
399.0673540961
 30
0.0
 40
0.2875093089447237
100
AcDbArc
 50
49.1857351173
 51
77.5821628618
  0
LINE
  5
B7
330
75
100
AcDbEntity
  8
DV1_Standard
  6
Continuous
 62
     7
100
AcDbLine
 10
57.7018707577
 20
399.3481372341
 30
0.0
 11
57.6063188976
 21
399.3584749591
 31
0.0
  0
ARC
  5
B8
330
75
100
AcDbEntity
  8
DV1_Standard
  6
Continuous
 62
     7
100
AcDbCircle
 10
57.4120767918
 20
1907.457139384
 30
0.0
 40
1508.098676934059
100
AcDbArc
 50
269.8975619548
 51
270.0073796583
  0
ARC
  5
B9
330
75
100
AcDbEntity
  8
DV1_Standard
  6
Continuous
 62
     7
100
AcDbCircle
 10
54.7117401223
 20
398.9467915928
 30
0.0
 40
0.4141008669593219
100
AcDbArc
 50
89.4414404979
 51
104.1393003793
  0
ARC
  5
BA
330
75
100
AcDbEntity
  8
DV1_Standard
  6
Continuous
 62
     7
100
AcDbCircle
 10
54.6778688075
 20
399.0764673234
 30
0.0
 40
0.2800820466422664
100
AcDbArc
 50
103.9003730518
 51
131.0238560677
  0
SPLINE
  5
BB
330
75
100
AcDbEntity
  8
DV1_Standard
  6
Continuous
 62
     7
100
AcDbSpline
210
0.0
220
0.0
230
1.0
 70
     8
 71
     3
 72
    18
 73
    14
 74
     0
 42
0.0000000053192697
 43
0.0000000001
 40
0.0
 40
0.0
 40
0.0
 40
0.0
 40
0.0312499999999921
 40
0.0312499999999921
 40
0.0624999999999843
 40
0.0624999999999843
 40
0.1249999999999684
 40
0.1249999999999684
 40
0.2499999999999637
 40
0.2499999999999637
 40
0.4999999999999853
 40
0.4999999999999853
 40
1.0
 40
1.0
 40
1.0
 40
1.0
 10
54.49403045599912
 20
399.2877714013211
 30
0.0
 10
54.46959660352309
 20
399.2856017164181
 30
0.0
 10
54.44791591440541
 20
399.2746600794328
 30
0.0
 10
54.41101463029383
 20
399.2487842100696
 30
0.0
 10
54.39485742629353
 20
399.2332054138546
 30
0.0
 10
54.351040929185
 20
399.1846725068333
 30
0.0
 10
54.32737464914623
 20
399.1495382267653
 30
0.0
 10
54.26207681918268
 20
399.041549488649
 30
0.0
 10
54.22747135003281
 20
398.9669932925069
 30
0.0
 10
54.13349886050793
 20
398.7428453478117
 30
0.0
 10
54.0848187424381
 20
398.5911926769066
 30
0.0
 10
53.96141755562752
 20
398.1429949155475
 30
0.0
 10
53.90963404978204
 20
397.8502303201964
 30
0.0
 10
53.88770144359398
 20
397.5681010438199
 30
0.0
  0
SPLINE
  5
BC
330
75
100
AcDbEntity
  8
DV1_Standard
  6
Continuous
 62
     7
100
AcDbSpline
210
0.0
220
0.0
230
1.0
 70
     8
 71
     3
 72
    18
 73
    14
 74
     0
 42
0.0000000053214852
 43
0.0000000001
 40
0.0
 40
0.0
 40
0.0
 40
0.0
 40
0.4999999999999762
 40
0.4999999999999762
 40
0.7499999999999845
 40
0.7499999999999845
 40
0.8749999999999897
 40
0.8749999999999897
 40
0.9375000000000071
 40
0.9375000000000071
 40
0.9687500000000036
 40
0.9687500000000036
 40
1.0
 40
1.0
 40
1.0
 40
1.0
 10
58.43390487171129
 20
397.5657807758623
 30
0.0
 10
58.41197403541379
 20
397.8479171204413
 30
0.0
 10
58.36049543862438
 20
398.139420795423
 30
0.0
 10
58.23698653019331
 20
398.588277890537
 30
0.0
 10
58.18829367720607
 20
398.7400408618381
 30
0.0
 10
58.0941136921946
 20
398.9646005080211
 30
0.0
 10
58.0595495848823
 20
399.0390091012806
 30
0.0
 10
57.99425443384332
 20
399.1469103448983
 30
0.0
 10
57.97045301378758
 20
399.1821885649695
 30
0.0
 10
57.9266746905094
 20
399.2305908229793
 30
0.0
 10
57.91066706563795
 20
399.2460182541614
 30
0.0
 10
57.87368352138034
 20
399.2719211763818
 30
0.0
 10
57.85205416455687
 20
399.2827296945025
 30
0.0
 10
57.82796362362642
 20
399.2849504422147
 30
0.0
  0
ELLIPSE
  5
BD
330
75
100
AcDbEntity
  8
DV1_Standard
  6
Continuous
 62
     7
100
AcDbEllipse
 10
56.1606007282
 20
435.4210397275
 30
0.0
 11
49.52037596376307
 21
-9.714451465470120E-13
 31
0.0
210
0.0
220
0.0
230
1.0
 40
0.7660444431
 41
1.04019952866112
 42
2.087314985277991
  0
ELLIPSE
  5
BE
330
75
100
AcDbEntity
  8
DV1_Standard
  6
Continuous
 62
     7
100
AcDbEllipse
 10
56.1606007282
 20
433.070601653
 30
0.0
 11
44.05104662821018
 21
-7.494005416219807E-13
 31
0.0
210
0.0
220
0.0
230
1.0
 40
0.7660444431
 41
-1.527670745235546
 42
4.669162125743941
  0
ARC
  5
BF
330
75
100
AcDbEntity
  8
DV1_Standard
  6
Continuous
 62
     7
100
AcDbCircle
 10
53.8808056383
 20
376.9236363559
 30
0.0
 40
22.43658239635162
100
AcDbArc
 50
88.1360545208
 51
89.0392621307
  0
ARC
  5
C0
330
75
100
AcDbEntity
  8
DV1_Standard
  6
Continuous
 62
     7
100
AcDbCircle
 10
58.5531002506
 20
371.9497144771
 30
0.0
 40
27.41164280413651
100
AcDbArc
 50
91.0312788627
 51
91.7795248442
  0
ELLIPSE
  5
C1
330
75
100
AcDbEntity
  8
DV1_Standard
  6
Continuous
 62
     7
100
AcDbEllipse
 10
56.1606007282
 20
433.1284454958
 30
0.0
 11
43.94999999999997
 21
-8.326672684688674E-14
 31
0.0
210
0.0
220
0.0
230
1.0
 40
0.7660444431
 41
-0.8659465940977624
 42
0.4364499532151811
  0
ELLIPSE
  5
C2
330
75
100
AcDbEntity
  8
DV1_Standard
  6
Continuous
 62
     7
100
AcDbEllipse
 10
56.1606007282
 20
433.1284454958
 30
0.0
 11
43.94999999999997
 21
-8.326672684688674E-14
 31
0.0
210
0.0
220
0.0
230
1.0
 40
0.7660444431
 41
2.773593465153612
 42
3.953021066227593
  0
ELLIPSE
  5
C3
330
75
100
AcDbEntity
  8
DV1_Standard
  6
Continuous
 62
     7
100
AcDbEllipse
 10
56.1606007282
 20
438.2087474343
 30
0.0
 11
-43.9500000000001
 21
-1.665334536937735E-13
 31
0.0
210
0.0
220
0.0
230
1.0
 40
0.7660444431
 41
-3.235247331875384
 42
-3.230347941272951
  0
ELLIPSE
  5
C4
330
75
100
AcDbEntity
  8
DV1_Standard
  6
Continuous
 62
     7
100
AcDbEllipse
 10
56.1606007282
 20
438.2087474343
 30
0.0
 11
-43.9500000000001
 21
-1.665334536937735E-13
 31
0.0
210
0.0
220
0.0
230
1.0
 40
0.7660444431
 41
-3.226669486200399
 42
-3.217112234867637
  0
ELLIPSE
  5
C5
330
75
100
AcDbEntity
  8
DV1_Standard
  6
Continuous
 62
     7
100
AcDbEllipse
 10
56.1606007282
 20
438.2087474343
 30
0.0
 11
-43.95000000000023
 21
-1.942890293094024E-13
 31
0.0
210
0.0
220
0.0
230
1.0
 40
0.7660444431
 41
0.0755195812778363
 42
0.0773457924820102
  0
LINE
  5
C6
330
75
100
AcDbEntity
  8
DV1_Standard
  6
Continuous
 62
     7
100
AcDbLine
 10
12.2561305685
 20
432.691375368
 30
0.0
 11
12.2561305685
 21
433.6155761825
 31
0.0
  0
LINE
  5
C7
330
75
100
AcDbEntity
  8
DV1_Standard
  6
Continuous
 62
     7
100
AcDbLine
 10
12.2561305685
 20
434.2668560935
 30
0.0
 11
12.2561305685
 21
434.6605343821
 31
0.0
  0
ELLIPSE
  5
C8
330
75
100
AcDbEntity
  8
DV1_Standard
  6
Continuous
 62
     7
100
AcDbEllipse
 10
56.160600732
 20
434.2234642542
 30
0.0
 11
43.95000000378208
 21
8.326672684688674E-14
 31
0.0
210
0.0
220
0.0
230
1.0
 40
0.7660444431
 41
3.157855548713904
 42
3.187114631225672
  0
ELLIPSE
  5
C9
330
75
100
AcDbEntity
  8
DV1_Standard
  6
Continuous
 62
     7
100
AcDbEllipse
 10
56.160600728
 20
435.8304332784
 30
0.0
 11
-43.94999999979159
 21
4.704570066849101E-11
 31
0.0
210
0.0
220
0.0
230
1.0
 40
0.7660444431
 41
0.0660077441499087
 42
0.0961364134600914
  0
LINE
  5
CA
330
75
100
AcDbEntity
  8
DV1_Standard
  6
Continuous
 62
     7
100
AcDbLine
 10
12.3063115342
 20
433.6097208706
 30
0.0
 11
12.3063115342
 21
433.6155761825
 31
0.0
  0
LINE
  5
CB
330
75
100
AcDbEntity
  8
DV1_Standard
  6
Continuous
 62
     7
100
AcDbLine
 10
12.3063115342
 20
434.2958233517
 30
0.0
 11
12.3063115342
 21
434.9270445655
 31
0.0
  0
ELLIPSE
  5
CC
330
75
100
AcDbEntity
  8
DV1_Standard
  6
Continuous
 62
     7
100
AcDbEllipse
 10
56.1606007272
 20
437.2124266392
 30
0.0
 11
-43.94999999906067
 21
2.249589403646723E-10
 31
0.0
210
0.0
220
0.0
230
1.0
 40
0.7660444431
 41
0.0680354533633546
 42
0.0828247506290987
  0
ELLIPSE
  5
CD
330
75
100
AcDbEntity
  8
DV1_Standard
  6
Continuous
 62
     7
100
AcDbEllipse
 10
58.0014526469
 20
399.4213334287
 30
0.0
 11
-0.002882868517662796
 21
0.08995381631204948
 31
0.0
210
0.0
220
0.0
230
0.9999999999999999
 40
0.026868229
 41
0.955190138745305
 42
2.268497519857365
  0
ELLIPSE
  5
CE
330
75
100
AcDbEntity
  8
DV1_Standard
  6
Continuous
 62
     7
100
AcDbEllipse
 10
56.1606007282
 20
433.070594611
 30
0.0
 11
44.03999999999993
 21
-2.775557561562892E-14
 31
0.0
210
0.0
220
0.0
230
1.0
 40
0.7660444431
 41
-1.528984601151625
 42
4.670454093326928
  0
ELLIPSE
  5
CF
330
75
100
AcDbEntity
  8
DV1_Standard
  6
Continuous
 62
     7
100
AcDbEllipse
 10
54.3143295352
 20
399.4215073635
 30
0.0
 11
0.002891361539460787
 21
0.08995354372359765
 31
0.0
210
0.0
220
0.0
230
0.9999999999999998
 40
0.0269473262
 41
4.014690328084086
 42
5.328014821850836
  0
ARC
  5
D0
330
75
100
AcDbEntity
  8
DV1_Standard
  6
Continuous
 62
     7
100
AcDbCircle
 10
106.3411166142
 20
397.9057431068
 30
0.0
 40
52.6780120192002
100
AcDbArc
 50
181.9089709377
 51
185.1727815957
  0
ARC
  5
D1
330
75
100
AcDbEntity
  8
DV1_Standard
  6
Continuous
 62
     7
100
AcDbCircle
 10
5.9800947234
 20
397.9049753063
 30
0.0
 40
52.6780120192002
100
AcDbArc
 50
354.8360753073
 51
358.0976446789
  0
ARC
  5
D2
330
75
100
AcDbEntity
  8
DV1_Standard
  6
Continuous
 62
     7
100
AcDbCircle
 10
56.1534159761
 20
397.3340664579
 30
0.0
 40
5.043406629198066
100
AcDbArc
 50
246.3047487259
 51
293.8172809552
  0
ARC
  5
D3
330
75
100
AcDbEntity
  8
DV1_Standard
  6
Continuous
 62
     7
100
AcDbCircle
 10
54.3791279338
 20
393.1531370091
 30
0.0
 40
0.4964712247204797
100
AcDbArc
 50
192.2921961875
 51
246.9939509483
  0
ARC
  5
D4
330
75
100
AcDbEntity
  8
DV1_Standard
  6
Continuous
 62
     7
100
AcDbCircle
 10
57.9654708111
 20
393.1459006176
 30
0.0
 40
0.470783629862942
100
AcDbArc
 50
290.7915572913
 51
347.5458340471
  0
SPLINE
  5
D5
330
75
100
AcDbEntity
  8
DV1_Standard
  6
Continuous
 62
     7
100
AcDbSpline
210
0.0
220
0.0
230
1.0
 70
     8
 71
     3
 72
    76
 73
    72
 74
     0
 42
0.000000000089996
 43
0.0000000001
 40
0.0
 40
0.0
 40
0.0
 40
0.0
 40
0.0008244027332244
 40
0.0156916612032752
 40
0.030558662047089
 40
0.0454251585619871
 40
0.0602908554561692
 40
0.0751554058449166
 40
0.0900184090378193
 40
0.1048794094434791
 40
0.1197378969702274
 40
0.1345933093457556
 40
0.1494450368056307
 40
0.1642924296015238
 40
0.1791348087427031
 40
0.1939714802971017
 40
0.2088017534311951
 40
0.2236249621537585
 40
0.238440490447538
 40
0.2532478001340996
 40
0.2680464604415905
 40
0.2828361778662411
 40
0.2976168245809225
 40
0.3123884633994737
 40
0.3271513672057105
 40
0.3419060308441313
 40
0.3566531737702168
 40
0.3713937322709965
 40
0.3861288407607243
 40
0.4008598024716342
 40
0.4155880507141654
 40
0.4303151026795249
 40
0.445042094758529
 40
0.4597704690271322
 40
0.4745017150324776
 40
0.4892372187257191
 40
0.5039782200114038
 40
0.5187257788581563
 40
0.5334807514491354
 40
0.5482437770312307
 40
0.5630152753033566
 40
0.5777954534570111
 40
0.592584321411401
 40
0.6073817134087226
 40
0.6221873139643128
 40
0.6370006861858176
 40
0.6518213006516846
 40
0.6666485633257342
 40
0.6814818413324865
 40
0.6963204857819304
 40
0.7111638511757297
 40
0.7260113112247291
 40
0.7408622711449444
 40
0.7557161766730315
 40
0.7705725201552018
 40
0.7854308441233727
 40
0.8002907427909319
 40
0.8151518618872794
 40
0.8300138972165381
 40
0.8448765922800694
 40
0.8597397352506034
 40
0.8746031555344098
 40
0.8894666897549912
 40
0.9043302423681465
 40
0.9191937536225824
 40
0.9340571890416918
 40
0.948920535992274
 40
0.9637838004221133
 40
0.9786470037683602
 40
0.993510180027333
 40
1.0
 40
1.0
 40
1.0
 40
1.0
 10
31.68030463648897
 20
468.3975092177823
 30
0.0
 10
31.64640177559898
 20
468.3833697728871
 30
0.0
 10
31.09047311035257
 20
468.151429445044
 30
0.0
 10
29.94056760528521
 20
467.6129998907674
 30
0.0
 10
28.35938446609139
 20
466.8309193405776
 30
0.0
 10
26.80243552010399
 20
465.9887301273727
 30
0.0
 10
25.29215146881891
 20
465.1050415049922
 30
0.0
 10
23.82534479312476
 20
464.1764459346977
 30
0.0
 10
22.40561607846715
 20
463.2055209144344
 30
0.0
 10
21.03466692096319
 20
462.1933252369003
 30
0.0
 10
19.71462274491144
 20
461.141408005273
 30
0.0
 10
18.44740572518474
 20
460.0512688107817
 30
0.0
 10
17.23489785864851
 20
458.9245004947024
 30
0.0
 10
16.07889222197599
 20
457.7627487072536
 30
0.0
 10
14.98110086549175
 20
456.5677201191515
 30
0.0
 10
13.9431474884478
 20
455.3411770943226
 30
0.0
 10
12.96656422842708
 20
454.084935406796
 30
0.0
 10
12.05278750193035
 20
452.8008605006792
 30
0.0
 10
11.20315439516625
 20
451.4908634666953
 30
0.0
 10
10.41889936840026
 20
450.1568964276479
 30
0.0
 10
9.701151513202527
 20
448.8009474705985
 30
0.0
 10
9.050932470401577
 20
447.4250352000149
 30
0.0
 10
8.469155128798901
 20
446.0312030606506
 30
0.0
 10
7.956623177678125
 20
444.6215136114308
 30
0.0
 10
7.514031535122818
 20
443.1980429623442
 30
0.0
 10
7.141967608502629
 20
441.7628755968906
 30
0.0
 10
6.840913273515992
 20
440.3180997916918
 30
0.0
 10
6.611247391280717
 20
438.8658038095497
 30
0.0
 10
6.453248628575464
 20
437.4080729843195
 30
0.0
 10
6.36709831305695
 20
435.9469877393873
 30
0.0
 10
6.352883049055298
 20
434.4846224975545
 30
0.0
 10
6.410596304171519
 20
433.0230590309173
 30
0.0
 10
6.540137103949288
 20
431.5643758003598
 30
0.0
 10
6.741310449442921
 20
430.110644217071
 30
0.0
 10
7.013831087048672
 20
428.6639150256556
 30
0.0
 10
7.357323414085799
 20
427.2262290681373
 30
0.0
 10
7.771319853155781
 20
425.7996207815872
 30
0.0
 10
8.255258998003091
 20
424.3861176865482
 30
0.0
 10
8.808483473424396
 20
422.9877390944749
 30
0.0
 10
9.430237773845523
 20
421.6064939676668
 30
0.0
 10
10.11966633821529
 20
420.2443779478961
 30
0.0
 10
10.8758120859038
 20
418.9033696436686
 30
0.0
 10
11.69761558602297
 20
417.5854263231207
 30
0.0
 10
12.58391496944618
 20
416.2924791954119
 30
0.0
 10
13.53344662745998
 20
415.0264284771137
 30
0.0
 10
14.54484668115701
 20
413.7891384333232
 30
0.0
 10
15.61665315699231
 20
412.5824325603289
 30
0.0
 10
16.74730876961765
 20
411.4080890429621
 30
0.0
 10
17.93516419391764
 20
410.2678365810185
 30
0.0
 10
19.17848170287288
 20
409.1633506403188
 30
0.0
 10
20.47543905385828
 20
408.0962501490208
 30
0.0
 10
21.82413351997685
 20
407.0680946311695
 30
0.0
 10
23.22258598163854
 20
406.0803817483578
 30
0.0
 10
24.66874501414455
 20
405.1345452066653
 30
0.0
 10
26.16049092614577
 20
404.2319529792993
 30
0.0
 10
27.6956397240362
 20
403.3739057932972
 30
0.0
 10
29.27194698235631
 20
402.5616358334244
 30
0.0
 10
30.88711164722894
 20
401.7963056135367
 30
0.0
 10
32.53877967444757
 20
401.0790070026638
 30
0.0
 10
34.22454790656228
 20
400.4107602873894
 30
0.0
 10
35.94196673836198
 20
399.7925135806187
 30
0.0
 10
37.68854586483501
 20
399.2251417065713
 30
0.0
 10
39.46174634969202
 20
398.7094478223618
 30
0.0
 10
41.25903175534604
 20
398.2461520095715
 30
0.0
 10
43.07769610445617
 20
397.8359306568454
 30
0.0
 10
44.91552575763461
 20
397.479266736331
 30
0.0
 10
46.76834040094839
 20
397.1770080124596
 30
0.0
 10
48.63918566180881
 20
396.9282818623182
 30
0.0
 10
50.50404269751911
 20
396.7382752551037
 30
0.0
 10
52.07630312882627
 20
396.6171928285617
 30
0.0
 10
52.92456624846296
 20
396.5831348778408
 30
0.0
 10
53.22744498350728
 20
396.5712821722395
 30
0.0
  0
SPLINE
  5
D6
330
75
100
AcDbEntity
  8
DV1_Standard
  6
Continuous
 62
     7
100
AcDbSpline
210
0.0
220
0.0
230
1.0
 70
     8
 71
     3
 72
    75
 73
    71
 74
     0
 42
0.0000000000905341
 43
0.0000000001
 40
0.0
 40
0.0
 40
0.0
 40
0.0
 40
0.0083524365565899
 40
0.0232979702826113
 40
0.0382437841980481
 40
0.0531899283213495
 40
0.0681364451093577
 40
0.0830833666212852
 40
0.0980307116254449
 40
0.1129784825409833
 40
0.1279266621957566
 40
0.1428752103907624
 40
0.1578240602737545
 40
0.1727731021426586
 40
0.1877221656647803
 40
0.2026710673578128
 40
0.217619580146944
 40
0.2325674296553567
 40
0.2475142909165847
 40
0.2624597857520878
 40
0.277403481116844
 40
0.2923448887707206
 40
0.307283466682067
 40
0.322218622606316
 40
0.3371497202966759
 40
0.3520760887849881
 40
0.3669970351077287
 40
0.3819118607322479
 40
0.3968198817542577
 40
0.4117204526847921
 40
0.4266129933287885
 40
0.4414970178929935
 40
0.4563721650767203
 40
0.4712382275344141
 40
0.4860951788041613
 40
0.5009431956239843
 40
0.5157826735561659
 40
0.5306142340440329
 40
0.5454387214466807
 40
0.5602571892182384
 40
0.5750708751720194
 40
0.5898811666223563
 40
0.6046895570372784
 40
0.6194974148461861
 40
0.634305962879648
 40
0.6491167301766688
 40
0.6639311632196496
 40
0.6787505800230843
 40
0.693576131929512
 40
0.7084087749238501
 40
0.7232492515098085
 40
0.7380980833538887
 40
0.7529555741203902
 40
0.76782182126908
 40
0.7826967351170205
 40
0.7975800632008816
 40
0.8124714179121763
 40
0.8273703054889051
 40
0.8422761546908175
 40
0.857188343813672
 40
0.8721062250613245
 40
0.8870291456534205
 40
0.9019564653685856
 40
0.9168875704907504
 40
0.931821884329525
 40
0.9467588746263381
 40
0.9616980582409335
 40
0.9766390035491933
 40
0.9915813309828827
 40
1.0
 40
1.0
 40
1.0
 40
1.0
 10
59.09305101385482
 20
396.5712650777971
 30
0.0
 10
59.48065277142069
 20
396.5875108636221
 30
0.0
 10
60.39840542327168
 20
396.6271590544017
 30
0.0
 10
62.0459197941984
 20
396.7584629716097
 30
0.0
 10
63.91064127694218
 20
396.9556972634753
 30
0.0
 10
65.77987335997686
 20
397.2109850218027
 30
0.0
 10
67.63109787968423
 20
397.5199437787133
 30
0.0
 10
69.46696365468284
 20
397.8832234534515
 30
0.0
 10
71.28340267749465
 20
398.3000294366857
 30
0.0
 10
73.0781780495923
 20
398.7698587783871
 30
0.0
 10
74.84859782200441
 20
399.2920356704238
 30
0.0
 10
76.59213189191598
 20
399.8658366910114
 30
0.0
 10
78.30625047737041
 20
400.4904578961489
 30
0.0
 10
79.98847054950194
 20
401.1650239892522
 30
0.0
 10
81.63634841993229
 20
401.8885868206378
 30
0.0
 10
83.24748666543182
 20
402.6601269206936
 30
0.0
 10
84.81953744869243
 20
403.4785545941123
 30
0.0
 10
86.35020509257045
 20
404.3427103532346
 30
0.0
 10
87.83724940172135
 20
405.2513657295387
 30
0.0
 10
89.27848912252317
 20
406.2032241537538
 30
0.0
 10
90.67180546308587
 20
407.196921907154
 30
0.0
 10
92.01514571757549
 20
408.2310291805179
 30
0.0
 10
93.30652700133743
 20
409.3040512797652
 30
0.0
 10
94.544040104561
 20
410.4144300283174
 30
0.0
 10
95.72585345852494
 20
411.5605454239719
 30
0.0
 10
96.85021719385942
 20
412.7407176141162
 30
0.0
 10
97.91546725108749
 20
413.9532092550849
 30
0.0
 10
98.92002948173248
 20
415.1962283179281
 30
0.0
 10
99.86242365470815
 20
416.4679313919988
 30
0.0
 10
100.7412672599156
 20
417.7664275184525
 30
0.0
 10
101.5552789820203
 20
419.089782557304
 30
0.0
 10
102.3032817058923
 20
420.4360240548522
 30
0.0
 10
102.9842049149075
 20
421.8031465350283
 30
0.0
 10
103.597086357434
 20
423.1891170923529
 30
0.0
 10
104.1410728873085
 20
424.5918811207813
 30
0.0
 10
104.6154204308699
 20
426.0093679780045
 30
0.0
 10
105.0194930935351
 20
427.4394963650649
 30
0.0
 10
105.3527614876589
 20
428.8801792017252
 30
0.0
 10
105.614800432898
 20
430.3293278023357
 30
0.0
 10
105.8052862414593
 20
431.7848552050109
 30
0.0
 10
105.9239938444323
 20
433.2446785758004
 30
0.0
 10
105.9707940343864
 20
434.7067206916845
 30
0.0
 10
105.9456511917804
 20
436.1689046141628
 30
0.0
 10
105.8486234581709
 20
437.6291488078536
 30
0.0
 10
105.6798633142966
 20
439.0853786390797
 30
0.0
 10
105.4396156434841
 20
440.5355325228198
 30
0.0
 10
105.1282148677487
 20
441.9775667058924
 30
0.0
 10
104.7460867048462
 20
443.4094438294158
 30
0.0
 10
104.2937498108143
 20
444.8291331294624
 30
0.0
 10
103.771817822679
 20
446.2346113628521
 30
0.0
 10
103.1810015432134
 20
447.6238645604676
 30
0.0
 10
102.5221110034417
 20
448.9948906291548
 30
0.0
 10
101.7960571603218
 20
450.3457027439717
 30
0.0
 10
101.0038530320243
 20
451.6743334069569
 30
0.0
 10
100.1466141307077
 20
452.9788390040107
 30
0.0
 10
99.22555812490856
 20
454.2573046631787
 30
0.0
 10
98.24200370132263
 20
455.5078492330094
 30
0.0
 10
97.19736874527263
 20
456.7286301507198
 30
0.0
 10
96.09316764453044
 20
457.9178482427532
 30
0.0
 10
94.93100887551462
 20
459.0737516286546
 30
0.0
 10
93.712589081435
 20
460.1946413324687
 30
0.0
 10
92.43969837564042
 20
461.2788685690521
 30
0.0
 10
91.11418241983851
 20
462.3248610292692
 30
0.0
 10
89.73806508717789
 20
463.3310388111494
 30
0.0
 10
88.31307120506263
 20
464.2961403876706
 30
0.0
 10
86.84238890013515
 20
465.2180160239017
 30
0.0
 10
85.32407156111645
 20
466.0981407416718
 30
0.0
 10
83.77564840942392
 20
466.9247756055066
 30
0.0
 10
82.37999183279287
 20
467.6177755723793
 30
0.0
 10
81.58203151088232
 20
467.974170413214
 30
0.0
 10
81.242938184398
 20
468.125033451706
 30
0.0
  0
SPLINE
  5
D7
330
75
100
AcDbEntity
  8
DV1_Standard
  6
Continuous
 62
     7
100
AcDbSpline
210
0.0
220
0.0
230
1.0
 70
     8
 71
     3
 72
    58
 73
    54
 74
     0
 42
0.0000000001161473
 43
0.0000000001
 40
0.0
 40
0.0
 40
0.0
 40
0.0
 40
0.0115203727145926
 40
0.0315793743330771
 40
0.0516421764562067
 40
0.0717083495139104
 40
0.0917774685122535
 40
0.1118491237261432
 40
0.1319229287820941
 40
0.1519985263695866
 40
0.172075591888598
 40
0.1921538353697444
 40
0.2122330020017265
 40
0.2323128715788693
 40
0.252393257146746
 40
0.272474003083755
 40
0.2925549828141173
 40
0.3126360887131959
 40
0.3327172314142768
 40
0.3527983628378921
 40
0.3728794528779289
 40
0.3929604869948997
 40
0.4130414639340071
 40
0.4331223935705223
 40
0.4532032948777945
 40
0.473284194005893
 40
0.4933651224537465
 40
0.5134461153140049
 40
0.5335272072555323
 40
0.5536084254463363
 40
0.5736898062596283
 40
0.5937713834544718
 40
0.6138531864299586
 40
0.6339352384113651
 40
0.6540175545439327
 40
0.6741001398739543
 40
0.6941829872010435
 40
0.7142660747911397
 40
0.734349363947938
 40
0.7544327944331024
 40
0.7745162564126724
 40
0.7945996357722273
 40
0.8146827898264604
 40
0.8347655446956966
 40
0.8548476929364143
 40
0.8749289915950895
 40
0.8950091609006733
 40
0.915087883854547
 40
0.9351648070181551
 40
0.9552395428317575
 40
0.9753116738161921
 40
0.9953807590035111
 40
1.0
 40
1.0
 40
1.0
 40
1.0
 10
94.82930575336148
 20
459.1630323222442
 30
0.0
 10
94.63349602787041
 20
459.3865807716109
 30
0.0
 10
94.09022513633634
 20
459.9924037445498
 30
0.0
 10
93.1557599600587
 20
460.9672647248883
 30
0.0
 10
92.0122133942963
 20
462.0671706818165
 30
0.0
 10
90.8125648681082
 20
463.1322745159902
 30
0.0
 10
89.55954200333758
 20
464.1601265183008
 30
0.0
 10
88.25485999226917
 20
465.1493461017438
 30
0.0
 10
86.9006081886606
 20
466.0983445757381
 30
0.0
 10
85.49887378195858
 20
467.0056704325478
 30
0.0
 10
84.05183789824119
 20
467.8699195161828
 30
0.0
 10
82.56174506045285
 20
468.6897615655498
 30
0.0
 10
81.03090656794141
 20
469.4639353630182
 30
0.0
 10
79.4616947699411
 20
470.191252115572
 30
0.0
 10
77.85653976154181
 20
470.8705964706832
 30
0.0
 10
76.21792540826829
 20
471.5009280234823
 30
0.0
 10
74.54838573298349
 20
472.0812824884566
 30
0.0
 10
72.85050119798434
 20
472.61077287678
 30
0.0
 10
71.12689424432558
 20
473.0885908059049
 30
0.0
 10
69.38022511046162
 20
473.5140075067148
 30
0.0
 10
67.61318766678026
 20
473.8863746855014
 30
0.0
 10
65.82850598403606
 20
474.2051251591414
 30
0.0
 10
64.02893027865592
 20
474.4697735753271
 30
0.0
 10
62.21723282364855
 20
474.6799170320432
 30
0.0
 10
60.39620382907992
 20
474.8352355931473
 30
0.0
 10
58.56864729680949
 20
474.935492697265
 30
0.0
 10
56.73737685494935
 20
474.9805354575761
 30
0.0
 10
54.90521164839513
 20
474.9702948509992
 30
0.0
 10
53.07497238501607
 20
474.9047858147116
 30
0.0
 10
51.24947681783288
 20
474.7841072386869
 30
0.0
 10
49.43153546833073
 20
474.608441800735
 30
0.0
 10
47.62394720826326
 20
474.3780556439982
 30
0.0
 10
45.82949541826342
 20
474.0932980069301
 30
0.0
 10
44.05094386583401
 20
473.7546007333161
 30
0.0
 10
42.29103261620758
 20
473.3624776760122
 30
0.0
 10
40.55247398182409
 20
472.9175239977406
 30
0.0
 10
38.83794851542189
 20
472.4204153728574
 30
0.0
 10
37.15010105068539
 20
471.8719070943234
 30
0.0
 10
35.49153684946852
 20
471.2728331109572
 30
0.0
 10
33.864818478266
 20
470.624105262347
 30
0.0
 10
32.27246136943199
 20
469.9267120238446
 30
0.0
 10
30.71692998006134
 20
469.1817172833946
 30
0.0
 10
29.20063345323315
 20
468.3902587239118
 30
0.0
 10
27.72592232713592
 20
467.5535465348292
 30
0.0
 10
26.29508559411767
 20
466.6728625154905
 30
0.0
 10
24.91034443546295
 20
465.7495564760321
 30
0.0
 10
23.57385847875496
 20
464.785052319949
 30
0.0
 10
22.28768540638
 20
463.780817545782
 30
0.0
 10
21.05391469139969
 20
462.7384687337017
 30
0.0
 10
19.87415160101315
 20
461.6593689830876
 30
0.0
 10
18.75142566247449
 20
460.5461203658609
 30
0.0
 10
17.9571489399311
 20
459.6918008865243
 30
0.0
 10
17.53731496834637
 20
459.2151987308749
 30
0.0
 10
17.45927997690542
 20
459.1257422006703
 30
0.0
  0
SPLINE
  5
D8
330
75
100
AcDbEntity
  8
DV1_Standard
  6
Continuous
 62
     7
100
AcDbSpline
210
0.0
220
0.0
230
1.0
 70
     8
 71
     3
 72
    19
 73
    15
 74
     0
 42
0.0000000124364872
 43
0.0000000001
 40
0.0
 40
0.0
 40
0.0
 40
0.0
 40
0.0884745875621548
 40
0.209771557169178
 40
0.3094504623603493
 40
0.3936499144751413
 40
0.4615944070626989
 40
0.5095961599327514
 40
0.5483400025725756
 40
0.5944867205440427
 40
0.6666780360740893
 40
0.7978099649305836
 40
0.9856999585299413
 40
1.0
 40
1.0
 40
1.0
 40
1.0
 10
53.2256527581326
 20
396.5570552405101
 30
0.0
 10
53.26755634819501
 20
396.5562713781256
 30
0.0
 10
53.35284157526539
 20
396.5532267353746
 30
0.0
 10
53.47835365138457
 20
396.491387359704
 30
0.0
 10
53.57759970752738
 20
396.405760176105
 30
0.0
 10
53.64004943824641
 20
396.3177258641721
 30
0.0
 10
53.67363905709106
 20
396.2425592381068
 30
0.0
 10
53.68814179381412
 20
396.1924680911351
 30
0.0
 10
53.69387625151077
 20
396.1647167697608
 30
0.0
 10
53.69634345274274
 20
396.1483760110524
 30
0.0
 10
53.69641378691473
 20
396.1456399634366
 30
0.0
 10
53.69398376959448
 20
396.1757014893037
 30
0.0
 10
53.69130515284915
 20
396.2166481653599
 30
0.0
 10
53.6898324560738
 20
396.2578588571408
 30
0.0
 10
53.68971131395074
 20
396.2612480161768
 30
0.0
  0
SPLINE
  5
D9
330
75
100
AcDbEntity
  8
DV1_Standard
  6
Continuous
 62
     7
100
AcDbSpline
210
0.0
220
0.0
230
1.0
 70
     8
 71
     3
 72
    15
 73
    11
 74
     0
 42
0.0000000145817065
 43
0.0000000001
 40
0.0
 40
0.0
 40
0.0
 40
0.0
 40
0.1236974747518823
 40
0.2002223988355835
 40
0.271442594722137
 40
0.3874528409107129
 40
0.552851916154813
 40
0.7373316170196548
 40
0.9470980204576646
 40
1.0
 40
1.0
 40
1.0
 40
1.0
 10
58.62492285273562
 20
396.1479721392817
 30
0.0
 10
58.62485720344212
 20
396.1478151936551
 30
0.0
 10
58.62532026559801
 20
396.1525503396415
 30
0.0
 10
58.63067896369303
 20
396.1823906022074
 30
0.0
 10
58.64484425514966
 20
396.2349318070353
 30
0.0
 10
58.68165629444645
 20
396.3211441871011
 30
0.0
 10
58.75904419985699
 20
396.4253830787288
 30
0.0
 10
58.88383982477256
 20
396.5159008090207
 30
0.0
 10
59.00789786738965
 20
396.5649617146757
 30
0.0
 10
59.07656967402202
 20
396.5596791222924
 30
0.0
 10
59.0926260033455
 20
396.5583446964923
 30
0.0
  0
ELLIPSE
  5
DA
330
75
100
AcDbEntity
  8
DV1_Standard
  6
Continuous
 62
     7
100
AcDbEllipse
 10
56.1606007282
 20
434.0779202426
 30
0.0
 11
43.75000000000001
 21
2.775557561562891E-14
 31
0.0
210
0.0
220
0.0
230
1.0
 40
0.7660444431
 41
0.0
 42
0.1481062704527435
  0
ELLIPSE
  5
DB
330
75
100
AcDbEntity
  8
DV1_Standard
  6
Continuous
 62
     7
100
AcDbEllipse
 10
56.1606007282
 20
434.0779202426
 30
0.0
 11
43.75000000000001
 21
2.775557561562891E-14
 31
0.0
210
0.0
220
0.0
230
1.0
 40
0.7660444431
 41
2.993486383137005
 42
3.141592653589793
  0
ELLIPSE
  5
DC
330
75
100
AcDbEntity
  8
DV1_Standard
  6
Continuous
 62
     7
100
AcDbEllipse
 10
56.1606007282
 20
432.9873376912
 30
0.0
 11
43.75000000000001
 21
2.775557561562891E-14
 31
0.0
210
0.0
220
0.0
230
1.0
 40
0.7660444431
 41
0.0
 42
0.5379418657450066
  0
ELLIPSE
  5
DD
330
75
100
AcDbEntity
  8
DV1_Standard
  6
Continuous
 62
     7
100
AcDbEllipse
 10
56.1606007282
 20
432.9873376912
 30
0.0
 11
43.75000000000001
 21
2.775557561562891E-14
 31
0.0
210
0.0
220
0.0
230
1.0
 40
0.7660444431
 41
2.618114695151451
 42
3.685961656438582
  0
ELLIPSE
  5
DE
330
75
100
AcDbEntity
  8
DV1_Standard
  6
Continuous
 62
     7
100
AcDbEllipse
 10
56.1606007282
 20
432.9873376912
 30
0.0
 11
43.75000000000001
 21
2.775557561562891E-14
 31
0.0
210
0.0
220
0.0
230
1.0
 40
0.7660444431
 41
5.750562772733478
 42
6.283185307179585
  0
ELLIPSE
  5
DF
330
75
100
AcDbEntity
  8
DV1_Standard
  6
Continuous
 62
     7
100
AcDbEllipse
 10
56.1606007282
 20
432.8716660059
 30
0.0
 11
43.63727454909827
 21
0.0
 31
0.0
210
0.0
220
0.0
230
1.0
 40
0.7660444431
 41
4.614637949373552
 42
4.957156754857616
  0
ELLIPSE
  5
E0
330
75
100
AcDbEntity
  8
DV1_Standard
  6
Continuous
 62
     7
100
AcDbEllipse
 10
56.1606007282
 20
429.0374485258
 30
0.0
 11
-28.1995186705842
 21
2.775557561562892E-14
 31
0.0
210
0.0
220
0.0
230
1.0
 40
0.7660444431
 41
0.0
 42
6.283185307179586
  0
SPLINE
  5
E1
330
75
100
AcDbEntity
  8
DV1_Standard
  6
Continuous
 62
     7
100
AcDbSpline
210
0.0
220
0.0
230
1.0
 70
    11
 71
     3
 72
    68
 73
    64
 74
     0
 42
0.0000000000644281
 43
0.0000000001
 40
0.0
 40
0.0
 40
0.0
 40
0.0
 40
0.0312499999999999
 40
0.0312499999999999
 40
0.0624999999999998
 40
0.0624999999999998
 40
0.0937499999999998
 40
0.0937499999999998
 40
0.1249999999999998
 40
0.1249999999999998
 40
0.1562499999999998
 40
0.1562499999999998
 40
0.1874999999999998
 40
0.1874999999999998
 40
0.2187499999999998
 40
0.2187499999999998
 40
0.2499999999999997
 40
0.2499999999999997
 40
0.2812499999999997
 40
0.2812499999999997
 40
0.3124999999999997
 40
0.3124999999999997
 40
0.3437499999999996
 40
0.3437499999999996
 40
0.3749999999999996
 40
0.3749999999999996
 40
0.4062499999999996
 40
0.4062499999999996
 40
0.4374999999999996
 40
0.4374999999999996
 40
0.4687499999999995
 40
0.4687499999999995
 40
0.4999999999999996
 40
0.4999999999999996
 40
0.5312499999999996
 40
0.5312499999999996
 40
0.5624999999999996
 40
0.5624999999999996
 40
0.5937499999999997
 40
0.5937499999999997
 40
0.6249999999999997
 40
0.6249999999999997
 40
0.6562499999999997
 40
0.6562499999999997
 40
0.6874999999999997
 40
0.6874999999999997
 40
0.7187499999999998
 40
0.7187499999999998
 40
0.7499999999999998
 40
0.7499999999999998
 40
0.7812499999999998
 40
0.7812499999999998
 40
0.8124999999999998
 40
0.8124999999999998
 40
0.8437499999999999
 40
0.8437499999999999
 40
0.8749999999999999
 40
0.8749999999999999
 40
0.9062499999999999
 40
0.9062499999999999
 40
0.9374999999999999
 40
0.9374999999999999
 40
1.0
 40
1.0
 40
1.0
 40
1.0
 10
78.8696371616422
 20
416.7277079485497
 30
0.0
 10
79.94076084218977
 20
417.8688176319159
 30
0.0
 10
80.8475888364363
 20
419.0716177861074
 30
0.0
 10
82.34608952596115
 20
421.5955539640762
 30
0.0
 10
82.94153265122479
 20
422.9319577587946
 30
0.0
 10
83.77144956578744
 20
425.6490199844111
 30
0.0
 10
84.00902920850606
 20
427.0237652519608
 30
0.0
 10
84.13260732088001
 20
429.8053937378861
 30
0.0
 10
84.01315678089344
 20
431.2205748043145
 30
0.0
 10
83.4251083642179
 20
433.9634217835297
 30
0.0
 10
82.95929793020497
 20
435.3056002347349
 30
0.0
 10
81.67590368295005
 20
437.9300709263221
 30
0.0
 10
80.86506085887444
 20
439.1917924959263
 30
0.0
 10
78.95618510431193
 20
441.5522440716758
 30
0.0
 10
77.84442091980543
 20
442.6686893595672
 30
0.0
 10
75.34577031811716
 20
444.7204172566983
 30
0.0
 10
73.98348228665016
 20
445.6384259515007
 30
0.0
 10
71.03900901828428
 20
447.264488527284
 30
0.0
 10
69.43789388398496
 20
447.9776026830714
 30
0.0
 10
66.12797086601607
 20
449.1347816816559
 30
0.0
 10
64.41424309319834
 20
449.5853655727559
 30
0.0
 10
60.86859954827899
 20
450.2290943788774
 30
0.0
 10
59.03824206793094
 20
450.4179711211528
 30
0.0
 10
55.41717786719237
 20
450.5180356825315
 30
0.0
 10
53.60654598056083
 20
450.4336784934854
 30
0.0
 10
49.98507484835978
 20
449.9856986415867
 30
0.0
 10
48.22782285268539
 20
449.6281737860098
 30
0.0
 10
44.83609597015429
 20
448.6603607927613
 30
0.0
 10
43.18193810510529
 20
448.0413500612246
 30
0.0
 10
40.08277480843758
 20
446.5739826889706
 30
0.0
 10
38.64490310024417
 20
445.7330178863587
 30
0.0
 10
35.98981844029542
 20
443.8391777068092
 30
0.0
 10
34.76714887720395
 20
442.7762461604322
 30
0.0
 10
32.64996625330446
 20
440.5224138379378
 30
0.0
 10
31.74077294945659
 20
439.3236146243266
 30
0.0
 10
30.22725979533121
 20
436.7793259266991
 30
0.0
 10
29.635329364098
 20
435.4480560997958
 30
0.0
 10
28.8076255851833
 20
432.7488147773016
 30
0.0
 10
28.56437335012119
 20
431.3615723325307
 30
0.0
 10
28.43922529374453
 20
428.5580975856967
 30
0.0
 10
28.55661754255485
 20
427.1720517476444
 30
0.0
 10
29.14051613523854
 20
424.4303998640509
 30
0.0
 10
29.61571664117309
 20
423.0604637166097
 30
0.0
 10
30.8922905119067
 20
420.4492423294938
 30
0.0
 10
31.690224849827
 20
419.2028724688646
 30
0.0
 10
33.6060628309266
 20
416.8288647008952
 30
0.0
 10
34.72896215090075
 20
415.7027634234688
 30
0.0
 10
37.20207381311351
 20
413.6694684778618
 30
0.0
 10
38.56216506941289
 20
412.7481661545248
 30
0.0
 10
41.53816288020416
 20
411.103000805889
 30
0.0
 10
43.11642822299254
 20
410.4011981108708
 30
0.0
 10
46.41235355045907
 20
409.2458859647116
 30
0.0
 10
48.15349091954999
 20
408.7864860175253
 30
0.0
 10
51.70635653441202
 20
408.1413274594754
 30
0.0
 10
53.50173424296726
 20
407.9553238827784
 30
0.0
 10
57.12978223148966
 20
407.8521626363163
 30
0.0
 10
58.97759945206485
 20
407.9391040675598
 30
0.0
 10
62.56002119755512
 20
408.3814481107803
 30
0.0
 10
64.31074197903531
 20
408.7342532630297
 30
0.0
 10
67.729841012861
 20
409.707558813224
 30
0.0
 10
69.3809343260339
 20
410.3264049857639
 30
0.0
 10
73.99967042106276
 20
412.5091875290877
 30
0.0
 10
76.72738980054707
 20
414.4454885818173
 30
0.0
 10
78.8696371616422
 20
416.7277079485497
 30
0.0
  0
SPLINE
  5
E2
330
75
100
AcDbEntity
  8
DV1_Standard
  6
Continuous
 62
     7
100
AcDbSpline
210
0.0
220
0.0
230
1.0
 70
    11
 71
     3
 72
    68
 73
    64
 74
     0
 42
0.0000000000658332
 43
0.0000000001
 40
0.0
 40
0.0
 40
0.0
 40
0.0
 40
0.0312499999999999
 40
0.0312499999999999
 40
0.0624999999999998
 40
0.0624999999999998
 40
0.0937499999999997
 40
0.0937499999999997
 40
0.1249999999999996
 40
0.1249999999999996
 40
0.1562499999999995
 40
0.1562499999999995
 40
0.1874999999999994
 40
0.1874999999999994
 40
0.2187499999999993
 40
0.2187499999999993
 40
0.2499999999999992
 40
0.2499999999999992
 40
0.2812499999999991
 40
0.2812499999999991
 40
0.312499999999999
 40
0.312499999999999
 40
0.3437499999999989
 40
0.3437499999999989
 40
0.3749999999999988
 40
0.3749999999999988
 40
0.4062499999999987
 40
0.4062499999999987
 40
0.4374999999999987
 40
0.4374999999999987
 40
0.4687499999999986
 40
0.4687499999999986
 40
0.4999999999999984
 40
0.4999999999999984
 40
0.5312499999999986
 40
0.5312499999999986
 40
0.5624999999999987
 40
0.5624999999999987
 40
0.5937499999999988
 40
0.5937499999999988
 40
0.6249999999999989
 40
0.6249999999999989
 40
0.6562499999999991
 40
0.6562499999999991
 40
0.6874999999999992
 40
0.6874999999999992
 40
0.7187499999999993
 40
0.7187499999999993
 40
0.7499999999999994
 40
0.7499999999999994
 40
0.7812499999999994
 40
0.7812499999999994
 40
0.8124999999999994
 40
0.8124999999999994
 40
0.8437499999999994
 40
0.8437499999999994
 40
0.8749999999999994
 40
0.8749999999999994
 40
0.9062499999999996
 40
0.9062499999999996
 40
0.9374999999999996
 40
0.9374999999999996
 40
1.0
 40
1.0
 40
1.0
 40
1.0
 10
83.1174387972072
 20
429.1420815645301
 30
0.0
 10
83.1174387972072
 20
427.7653622589035
 30
0.0
 10
82.94109401579439
 20
426.4119406092005
 30
0.0
 10
82.25013877647474
 20
423.7497870238638
 30
0.0
 10
81.72714737843847
 20
422.4272801885671
 30
0.0
 10
80.36172590448263
 20
419.90589406191
 30
0.0
 10
79.52616626968137
 20
418.7103435092279
 30
0.0
 10
77.55208794806275
 20
416.4483602154646
 30
0.0
 10
76.40306186802724
 20
415.3777365032988
 30
0.0
 10
73.89311228288976
 20
413.4594955512715
 30
0.0
 10
72.52359121327112
 20
412.5991355742587
 30
0.0
 10
69.54998898813537
 20
411.0806506769779
 30
0.0
 10
67.96656981233146
 20
410.4358820657472
 30
0.0
 10
64.69323842362776
 20
409.4020114707478
 30
0.0
 10
62.97923592317454
 20
409.0048874622292
 30
0.0
 10
59.46780550546711
 20
408.4754102978621
 30
0.0
 10
57.70278743017261
 20
408.3459528571313
 30
0.0
 10
54.15464208996621
 20
408.350379590162
 30
0.0
 10
52.35271814166452
 20
408.4885726243504
 30
0.0
 10
48.86381351803074
 20
409.0258591093445
 30
0.0
 10
47.16808283784612
 20
409.421941012085
 30
0.0
 10
43.87460734731896
 20
410.4704013977728
 30
0.0
 10
42.28126580522439
 20
411.1254871405887
 30
0.0
 10
39.33292666075939
 20
412.6386099144767
 30
0.0
 10
37.95879522011982
 20
413.501874128286
 30
0.0
 10
35.41841234382243
 20
415.4501318340809
 30
0.0
 10
34.29013445018361
 20
416.5067297571708
 30
0.0
 10
32.319334739163
 20
418.7665208990397
 30
0.0
 10
31.46768320132936
 20
419.9852975463507
 30
0.0
 10
30.10121874748182
 20
422.5128934616727
 30
0.0
 10
29.58656438274769
 20
423.8127032518913
 30
0.0
 10
28.89024054655574
 20
426.4834555108326
 30
0.0
 10
28.71173159689239
 20
427.8647800211638
 30
0.0
 10
28.7104765429531
 20
430.5846674315547
 30
0.0
 10
28.88196384931602
 20
431.9359542363914
 30
0.0
 10
29.57616625553689
 20
434.6208620617415
 30
0.0
 10
30.09812172772045
 20
435.9377512934335
 30
0.0
 10
31.45202390325386
 20
438.4440194380701
 30
0.0
 10
32.29238944403102
 20
439.6519804749524
 30
0.0
 10
34.28149861186208
 20
441.9319949051375
 30
0.0
 10
35.40718778454436
 20
442.9804005151655
 30
0.0
 10
37.91295149904745
 20
444.8995156256115
 30
0.0
 10
39.31060117328454
 20
445.7777751964386
 30
0.0
 10
42.26892991893506
 20
447.2887481410557
 30
0.0
 10
43.83066245031455
 20
447.9270064200243
 30
0.0
 10
47.11961220290838
 20
448.968571992898
 30
0.0
 10
48.84965990644382
 20
449.368465417637
 30
0.0
 10
52.32708199033753
 20
449.8945428798442
 30
0.0
 10
54.0928062719333
 20
450.0275801262078
 30
0.0
 10
57.68019319798413
 20
450.0244506940947
 30
0.0
 10
59.45557379602723
 20
449.8873281726619
 30
0.0
 10
62.93196955739018
 20
449.3547174360357
 30
0.0
 10
64.65601321712386
 20
448.9535808012886
 30
0.0
 10
67.9563034830189
 20
447.9030735112609
 30
0.0
 10
69.51973773458603
 20
447.2610929327899
 30
0.0
 10
72.47591986780806
 20
445.7473601799753
 30
0.0
 10
73.8776403490954
 20
444.8656903048691
 30
0.0
 10
76.39124068028303
 20
442.9390713943356
 30
0.0
 10
77.51784223454325
 20
441.8890989345037
 30
0.0
 10
79.50627073455631
 20
439.6129143083681
 30
0.0
 10
80.35561713364908
 20
438.3956100014504
 30
0.0
 10
82.39510461622193
 20
434.631916594249
 30
0.0
 10
83.1174387972072
 20
431.8955201757832
 30
0.0
 10
83.1174387972072
 20
429.1420815645301
 30
0.0
  0
ELLIPSE
  5
E3
330
75
100
AcDbEntity
  8
DV1_Standard
  6
Continuous
 62
     7
100
AcDbEllipse
 10
56.1606007282
 20
426.7600344032
 30
0.0
 11
1.750000000000002
 21
0.0
 31
0.0
210
0.0
220
0.0
230
1.0
 40
0.7660444431
 41
0.0
 42
6.283185307179586
  0
LINE
  5
E4
330
75
100
AcDbEntity
  8
DV1_Standard
  6
Continuous
 62
     7
100
AcDbLine
 10
99.9106007282
 20
432.9873376912
 30
0.0
 11
99.9106007282
 21
434.0779202426
 31
0.0
  0
LINE
  5
E5
330
75
100
AcDbEntity
  8
DV1_Standard
  6
Continuous
 62
     7
100
AcDbLine
 10
12.4106007282
 20
434.0779202426
 30
0.0
 11
12.4106007282
 21
432.9873376912
 31
0.0
  0
ARC
  5
E6
330
75
100
AcDbEntity
  8
DV1_Standard
  6
Continuous
 62
     7
100
AcDbCircle
 10
59.6307003902
 20
444.283936542
 30
0.0
 40
44.42674428760097
100
AcDbArc
 50
279.3191431313
 51
320.3363950724
  0
ARC
  5
E7
330
75
100
AcDbEntity
  8
DV1_Standard
  6
Continuous
 62
     7
100
AcDbCircle
 10
53.9325771483
 20
446.1366843413
 30
0.0
 40
46.58886554828482
100
AcDbArc
 50
220.9701952302
 51
267.4345342143
  0
LINE
  5
E8
330
75
100
AcDbEntity
  8
DV1_Standard
  6
Continuous
 62
     7
100
AcDbLine
 10
49.4176224506
 20
392.1324086826
 30
0.0
 11
48.2050527098
 21
392.1324086826
 31
0.0
  0
ARC
  5
E9
330
75
100
AcDbEntity
  8
DV1_Standard
  6
Continuous
 62
     7
100
AcDbCircle
 10
50.6075598276
 20
1326.7381402743
 30
0.0
 40
934.6064891038432
100
AcDbArc
 50
269.9270512148
 51
270.0729487852
  0
LINE
  5
EA
330
75
100
AcDbEntity
  8
DV1_Standard
  6
Continuous
 62
     7
100
AcDbLine
 10
56.0072993307
 20
392.1324086826
 30
0.0
 11
51.7974972046
 21
392.1324086826
 31
0.0
  0
LINE
  5
EB
330
75
100
AcDbEntity
  8
DV1_Standard
  6
Continuous
 62
     7
100
AcDbLine
 10
56.5343174982
 20
392.1324086826
 30
0.0
 11
56.0072993307
 21
392.1324086826
 31
0.0
  0
LINE
  5
EC
330
75
100
AcDbEntity
  8
DV1_Standard
  6
Continuous
 62
     7
100
AcDbLine
 10
60.7325907489
 20
392.1324086826
 30
0.0
 11
56.5343174983
 21
392.1324086826
 31
0.0
  0
ARC
  5
ED
330
75
100
AcDbEntity
  8
DV1_Standard
  6
Continuous
 62
     7
100
AcDbCircle
 10
61.9142111036
 20
1313.3979912163
 30
0.0
 40
921.2663403098234
100
AcDbArc
 50
269.9265121552
 51
270.0734878448
  0
LINE
  5
EE
330
75
100
AcDbEntity
  8
DV1_Standard
  6
Continuous
 62
     7
100
AcDbLine
 10
64.2964038503
 20
392.1324086826
 30
0.0
 11
63.0958314583
 21
392.1324086826
 31
0.0
  0
SPLINE
  5
EF
330
75
100
AcDbEntity
  8
DV1_Standard
  6
Continuous
 62
     7
100
AcDbSpline
210
0.0
220
0.0
230
1.0
 70
     8
 71
     3
 72
    12
 73
     8
 74
     0
 42
0.0000000017116822
 43
0.0000000001
 40
0.0
 40
0.0
 40
0.0
 40
0.0
 40
0.2318194313879874
 40
0.4487014663903696
 40
0.6490335492430525
 40
0.8328033946541132
 40
1.0
 40
1.0
 40
1.0
 40
1.0
 10
70.13858399126835
 20
392.1249106684003
 30
0.0
 10
70.13677836386316
 20
392.1251860301211
 30
0.0
 10
69.91460279165345
 20
392.1258940331508
 30
0.0
 10
68.99723652892776
 20
392.127138445667
 30
0.0
 10
67.66361387197296
 20
392.1286378066895
 30
0.0
 10
66.09498749932038
 20
392.130313575438
 30
0.0
 10
64.87675607150959
 20
392.1317326506035
 30
0.0
 10
64.29640385033214
 20
392.1324086825991
 30
0.0
  0
SPLINE
  5
F0
330
75
100
AcDbEntity
  8
DV1_Standard
  6
Continuous
 62
     7
100
AcDbSpline
210
0.0
220
0.0
230
1.0
 70
     8
 71
     3
 72
    20
 73
    16
 74
     0
 42
0.0000000016604412
 43
0.0000000001
 40
0.0
 40
0.0
 40
0.0
 40
0.0
 40
0.0888093888301298
 40
0.1765581199213112
 40
0.2632459354422855
 40
0.3488725846780818
 40
0.4334378240123883
 40
0.516941416910733
 40
0.5993831339044692
 40
0.6807627525755638
 40
0.7610800575422106
 40
0.8403348404452543
 40
0.9185268999354473
 40
0.9956560416615354
 40
1.0
 40
1.0
 40
1.0
 40
1.0
 10
48.20505270976989
 20
392.1324086826021
 30
0.0
 10
47.88251524755344
 20
392.1320252794056
 30
0.0
 10
47.24129241421017
 20
392.1312630520283
 30
0.0
 10
46.36494092327853
 20
392.1302237451809
 30
0.0
 10
45.56400078234437
 20
392.1292697746018
 30
0.0
 10
44.84663537380324
 20
392.1284078756797
 30
0.0
 10
44.21359471865105
 20
392.1276362837842
 30
0.0
 10
43.66653404703779
 20
392.1269554695139
 30
0.0
 10
43.20588291405185
 20
392.126365314745
 30
0.0
 10
42.83146881337075
 20
392.1258658553079
 30
0.0
 10
42.54242096837999
 20
392.1254570857142
 30
0.0
 10
42.33726669860971
 20
392.125139010485
 30
0.0
 10
42.21397934209759
 20
392.1249116306602
 30
0.0
 10
42.18365970145435
 20
392.1248173144643
 30
0.0
 10
42.18257903581208
 20
392.1247860507662
 30
0.0
 10
42.18256232124674
 20
392.1247844319141
 30
0.0
  0
LINE
  5
F1
330
75
100
AcDbEntity
  8
DV1_Standard
  6
Continuous
 62
     7
100
AcDbLine
 10
68.5984016734
 20
283.8263851348
 30
0.0
 11
43.722799783
 21
283.8263851348
 31
0.0
  0
LINE
  5
F2
330
75
100
AcDbEntity
  8
DV1_Standard
  6
Continuous
 62
     7
100
AcDbLine
 10
70.2216223144
 20
292.5910745838
 30
0.0
 11
42.099579142
 21
292.5910745838
 31
0.0
  0
LINE
  5
F3
330
75
100
AcDbEntity
  8
DV1_Standard
  6
Continuous
 62
     7
100
AcDbLine
 10
70.4390021622
 20
299.5910745838
 30
0.0
 11
41.8821992941
 21
299.5910745838
 31
0.0
  0
LINE
  5
F4
330
75
100
AcDbEntity
  8
DV1_Standard
  6
Continuous
 62
     7
100
AcDbLine
 10
70.4029215123
 20
385.1041885891
 30
0.0
 11
41.9182799441
 21
385.1041885891
 31
0.0
  0
ARC
  5
F5
330
75
100
AcDbEntity
  8
DV1_Standard
  6
Continuous
 62
     7
100
AcDbCircle
 10
415.851817978
 20
540.2037456449
 30
0.0
 40
328.19740544704
100
AcDbArc
 50
194.150328247
 51
195.1461493289
  0
ARC
  5
F6
330
75
100
AcDbEntity
  8
DV1_Standard
  6
Continuous
 62
     7
100
AcDbCircle
 10
-318.8519420079
 20
544.4882848786
 30
0.0
 40
344.1061618920112
100
AcDbArc
 50
344.8291751196
 51
345.7819842171
  0
ARC
  5
F7
330
75
100
AcDbEntity
  8
DV1_Standard
  6
Continuous
 62
     7
100
AcDbCircle
 10
156.7700156043
 20
393.09194496
 30
0.0
 40
86.63393376209468
100
AcDbArc
 50
176.6884582114
 51
180.6395902061
  0
ARC
  5
F8
330
75
100
AcDbEntity
  8
DV1_Standard
  6
Continuous
 62
     7
100
AcDbCircle
 10
-45.8941251995
 20
393.2412714123
 30
0.0
 40
88.08140733589713
100
AcDbArc
 50
359.2735799063
 51
3.15824131
  0
SPLINE
  5
F9
330
75
100
AcDbEntity
  8
DV1_Standard
  6
Continuous
 62
     7
100
AcDbSpline
210
0.0
220
0.0
230
1.0
 70
     8
 71
     3
 72
    74
 73
    70
 74
     0
 42
0.0000000000940931
 43
0.0000000001
 40
0.0
 40
0.0
 40
0.0
 40
0.0
 40
0.009764285687397
 40
0.0244654067070237
 40
0.0391981892584327
 40
0.0539670777694439
 40
0.0687756149476627
 40
0.0836263842845915
 40
0.0985209867886823
 40
0.1134600531209077
 40
0.1284432903812853
 40
0.1434695606831447
 40
0.1585369866019128
 40
0.1736430768717212
 40
0.1887848645692553
 40
0.2039590496274732
 40
0.2191621378988987
 40
0.2343905700484534
 40
0.2496408351087399
 40
0.2649095653314407
 40
0.280193610770082
 40
0.2954900936297451
 40
0.3107964436841183
 40
0.3261104169329004
 40
0.3414301001590104
 40
0.3567539042002879
 40
0.3720805486501735
 40
0.3874090033708913
 40
0.4027383809309186
 40
0.4180682566408317
 40
0.4333984007323503
 40
0.4487287493140756
 40
0.4640593757640445
 40
0.4793904628683672
 40
0.4947222757550653
 40
0.5100551355267938
 40
0.5253893735981572
 40
0.5407252480705518
 40
0.5560631032333565
 40
0.5714032446992319
 40
0.5867459127981881
 40
0.6020912551138237
 40
0.6174392979509066
 40
0.6327899166485733
 40
0.6481428048091895
 40
0.6634973960180857
 40
0.6788526640569511
 40
0.6942074711033311
 40
0.7095603652056252
 40
0.7249095561824531
 40
0.7402528981961759
 40
0.7555878816356102
 40
0.7709116373585309
 40
0.7862209564700554
 40
0.8015123286482622
 40
0.8167820014820064
 40
0.832026062289832
 40
0.8472405424296124
 40
0.8624215422510745
 40
0.8775653727447814
 40
0.8926687078480938
 40
0.9077287395837174
 40
0.9227433270327126
 40
0.9377111298176843
 40
0.9526317173976573
 40
0.967505646995859
 40
0.9823345051796433
 40
0.9971209106653617
 40
1.0
 40
1.0
 40
1.0
 40
1.0
 10
97.59641674648206
 20
459.980121081274
 30
0.0
 10
97.51171461392141
 20
460.3146817321266
 30
0.0
 10
97.33006599843283
 20
461.0245116146492
 30
0.0
 10
96.93277124503587
 20
462.2565351815341
 30
0.0
 10
96.43607657091177
 20
463.5891029365833
 30
0.0
 10
95.86518181275422
 20
464.9145911768318
 30
0.0
 10
95.22763394447371
 20
466.2176832840722
 30
0.0
 10
94.52248289180476
 20
467.499724582992
 30
0.0
 10
93.75121751225672
 20
468.7575660279865
 30
0.0
 10
92.91483768411399
 20
469.9892626012738
 30
0.0
 10
92.0146535695501
 20
471.1925509585612
 30
0.0
 10
91.05207869626858
 20
472.3652729310133
 30
0.0
 10
90.02868988189927
 20
473.5052774924745
 30
0.0
 10
88.94621107007966
 20
474.6104642831731
 30
0.0
 10
87.80651339846011
 20
475.6787892204403
 30
0.0
 10
86.61160701709848
 20
476.7082795227862
 30
0.0
 10
85.36363188443617
 20
477.697044574651
 30
0.0
 10
84.06484642030172
 20
478.6432856527952
 30
0.0
 10
82.71761522021822
 20
479.5453033182991
 30
0.0
 10
81.32439638866475
 20
480.4015026628493
 30
0.0
 10
79.887729119786
 20
481.2103964489407
 30
0.0
 10
78.41022197786151
 20
481.970606397912
 30
0.0
 10
76.89454219543929
 20
482.6808629372432
 30
0.0
 10
75.34340616297239
 20
483.3400037593004
 30
0.0
 10
73.75957116327916
 20
483.9469715382367
 30
0.0
 10
72.14582830962877
 20
484.500811120581
 30
0.0
 10
70.50499790400646
 20
485.0006660534715
 30
0.0
 10
68.8399288463206
 20
485.4457745572621
 30
0.0
 10
67.15348640007656
 20
485.835469496166
 30
0.0
 10
65.44854726356301
 20
486.1691752556005
 30
0.0
 10
63.72799210047785
 20
486.4464049901379
 30
0.0
 10
61.99471162115298
 20
486.6667562636826
 30
0.0
 10
60.25160424859733
 20
486.8299093262227
 30
0.0
 10
58.50157394125556
 20
486.9356257058584
 30
0.0
 10
56.74752812158562
 20
486.9837470990968
 30
0.0
 10
54.99237643333033
 20
486.9741945463691
 30
0.0
 10
53.23903175736248
 20
486.906968121348
 30
0.0
 10
51.49040415769439
 20
486.782147011528
 30
0.0
 10
49.74939785492905
 20
486.5998892576398
 30
0.0
 10
48.01890616025986
 20
486.3604311250914
 30
0.0
 10
46.30181348604608
 20
486.0640876144141
 30
0.0
 10
44.60099361891844
 20
485.7112531512448
 30
0.0
 10
42.91930799683733
 20
485.3024026368442
 30
0.0
 10
41.25960395014822
 20
484.8380929003163
 30
0.0
 10
39.62471450298373
 20
484.3189651205944
 30
0.0
 10
38.01746366664941
 20
483.7457501732239
 30
0.0
 10
36.44065747758302
 20
483.1192709191298
 30
0.0
 10
34.89707935699088
 20
482.4404454603024
 30
0.0
 10
33.38947967683369
 20
481.7102875911887
 30
0.0
 10
31.92057720429209
 20
480.9299131567028
 30
0.0
 10
30.49305338580072
 20
480.100544388752
 30
0.0
 10
29.10954534967624
 20
479.2235141515426
 30
0.0
 10
27.77263747216685
 20
478.3002697877985
 30
0.0
 10
26.48485141203634
 20
477.3323761837269
 30
0.0
 10
25.2486346256057
 20
476.3215176240272
 30
0.0
 10
24.06634748688304
 20
475.2694979522065
 30
0.0
 10
22.94024937841802
 20
474.178238681816
 30
0.0
 10
21.87248399243445
 20
473.0497743547202
 30
0.0
 10
20.86506535636898
 20
471.8862461396506
 30
0.0
 10
19.91986208719901
 20
470.689889022982
 30
0.0
 10
19.03859282400735
 20
469.463029841387
 30
0.0
 10
18.22278858078936
 20
468.2080330783674
 30
0.0
 10
17.47389017931764
 20
466.9274310046623
 30
0.0
 10
16.79285901068453
 20
465.6233623061944
 30
0.0
 10
16.18161288898083
 20
464.2995768018362
 30
0.0
 10
15.63770028460871
 20
462.9539095707168
 30
0.0
 10
15.17410981042128
 20
461.6061648659103
 30
0.0
 10
14.86031949579973
 20
460.5721283176115
 30
0.0
 10
14.73850731888685
 20
460.0515252719911
 30
0.0
 10
14.71542232842176
 20
459.952522594819
 30
0.0
  0
LINE
  5
FA
330
75
100
AcDbEntity
  8
DV1_Standard
  6
Continuous
 62
     7
100
AcDbLine
 10
42.099579142
 20
292.5910745838
 30
0.0
 11
42.2230147559
 21
285.3009907922
 31
0.0
  0
LINE
  5
FB
330
75
100
AcDbEntity
  8
DV1_Standard
  6
Continuous
 62
     7
100
AcDbLine
 10
70.0981867004
 20
285.3009907922
 30
0.0
 11
70.2216223144
 21
292.5910745838
 31
0.0
  0
ARC
  5
FC
330
75
100
AcDbEntity
  8
DV1_Standard
  6
Continuous
 62
     7
100
AcDbCircle
 10
57.8168323489
 20
296.4796714916
 30
0.0
 40
13.00000000000057
100
AcDbArc
 50
342.595073569
 51
13.8475131639
  0
ARC
  5
FD
330
75
100
AcDbEntity
  8
DV1_Standard
  6
Continuous
 62
     7
100
AcDbCircle
 10
54.5043691075
 20
296.4796714916
 30
0.0
 40
13.00000000000057
100
AcDbArc
 50
166.1524868361
 51
197.404926431
  0
ARC
  5
FE
330
75
100
AcDbEntity
  8
DV1_Standard
  6
Continuous
 62
     7
100
AcDbCircle
 10
579.1274176013
 20
342.1209586837
 30
0.0
 40
538.9259834481161
100
AcDbArc
 50
175.4253900124
 51
184.5262602376
  0
ARC
  5
FF
330
75
100
AcDbEntity
  8
DV1_Standard
  6
Continuous
 62
     7
100
AcDbCircle
 10
-466.806216145
 20
342.1209586837
 30
0.0
 40
538.9259834481161
100
AcDbArc
 50
355.4737397624
 51
4.5746099876
  0
ARC
  5
100
330
75
100
AcDbEntity
  8
DV1_Standard
  6
Continuous
 62
     7
100
AcDbCircle
 10
57.7632381206
 20
388.1436628459
 30
0.0
 40
13.0
100
AcDbArc
 50
346.4787659511
 51
17.8355055389
  0
ARC
  5
101
330
75
100
AcDbEntity
  8
DV1_Standard
  6
Continuous
 62
     7
100
AcDbCircle
 10
54.5579633358
 20
388.1436628459
 30
0.0
 40
13.0
100
AcDbArc
 50
162.1407246314
 51
193.5212340489
  0
ARC
  5
102
330
75
100
AcDbEntity
  8
DV1_Standard
  6
Continuous
 62
     7
100
AcDbCircle
 10
68.5984016734
 20
285.3263851348
 30
0.0
 40
1.5
100
AcDbArc
 50
270.0
 51
359.0299612216
  0
ARC
  5
103
330
75
100
AcDbEntity
  8
DV1_Standard
  6
Continuous
 62
     7
100
AcDbCircle
 10
43.722799783
 20
285.3263851348
 30
0.0
 40
1.499999999999993
100
AcDbArc
 50
180.9700387784
 51
270.0
  0
ENDBLK
  5
105
330
75
100
AcDbEntity
  8
0
100
AcDbBlockEnd
  0
BLOCK
  5
1E6
330
106
100
AcDbEntity
  8
0
100
AcDbBlockBegin
  2
SE1
 70
     0
 10
0.0
 20
0.0
 30
0.0
  3
SE1
  1

  0
LINE
  5
109
330
106
100
AcDbEntity
  8
DV2_Standard
  6
Continuous
 62
     7
100
AcDbLine
 10
193.8287227958
 20
273.1763851348
 30
0.0
 11
175.4287227958
 21
273.1763851348
 31
0.0
  0
LINE
  5
10A
330
106
100
AcDbEntity
  8
DV2_Standard
  6
Continuous
 62
     7
100
AcDbLine
 10
193.8287227958
 20
274.3763851348
 30
0.0
 11
175.4287227958
 21
274.3763851348
 31
0.0
  0
LINE
  5
10B
330
106
100
AcDbEntity
  8
DV2_Standard
  6
Continuous
 62
     7
100
AcDbLine
 10
195.1062227958
 20
275.6538851348
 30
0.0
 11
174.1512227958
 21
275.6538851348
 31
0.0
  0
LINE
  5
10C
330
106
100
AcDbEntity
  8
DV2_Standard
  6
Continuous
 62
     7
100
AcDbLine
 10
195.5978841129
 20
283.1763851348
 30
0.0
 11
195.4435274635
 21
283.1763851348
 31
0.0
  0
LINE
  5
10D
330
106
100
AcDbEntity
  8
DV2_Standard
  6
Continuous
 62
     7
100
AcDbLine
 10
195.4435274635
 20
283.1763851348
 30
0.0
 11
194.9563741001
 21
283.1763851348
 31
0.0
  0
LINE
  5
10E
330
106
100
AcDbEntity
  8
DV2_Standard
  6
Continuous
 62
     7
100
AcDbLine
 10
194.9563741001
 20
283.1763851348
 30
0.0
 11
194.2816503115
 21
283.1763851348
 31
0.0
  0
LINE
  5
10F
330
106
100
AcDbEntity
  8
DV2_Standard
  6
Continuous
 62
     7
100
AcDbLine
 10
194.2816503115
 20
283.1763851348
 30
0.0
 11
173.4787227958
 21
283.1763851348
 31
0.0
  0
LINE
  5
110
330
106
100
AcDbEntity
  8
DV2_Standard
  6
Continuous
 62
     7
100
AcDbLine
 10
195.5978841129
 20
283.1763851348
 30
0.0
 11
195.6773652464
 21
283.18253841
 31
0.0
  0
LINE
  5
111
330
106
100
AcDbEntity
  8
DV2_Standard
  6
Continuous
 62
     7
100
AcDbLine
 10
194.6711104106
 20
283.6763851348
 30
0.0
 11
194.6711104106
 21
283.8263851348
 31
0.0
  0
SPLINE
  5
112
330
106
100
AcDbEntity
  8
DV2_Standard
  6
Continuous
 62
     7
100
AcDbSpline
210
0.0
220
0.0
230
1.0
 70
     8
 71
     3
 72
    12
 73
     8
 74
     0
 42
0.000000014230622
 43
0.0000000001
 40
0.0
 40
0.0
 40
0.0
 40
0.0
 40
0.2499999999999998
 40
0.2499999999999998
 40
0.4999999999999997
 40
0.4999999999999997
 40
1.0
 40
1.0
 40
1.0
 40
1.0
 10
194.2816503114919
 20
283.1763851347882
 30
0.0
 10
194.3201034900645
 20
283.1763851347888
 30
0.0
 10
194.3643734305473
 20
283.1876326346315
 30
0.0
 10
194.454371728581
 20
283.2353887781285
 30
0.0
 10
194.4998444134131
 20
283.271727087775
 30
0.0
 10
194.6195710127625
 20
283.4120299335682
 30
0.0
 10
194.6711104106161
 20
283.54425960635
 30
0.0
 10
194.6711104106161
 20
283.6763851347891
 30
0.0
  0
ARC
  5
113
330
106
100
AcDbEntity
  8
DV2_Standard
  6
Continuous
 62
     7
100
AcDbCircle
 10
184.6287227958
 20
295.3263851348
 30
0.0
 40
11.65000000000002
100
AcDbArc
 50
260.7957717026
 51
270.0
  0
ARC
  5
114
330
106
100
AcDbEntity
  8
DV2_Standard
  6
Continuous
 62
     7
100
AcDbCircle
 10
184.6287227958
 20
295.3263851348
 30
0.0
 40
11.64999999999998
100
AcDbArc
 50
270.0
 51
279.2042282974
  0
ARC
  5
115
330
106
100
AcDbEntity
  8
DV2_Standard
  6
Continuous
 62
     7
100
AcDbCircle
 10
195.5776334565
 20
283.7780523892
 30
0.0
 40
0.6038073610757196
100
AcDbArc
 50
279.5071995419
 51
350.3065338971
  0
LINE
  5
116
330
106
100
AcDbEntity
  8
DV2_Standard
  6
Continuous
 62
     7
100
AcDbLine
 10
196.1728200648
 20
283.8263851348
 30
0.0
 11
196.1728200648
 21
283.6763851348
 31
0.0
  0
LINE
  5
117
330
106
100
AcDbEntity
  8
DV2_Standard
  6
Continuous
 62
     7
100
AcDbLine
 10
196.1728200648
 20
283.6763851348
 30
0.0
 11
196.2787227958
 21
283.6763851348
 31
0.0
  0
LINE
  5
118
330
106
100
AcDbEntity
  8
DV2_Standard
  6
Continuous
 62
     7
100
AcDbLine
 10
193.8287227958
 20
273.1763851348
 30
0.0
 11
193.8287227958
 21
274.3763851348
 31
0.0
  0
LINE
  5
119
330
106
100
AcDbEntity
  8
DV2_Standard
  6
Continuous
 62
     7
100
AcDbLine
 10
175.4287227958
 20
274.3763851348
 30
0.0
 11
175.4287227958
 21
273.1763851348
 31
0.0
  0
LINE
  5
11A
330
106
100
AcDbEntity
  8
DV2_Standard
  6
Continuous
 62
     7
100
AcDbLine
 10
174.1512227958
 20
275.6538851348
 30
0.0
 11
175.4287227958
 21
274.3763851348
 31
0.0
  0
LINE
  5
11B
330
106
100
AcDbEntity
  8
DV2_Standard
  6
Continuous
 62
     7
100
AcDbLine
 10
193.8287227958
 20
274.3763851348
 30
0.0
 11
195.1062227958
 21
275.6538851348
 31
0.0
  0
LINE
  5
11C
330
106
100
AcDbEntity
  8
DV2_Standard
  6
Continuous
 62
     7
100
AcDbLine
 10
195.1062227958
 20
275.6538851348
 30
0.0
 11
195.1062227958
 21
283.1763851348
 31
0.0
  0
LINE
  5
11D
330
106
100
AcDbEntity
  8
DV2_Standard
  6
Continuous
 62
     7
100
AcDbLine
 10
174.1512227958
 20
283.1763851348
 30
0.0
 11
174.1512227958
 21
275.6538851348
 31
0.0
  0
ARC
  5
11E
330
106
100
AcDbEntity
  8
DV2_Standard
  6
Continuous
 62
     7
100
AcDbCircle
 10
173.4787227958
 20
283.6763851348
 30
0.0
 40
0.4999999999999987
100
AcDbArc
 50
180.0
 51
270.0
  0
LINE
  5
11F
330
106
100
AcDbEntity
  8
DV2_Standard
  6
Continuous
 62
     7
100
AcDbLine
 10
172.9787227958
 20
283.8263851348
 30
0.0
 11
172.9787227958
 21
283.6763851348
 31
0.0
  0
ARC
  5
120
330
106
100
AcDbEntity
  8
DV2_Standard
  6
Continuous
 62
     7
100
AcDbCircle
 10
195.7787227958
 20
283.6763851348
 30
0.0
 40
0.5000000000000022
100
AcDbArc
 50
270.0
 51
0.0
  0
LINE
  5
121
330
106
100
AcDbEntity
  8
DV2_Standard
  6
Continuous
 62
     7
100
AcDbLine
 10
175.3132227958
 20
274.4918851348
 30
0.0
 11
175.3132227958
 21
281.1738851348
 31
0.0
  0
LINE
  5
122
330
106
100
AcDbEntity
  8
DV2_Standard
  6
Continuous
 62
     7
100
AcDbLine
 10
193.9442227958
 20
274.4918851348
 30
0.0
 11
193.9442227958
 21
281.1738851348
 31
0.0
  0
LINE
  5
123
330
106
100
AcDbEntity
  8
DV2_Standard
  6
Continuous
 62
     7
100
AcDbLine
 10
195.1062227958
 20
281.1738851348
 30
0.0
 11
174.1512227958
 21
281.1738851348
 31
0.0
  0
LINE
  5
124
330
106
100
AcDbEntity
  8
DV2_Standard
  6
Continuous
 62
     7
100
AcDbLine
 10
262.3905232315
 20
456.5362271483
 30
0.0
 11
261.2962625776
 21
455.2321380828
 31
0.0
  0
ARC
  5
125
330
106
100
AcDbEntity
  8
DV2_Standard
  6
Continuous
 62
     7
100
AcDbCircle
 10
256.2895393085
 20
459.5662854194
 30
0.0
 40
6.622092647255073
100
AcDbArc
 50
309.7088445423
 51
319.118392596
  0
SPLINE
  5
126
330
106
100
AcDbEntity
  8
DV2_Standard
  6
Continuous
 62
     7
100
AcDbSpline
210
0.0
220
0.0
230
1.0
 70
     8
 71
     3
 72
    11
 73
     7
 74
     0
 42
0.0000000371613345
 43
0.0000000001
 40
0.0
 40
0.0
 40
0.0
 40
0.0
 40
0.3838841247547287
 40
0.3838841247547287
 40
0.3838841247547287
 40
1.0
 40
1.0
 40
1.0
 40
1.0
 10
262.4739455299196
 20
456.7843840967245
 30
0.0
 10
262.4742528908379
 20
456.74757355959
 30
0.0
 10
262.4702562374663
 20
456.7119483943959
 30
0.0
 10
262.46201856478
 20
456.6786738529352
 30
0.0
 10
262.4488004003156
 20
456.6252815444209
 30
0.0
 10
262.4243028140465
 20
456.5764840871987
 30
0.0
 10
262.3905232314503
 20
456.5362271482831
 30
0.0
  0
ARC
  5
127
330
106
100
AcDbEntity
  8
DV2_Standard
  6
Continuous
 62
     7
100
AcDbCircle
 10
222.9488308121
 20
420.4601630166
 30
0.0
 40
7.024916088009583
100
AcDbArc
 50
310.3055837267
 51
320.2626540442
  0
LINE
  5
128
330
106
100
AcDbEntity
  8
DV2_Standard
  6
Continuous
 62
     7
100
AcDbLine
 10
229.6598765423
 20
417.5293613686
 30
0.0
 11
228.3508721163
 21
415.9693506411
 31
0.0
  0
SPLINE
  5
129
330
106
100
AcDbEntity
  8
DV2_Standard
  6
Continuous
 62
     7
100
AcDbSpline
210
0.0
220
0.0
230
1.0
 70
     8
 71
     3
 72
    11
 73
     7
 74
     0
 42
0.0000000306747433
 43
0.0000000001
 40
0.0
 40
0.0
 40
0.0
 40
0.0
 40
0.3838841247563548
 40
0.3838841247563548
 40
0.3838841247563548
 40
1.0
 40
1.0
 40
1.0
 40
1.0
 10
229.7827941838463
 20
417.8245870340017
 30
0.0
 10
229.7784309916634
 20
417.7822103484292
 30
0.0
 10
229.7694992615296
 20
417.7407037877737
 30
0.0
 10
229.756233358137
 20
417.7014368343042
 30
0.0
 10
229.7349468978115
 20
417.6384291052114
 30
0.0
 10
229.7019232775287
 20
417.5794707163223
 30
0.0
 10
229.6598765423016
 20
417.5293613685586
 30
0.0
  0
ARC
  5
12A
330
106
100
AcDbEntity
  8
DV2_Standard
  6
Continuous
 62
     7
100
AcDbCircle
 10
209.1617990344
 20
397.7645977722
 30
0.0
 40
1.682325019238671
100
AcDbArc
 50
190.051872545
 51
280.679967206
  0
ARC
  5
12B
330
106
100
AcDbEntity
  8
DV2_Standard
  6
Continuous
 62
     7
100
AcDbCircle
 10
194.5299403393
 20
395.1669296572
 30
0.0
 40
13.1783334623641
100
AcDbArc
 50
10.0690637009
 51
36.8834285727
  0
ARC
  5
12C
330
106
100
AcDbEntity
  8
DV2_Standard
  6
Continuous
 62
     7
100
AcDbCircle
 10
207.7911753906
 20
405.039971314
 30
0.0
 40
9.085680270453457
100
AcDbArc
 50
280.6710556281
 51
304.6763716718
  0
ARC
  5
12D
330
106
100
AcDbEntity
  8
DV2_Standard
  6
Continuous
 62
     7
100
AcDbCircle
 10
204.8538744964
 20
404.4569893954
 30
0.0
 40
0.5346811956426596
100
AcDbArc
 50
322.9871402408
 51
325.0653744806
  0
SPLINE
  5
12E
330
106
100
AcDbEntity
  8
DV2_Standard
  6
Continuous
 62
     7
100
AcDbSpline
210
0.0
220
0.0
230
1.0
 70
     8
 71
     3
 72
     8
 73
     4
 74
     0
 42
0.0000004389433878
 43
0.0000000001
 40
0.0
 40
0.0
 40
0.0
 40
0.0
 40
1.0
 40
1.0
 40
1.0
 40
1.0
 10
205.2921537831516
 20
404.1507560913533
 30
0.0
 10
205.2821639811225
 20
404.1395039559237
 30
0.0
 10
205.2772946218181
 20
404.1340591436081
 30
0.0
 10
205.2775386788651
 20
404.1344139021993
 30
0.0
  0
SPLINE
  5
12F
330
106
100
AcDbEntity
  8
DV2_Standard
  6
Continuous
 62
     7
100
AcDbSpline
210
0.0
220
0.0
230
1.0
 70
     8
 71
     3
 72
    11
 73
     7
 74
     0
 42
0.0000044306244332
 43
0.0000000001
 40
0.0
 40
0.0
 40
0.0
 40
0.0
 40
0.0241385594222428
 40
0.0241385594222428
 40
0.0241385594222428
 40
1.0
 40
1.0
 40
1.0
 40
1.0
 10
214.2798346231772
 20
399.3589445316061
 30
0.0
 10
214.2798433470266
 20
399.3589543220277
 30
0.0
 10
214.2798520833147
 20
399.358964237227
 30
0.0
 10
214.2798608318245
 20
399.3589742754015
 30
0.0
 10
214.2802145121552
 20
399.3593800936414
 30
0.0
 10
214.2805905901153
 20
399.3599891665589
 30
0.0
 10
214.2809740660752
 20
399.3608727823995
 30
0.0
  0
SPLINE
  5
130
330
106
100
AcDbEntity
  8
DV2_Standard
  6
Continuous
 62
     7
100
AcDbSpline
210
0.0
220
0.0
230
1.0
 70
     8
 71
     3
 72
     8
 73
     4
 74
     0
 42
0.0000022803145516
 43
0.0000000001
 40
0.0
 40
0.0
 40
0.0
 40
0.0
 40
1.0
 40
1.0
 40
1.0
 40
1.0
 10
214.2809740660752
 20
399.3608727823995
 30
0.0
 10
214.2809904931315
 20
399.3609106340739
 30
0.0
 10
214.2804980850458
 20
399.3596802101071
 30
0.0
 10
214.2793567806179
 20
399.356885467314
 30
0.0
  0
LINE
  5
131
330
106
100
AcDbEntity
  8
DV2_Standard
  6
Continuous
 62
     7
100
AcDbLine
 10
205.0707395042
 20
403.0764192621
 30
0.0
 11
205.0320936492
 21
403.1692794582
 31
0.0
  0
SPLINE
  5
132
330
106
100
AcDbEntity
  8
DV2_Standard
  6
Continuous
 62
     7
100
AcDbSpline
210
0.0
220
0.0
230
1.0
 70
     8
 71
     3
 72
    12
 73
     8
 74
     0
 42
0.0000000119922005
 43
0.0000000001
 40
0.0
 40
0.0
 40
0.0
 40
0.0
 40
0.249999999999981
 40
0.249999999999981
 40
0.4999999999999619
 40
0.4999999999999619
 40
1.0
 40
1.0
 40
1.0
 40
1.0
 10
205.0320936491942
 20
403.1692794581627
 30
0.0
 10
205.0021470680308
 20
403.2381649189679
 30
0.0
 10
204.9938946860406
 20
403.3089765424727
 30
0.0
 10
204.995022341801
 20
403.4491078320071
 30
0.0
 10
205.0052639958768
 20
403.5168356380232
 30
0.0
 10
205.0532006752172
 20
403.7162109944997
 30
0.0
 10
205.1064265846213
 20
403.8396228982241
 30
0.0
 10
205.1757078598757
 20
403.9605643983063
 30
0.0
  0
ARC
  5
133
330
106
100
AcDbEntity
  8
DV2_Standard
  6
Continuous
 62
     7
100
AcDbCircle
 10
209.4034854796
 20
401.5336209513
 30
0.0
 40
4.874849546108329
100
AcDbArc
 50
147.7471794422
 51
150.1421466196
  0
ARC
  5
134
330
106
100
AcDbEntity
  8
DV2_Standard
  6
Continuous
 62
     7
100
AcDbCircle
 10
204.4279631397
 20
405.3123089494
 30
0.0
 40
11.52280346867566
100
AcDbArc
 50
317.7724502767
 51
328.477315984
  0
LINE
  5
135
330
106
100
AcDbEntity
  8
DV2_Standard
  6
Continuous
 62
     7
100
AcDbLine
 10
272.7927893728
 20
472.1416492436
 30
0.0
 11
209.3934821956
 21
396.5852971471
 31
0.0
  0
LINE
  5
136
330
106
100
AcDbEntity
  8
DV2_Standard
  6
Continuous
 62
     7
100
AcDbLine
 10
270.8816785312
 20
466.8156611361
 30
0.0
 11
214.2771950675
 21
399.3570646113
 31
0.0
  0
SPLINE
  5
137
330
106
100
AcDbEntity
  8
DV2_Standard
  6
Continuous
 62
     7
100
AcDbSpline
210
0.0
220
0.0
230
1.0
 70
     8
 71
     3
 72
     8
 73
     4
 74
     0
 42
0.0000004441799599
 43
0.0000000001
 40
0.0
 40
0.0
 40
0.0
 40
0.0
 40
1.0
 40
1.0
 40
1.0
 40
1.0
 10
205.2934719238083
 20
404.1595879706035
 30
0.0
 10
205.2933765079533
 20
404.1594096026365
 30
0.0
 10
205.2982752039923
 20
404.1649184634223
 30
0.0
 10
205.3081678945815
 20
404.1761128825145
 30
0.0
  0
SPLINE
  5
138
330
106
100
AcDbEntity
  8
DV2_Standard
  6
Continuous
 62
     7
100
AcDbSpline
210
0.0
220
0.0
230
1.0
 70
     8
 71
     3
 72
    12
 73
     8
 74
     0
 42
0.0000000534151939
 43
0.0000000001
 40
0.0
 40
0.0
 40
0.0
 40
0.0
 40
0.2500000000000227
 40
0.2500000000000227
 40
0.5000000000000454
 40
0.5000000000000454
 40
1.0
 40
1.0
 40
1.0
 40
1.0
 10
205.3081678945815
 20
404.1761128825145
 30
0.0
 10
205.315563630832
 20
404.1895756818565
 30
0.0
 10
205.3197610783154
 20
404.1967322402867
 30
0.0
 10
205.3173569834649
 20
404.1912591125096
 30
0.0
 10
205.3113527239682
 20
404.1796546833467
 30
0.0
 10
205.289043752094
 20
404.1351877139371
 30
0.0
 10
205.2688799944009
 20
404.0931869066147
 30
0.0
 10
205.2498525590077
 20
404.0489316294301
 30
0.0
  0
LINE
  5
139
330
106
100
AcDbEntity
  8
DV2_Standard
  6
Continuous
 62
     7
100
AcDbLine
 10
264.4580210654
 20
474.7073638064
 30
0.0
 11
205.3634782114
 21
404.2812300575
 31
0.0
  0
SPLINE
  5
13A
330
106
100
AcDbEntity
  8
DV2_Standard
  6
Continuous
 62
     7
100
AcDbSpline
210
0.0
220
0.0
230
1.0
 70
     8
 71
     3
 72
    10
 73
     6
 74
     0
 42
0.0000011517245432
 43
0.0000000001
 40
0.0
 40
0.0
 40
0.0
 40
0.0
 40
0.2654830998741791
 40
0.2654830998741791
 40
1.0
 40
1.0
 40
1.0
 40
1.0
 10
214.2822543400763
 20
399.3515093251846
 30
0.0
 10
214.2827301802363
 20
399.352121686594
 30
0.0
 10
214.2827386215631
 20
399.3527493360555
 30
0.0
 10
214.2806740110981
 20
399.3552118974684
 30
0.0
 10
214.2773757157338
 20
399.3571899913055
 30
0.0
 10
214.2771950674718
 20
399.3570646113675
 30
0.0
  0
LINE
  5
13B
330
106
100
AcDbEntity
  8
DV2_Standard
  6
Continuous
 62
     7
100
AcDbLine
 10
270.8745862878
 20
466.8071918859
 30
0.0
 11
214.2827406022
 21
399.3636564786
 31
0.0
  0
LINE
  5
13C
330
106
100
AcDbEntity
  8
DV2_Standard
  6
Continuous
 62
     7
100
AcDbLine
 10
214.2794535926
 20
399.3590987763
 30
0.0
 11
214.2778061418
 21
399.3544956604
 31
0.0
  0
LINE
  5
13D
330
106
100
AcDbEntity
  8
DV2_Standard
  6
Continuous
 62
     7
100
AcDbLine
 10
214.2650035777
 20
399.3187242225
 30
0.0
 11
214.0666358938
 21
398.7644682731
 31
0.0
  0
SPLINE
  5
13E
330
106
100
AcDbEntity
  8
DV2_Standard
  6
Continuous
 62
     7
100
AcDbSpline
210
0.0
220
0.0
230
1.0
 70
     8
 71
     3
 72
    36
 73
    32
 74
     0
 42
0.0000000003914702
 43
0.0000000001
 40
0.0
 40
0.0
 40
0.0
 40
0.0
 40
0.0632017203254849
 40
0.1321318179819749
 40
0.1663809156488923
 40
0.1999508030927046
 40
0.2322015840695863
 40
0.2633832687299462
 40
0.2931878488989542
 40
0.3212625676025376
 40
0.3474011091721777
 40
0.3726554106317266
 40
0.3984277527054651
 40
0.4247814191672047
 40
0.4517620294409357
 40
0.4793557765120905
 40
0.5070276670399587
 40
0.5344007554939082
 40
0.5614964589186242
 40
0.5883464273444518
 40
0.6150156703034042
 40
0.6421583017991639
 40
0.6699238630408254
 40
0.6981236004851611
 40
0.7267721731687031
 40
0.756043370522403
 40
0.787166542158536
 40
0.8222442633778919
 40
0.8746087164484609
 40
0.9336602382201664
 40
1.0
 40
1.0
 40
1.0
 40
1.0
 10
205.2771441140341
 20
404.1351202467596
 30
0.0
 10
204.9180739720933
 20
403.6661911712822
 30
0.0
 10
204.2940085333406
 20
402.8335889129851
 30
0.0
 10
203.4564566337906
 20
401.6534820774252
 30
0.0
 10
202.889997696062
 20
400.6422561662674
 30
0.0
 10
202.5500360628633
 20
399.8600991242822
 30
0.0
 10
202.3205874468003
 20
399.065986616362
 30
0.0
 10
202.210923239571
 20
398.2789180418603
 30
0.0
 10
202.2032969892705
 20
397.5204016382625
 30
0.0
 10
202.2835239810012
 20
396.8093868135517
 30
0.0
 10
202.4391130842359
 20
396.1507450038255
 30
0.0
 10
202.6675711725662
 20
395.5345384710372
 30
0.0
 10
202.9698268581998
 20
394.9489424287215
 30
0.0
 10
203.3485244616845
 20
394.3917584894829
 30
0.0
 10
203.8020498367716
 20
393.8727487076542
 30
0.0
 10
204.3242720939941
 20
393.4057779953631
 30
0.0
 10
204.9041324574409
 20
393.0064902025653
 30
0.0
 10
205.5278705007605
 20
392.6888802441141
 30
0.0
 10
206.1820811615789
 20
392.4604816170618
 30
0.0
 10
206.854913049607
 20
392.322108177312
 30
0.0
 10
207.5406957661528
 20
392.2753244669432
 30
0.0
 10
208.2342730484608
 20
392.3229229544532
 30
0.0
 10
208.9276702261791
 20
392.4681434923893
 30
0.0
 10
209.6042199932934
 20
392.7198868073869
 30
0.0
 10
210.2433331467706
 20
393.0815330759546
 30
0.0
 10
210.84798655285
 20
393.5392335471734
 30
0.0
 10
211.4360665837873
 20
394.0996508183835
 30
0.0
 10
212.0969158435442
 20
394.8629472232689
 30
0.0
 10
212.8017687978285
 20
395.8858978398973
 30
0.0
 10
213.5008023150606
 20
397.2608583311449
 30
0.0
 10
213.8523785082254
 20
398.1827709965435
 30
0.0
 10
214.0667293791932
 20
398.764498682962
 30
0.0
  0
LINE
  5
13F
330
106
100
AcDbEntity
  8
DV2_Standard
  6
Continuous
 62
     7
100
AcDbLine
 10
214.0648934205
 20
398.7594685263
 30
0.0
 11
214.1454522101
 21
399.0403344817
 31
0.0
  0
ARC
  5
140
330
106
100
AcDbEntity
  8
DV2_Standard
  6
Continuous
 62
     7
100
AcDbCircle
 10
271.5928734373
 20
472.1558530362
 30
0.0
 40
1.199999999999995
100
AcDbArc
 50
359.3218030192
 51
89.8434293229
  0
ARC
  5
141
330
106
100
AcDbEntity
  8
DV2_Standard
  6
Continuous
 62
     7
100
AcDbCircle
 10
264.1300835024
 20
472.2441924922
 30
0.0
 40
8.663312767975766
100
AcDbArc
 50
321.1994351737
 51
359.3218030192
  0
ARC
  5
142
330
106
100
AcDbEntity
  8
DV2_Standard
  6
Continuous
 62
     7
100
AcDbCircle
 10
271.6344901628
 20
487.385120949
 30
0.0
 40
14.02932477523115
100
AcDbArc
 50
242.7004485707
 51
269.8434293229
  0
ARC
  5
143
330
106
100
AcDbEntity
  8
DV2_Standard
  6
Continuous
 62
     7
100
AcDbCircle
 10
265.8961625732
 20
473.0979574822
 30
0.0
 40
2.158341889648659
100
AcDbArc
 50
123.9211313872
 51
131.7834990212
  0
ARC
  5
144
330
106
100
AcDbEntity
  8
DV2_Standard
  6
Continuous
 62
     7
100
AcDbCircle
 10
207.1981646893
 20
403.144407626
 30
0.0
 40
2.158341889649538
100
AcDbArc
 50
148.2165009788
 51
151.9437019258
  0
ARC
  5
145
330
106
100
AcDbEntity
  8
DV2_Standard
  6
Continuous
 62
     7
100
AcDbCircle
 10
264.9707229086
 20
474.4740604036
 30
0.0
 40
0.4999999999998997
100
AcDbArc
 50
62.7004485707
 51
123.9211313868
  0
ARC
  5
146
330
106
100
AcDbEntity
  8
DV2_Standard
  6
Continuous
 62
     7
100
AcDbCircle
 10
214.4818931259
 20
399.2133792092
 30
0.0
 40
0.2415447421341369
100
AcDbArc
 50
145.7833888379
 51
161.4684897133
  0
LINE
  5
147
330
106
100
AcDbEntity
  8
DV2_Standard
  6
Continuous
 62
     7
100
AcDbLine
 10
214.2469347001
 20
399.2748363391
 30
0.0
 11
214.2528727183
 21
399.2901484439
 31
0.0
  0
LINE
  5
148
330
106
100
AcDbEntity
  8
DV2_Standard
  6
Continuous
 62
     7
100
AcDbLine
 10
265.4990374942
 20
450.639533102
 30
0.0
 11
229.246435093
 21
407.4353639496
 31
0.0
  0
LINE
  5
149
330
106
100
AcDbEntity
  8
DV2_Standard
  6
Continuous
 62
     7
100
AcDbLine
 10
251.2117310729
 20
428.1006121787
 30
0.0
 11
248.961974439
 21
425.4194566278
 31
0.0
  0
LINE
  5
14A
330
106
100
AcDbEntity
  8
DV2_Standard
  6
Continuous
 62
     7
100
AcDbLine
 10
270.7873996142
 20
466.5017820777
 30
0.0
 11
270.688177881
 21
466.5850389974
 31
0.0
  0
LINE
  5
14B
330
106
100
AcDbEntity
  8
DV2_Standard
  6
Continuous
 62
     7
100
AcDbLine
 10
214.4442620334
 20
399.5561502245
 30
0.0
 11
214.5434837666
 21
399.4728933047
 31
0.0
  0
ARC
  5
14C
330
106
100
AcDbEntity
  8
DV2_Standard
  6
Continuous
 62
     7
100
AcDbCircle
 10
270.6588420922
 20
466.348573189
 30
0.0
 40
0.2000000000000304
100
AcDbArc
 50
345.8726760174
 51
50.0
  0
ARC
  5
14D
330
106
100
AcDbEntity
  8
DV2_Standard
  6
Continuous
 62
     7
100
AcDbCircle
 10
214.6720412886
 20
399.6261021934
 30
0.0
 40
0.1999999999999873
100
AcDbArc
 50
230.0
 51
294.1273239826
  0
ARC
  5
14E
330
106
100
AcDbEntity
  8
DV2_Standard
  6
Continuous
 62
     7
100
AcDbCircle
 10
173.877220578
 20
490.7075086559
 30
0.0
 40
100.0000000000221
100
AcDbArc
 50
336.3793198425
 51
345.8726760174
  0
ARC
  5
14F
330
106
100
AcDbEntity
  8
DV2_Standard
  6
Continuous
 62
     7
100
AcDbCircle
 10
173.877220578
 20
490.7075086559
 30
0.0
 40
100.0000000000222
100
AcDbArc
 50
294.1273239826
 51
303.6206801575
  0
ARC
  5
150
330
106
100
AcDbEntity
  8
DV2_Standard
  6
Continuous
 62
     7
100
AcDbCircle
 10
173.877220578
 20
490.7075086559
 30
0.0
 40
99.50000000000001
100
AcDbArc
 50
321.007766676
 51
335.3694190195
  0
ARC
  5
151
330
106
100
AcDbEntity
  8
DV2_Standard
  6
Continuous
 62
     7
100
AcDbCircle
 10
173.877220578
 20
490.7075086559
 30
0.0
 40
99.5
100
AcDbArc
 50
304.6305809805
 51
318.992233324
  0
LINE
  5
152
330
106
100
AcDbEntity
  8
DV2_Standard
  6
Continuous
 62
     7
100
AcDbLine
 10
245.0300321639
 20
486.1268571217
 30
0.0
 11
194.7327451999
 21
426.1848846846
 31
0.0
  0
ARC
  5
153
330
106
100
AcDbEntity
  8
DV2_Standard
  6
Continuous
 62
     7
100
AcDbCircle
 10
140.1402834735
 20
377.7676262771
 30
0.0
 40
72.96963607590669
100
AcDbArc
 50
23.4475088048
 51
41.5693512998
  0
LINE
  5
154
330
106
100
AcDbEntity
  8
DV2_Standard
  6
Continuous
 62
     7
100
AcDbLine
 10
207.0844519322
 20
406.802882405
 30
0.0
 11
264.2439898225
 21
474.9229670368
 31
0.0
  0
LINE
  5
155
330
106
100
AcDbEntity
  8
DV2_Standard
  6
Continuous
 62
     7
100
AcDbLine
 10
196.870017817
 20
392.1324086826
 30
0.0
 11
196.1189932702
 21
392.1324086826
 31
0.0
  0
ARC
  5
156
330
106
100
AcDbEntity
  8
DV2_Standard
  6
Continuous
 62
     7
100
AcDbCircle
 10
197.3879015349
 20
561.4721946187
 30
0.0
 40
169.3405778437154
100
AcDbArc
 50
269.8247756211
 51
270.1752243789
  0
LINE
  5
157
330
106
100
AcDbEntity
  8
DV2_Standard
  6
Continuous
 62
     7
100
AcDbLine
 10
198.6034699681
 20
392.1324086826
 30
0.0
 11
197.9057852529
 21
392.1324086826
 31
0.0
  0
LINE
  5
158
330
106
100
AcDbEntity
  8
DV2_Standard
  6
Continuous
 62
     7
100
AcDbLine
 10
198.6022684343
 20
392.1324086826
 30
0.0
 11
198.6034699681
 21
392.1324086826
 31
0.0
  0
LINE
  5
159
330
106
100
AcDbEntity
  8
DV2_Standard
  6
Continuous
 62
     7
100
AcDbLine
 10
171.5006944342
 20
392.1324039498
 30
0.0
 11
170.6531387687
 21
392.1324086825
 31
0.0
  0
ARC
  5
15A
330
106
100
AcDbEntity
  8
DV2_Standard
  6
Continuous
 62
     7
100
AcDbCircle
 10
171.9021262026
 20
514.6389832144
 30
0.0
 40
122.50723697225
100
AcDbArc
 50
269.8122528283
 51
270.1884214648
  0
LINE
  5
15B
330
106
100
AcDbEntity
  8
DV2_Standard
  6
Continuous
 62
     7
100
AcDbLine
 10
173.4380467601
 20
392.1324086826
 30
0.0
 11
172.3049997061
 21
392.1324086826
 31
0.0
  0
ARC
  5
15C
330
106
100
AcDbEntity
  8
DV2_Standard
  6
Continuous
 62
     7
100
AcDbCircle
 10
184.7785200141
 20
8911.5448436936
 30
0.0
 40
8519.419982848201
100
AcDbArc
 50
269.9237317272
 51
270.0762682728
  0
ARC
  5
15D
330
106
100
AcDbEntity
  8
DV2_Standard
  6
Continuous
 62
     7
100
AcDbCircle
 10
338.3389153816
 20
387.4571095148
 30
0.0
 40
154.5493181883007
100
AcDbArc
 50
157.1208571311
 51
164.2407852067
  0
ARC
  5
15E
330
106
100
AcDbEntity
  8
DV2_Standard
  6
Continuous
 62
     7
100
AcDbCircle
 10
338.3389153816
 20
387.4571095148
 30
0.0
 40
154.5493181883007
100
AcDbArc
 50
157.1197548031
 51
157.1208571311
  0
SPLINE
  5
15F
330
106
100
AcDbEntity
  8
DV2_Standard
  6
Continuous
 62
     7
100
AcDbSpline
210
0.0
220
0.0
230
1.0
 70
     8
 71
     3
 72
    20
 73
    16
 74
     0
 42
0.0000000010383466
 43
0.0000000001
 40
0.0
 40
0.0
 40
0.0
 40
0.0
 40
0.0129542746189465
 40
0.0129542746189465
 40
0.2597157059642097
 40
0.2597157059642097
 40
0.3830964216368415
 40
0.3830964216368415
 40
0.5064771373094733
 40
0.5064771373094733
 40
0.6298578529821051
 40
0.6298578529821051
 40
0.7532385686547366
 40
0.7532385686547366
 40
1.0
 40
1.0
 40
1.0
 40
1.0
 10
198.7543532538927
 20
395.9665383960609
 30
0.0
 10
198.7557004227637
 20
395.9670854683262
 30
0.0
 10
198.7564671153281
 20
395.9674209115674
 30
0.0
 10
198.7601285310994
 20
395.9691940106638
 30
0.0
 10
198.5501184017263
 20
395.8812807697842
 30
0.0
 10
197.9595248461131
 20
395.9679120231359
 30
0.0
 10
197.7140564214673
 20
396.0418128700104
 30
0.0
 10
197.1623186010587
 20
396.3638631994351
 30
0.0
 10
196.8612460114858
 20
396.6105823376723
 30
0.0
 10
196.265419030595
 20
397.2814416516341
 30
0.0
 10
195.9663614010361
 20
397.7126277080315
 30
0.0
 10
195.4385814175376
 20
398.6753996523051
 30
0.0
 10
195.2068498461403
 20
399.2084737342169
 30
0.0
 10
194.6109788219494
 20
400.9150091215119
 30
0.0
 10
194.3512572616375
 20
402.1883235308913
 30
0.0
 10
194.2379565689018
 20
403.4903932848357
 30
0.0
  0
SPLINE
  5
160
330
106
100
AcDbEntity
  8
DV2_Standard
  6
Continuous
 62
     7
100
AcDbSpline
210
0.0
220
0.0
230
1.0
 70
     8
 71
     3
 72
    16
 73
    12
 74
     0
 42
0.0000000005491736
 43
0.0000000001
 40
0.0
 40
0.0
 40
0.0
 40
0.0
 40
0.25
 40
0.25
 40
0.5
 40
0.5
 40
0.75
 40
0.75
 40
0.875
 40
0.875
 40
1.0
 40
1.0
 40
1.0
 40
1.0
 10
194.2379565689018
 20
403.4903932848357
 30
0.0
 10
194.1086977301302
 20
404.9758566154723
 30
0.0
 10
194.018164859956
 20
406.4590295604197
 30
0.0
 10
193.890499237697
 20
409.4220310241893
 30
0.0
 10
193.8125694016623
 20
410.8927991853314
 30
0.0
 10
193.5112091737386
 20
413.849295107016
 30
0.0
 10
193.3017617365906
 20
415.3285471647741
 30
0.0
 10
192.7133966256409
 20
417.5698048810077
 30
0.0
 10
192.466638387572
 20
418.3294814561432
 30
0.0
 10
191.8107898082458
 20
419.7794146590863
 30
0.0
 10
191.3888654909451
 20
420.4822634245347
 30
0.0
 10
190.8725509600986
 20
421.0942408757401
 30
0.0
  0
ARC
  5
161
330
106
100
AcDbEntity
  8
DV2_Standard
  6
Continuous
 62
     7
100
AcDbCircle
 10
197.6948217935
 20
426.4025732573
 30
0.0
 40
8.644175611206762
100
AcDbArc
 50
159.4848502086
 51
217.8860846154
  0
LINE
  5
162
330
106
100
AcDbEntity
  8
DV2_Standard
  6
Continuous
 62
     7
100
AcDbLine
 10
192.846651384
 20
430.5154899794
 30
0.0
 11
239.929561789
 21
486.6267176043
 31
0.0
  0
SPLINE
  5
163
330
106
100
AcDbEntity
  8
DV2_Standard
  6
Continuous
 62
     7
100
AcDbSpline
210
0.0
220
0.0
230
1.0
 70
     8
 71
     3
 72
    20
 73
    16
 74
     0
 42
0.0000000020123757
 43
0.0000000001
 40
0.0
 40
0.0
 40
0.0
 40
0.0
 40
0.1250000000000014
 40
0.1250000000000014
 40
0.2500000000000027
 40
0.2500000000000027
 40
0.3750000000000041
 40
0.3750000000000041
 40
0.5000000000000054
 40
0.5000000000000054
 40
0.6250000000000068
 40
0.6250000000000068
 40
0.7500000000000082
 40
0.7500000000000082
 40
1.0
 40
1.0
 40
1.0
 40
1.0
 10
192.8466513840181
 20
430.5154899794026
 30
0.0
 10
192.8039002042394
 20
430.2937978099176
 30
0.0
 10
192.7807514502742
 20
430.0771808022847
 30
0.0
 10
192.77185011213
 20
429.6510084525039
 30
0.0
 10
192.7864879270606
 20
429.4399978220026
 30
0.0
 10
192.8495319478954
 20
429.0341102462851
 30
0.0
 10
192.8980492782945
 20
428.8367713487713
 30
0.0
 10
193.0224455999849
 20
428.4570315741324
 30
0.0
 10
193.0980421620601
 20
428.2746943386819
 30
0.0
 10
193.2727229756267
 20
427.9200713875197
 30
0.0
 10
193.3718306612676
 20
427.7478092178005
 30
0.0
 10
193.5923458312171
 20
427.4104353402205
 30
0.0
 10
193.7142173511794
 20
427.2449760415817
 30
0.0
 10
194.1052593554762
 20
426.7664025297508
 30
0.0
 10
194.4013106481294
 20
426.4674189235107
 30
0.0
 10
194.7327451999259
 20
426.1848846845626
 30
0.0
  0
LINE
  5
164
330
106
100
AcDbEntity
  8
DV2_Standard
  6
Continuous
 62
     7
100
AcDbLine
 10
207.0844519322
 20
406.802882405
 30
0.0
 11
205.1140259402
 21
404.4546201502
 31
0.0
  0
ARC
  5
165
330
106
100
AcDbEntity
  8
DV2_Standard
  6
Continuous
 62
     7
100
AcDbCircle
 10
313.8482451158
 20
413.1111536027
 30
0.0
 40
122.2468674868079
100
AcDbArc
 50
162.8138228348
 51
171.8149651649
  0
LINE
  5
166
330
106
100
AcDbEntity
  8
DV2_Standard
  6
Continuous
 62
     7
100
AcDbLine
 10
197.066523741
 20
283.8263851348
 30
0.0
 11
172.1909218506
 21
283.8263851348
 31
0.0
  0
LINE
  5
167
330
106
100
AcDbEntity
  8
DV2_Standard
  6
Continuous
 62
     7
100
AcDbLine
 10
198.689744382
 20
292.5910745838
 30
0.0
 11
170.5677012096
 21
292.5910745838
 31
0.0
  0
LINE
  5
168
330
106
100
AcDbEntity
  8
DV2_Standard
  6
Continuous
 62
     7
100
AcDbLine
 10
198.9071242299
 20
299.5910745838
 30
0.0
 11
170.3503213617
 21
299.5910745838
 31
0.0
  0
LINE
  5
169
330
106
100
AcDbEntity
  8
DV2_Standard
  6
Continuous
 62
     7
100
AcDbLine
 10
198.8710435799
 20
385.1041885891
 30
0.0
 11
170.3864020117
 21
385.1041885891
 31
0.0
  0
SPLINE
  5
16A
330
106
100
AcDbEntity
  8
DV2_Standard
  6
Continuous
 62
     7
100
AcDbSpline
210
0.0
220
0.0
230
1.0
 70
     8
 71
     3
 72
     8
 73
     4
 74
     0
 42
0.0000011694999553
 43
0.0000000001
 40
0.0
 40
0.0
 40
0.0
 40
0.0
 40
1.0
 40
1.0
 40
1.0
 40
1.0
 10
206.6213679590242
 20
463.5070928058356
 30
0.0
 10
206.6185449027404
 20
463.503802784488
 30
0.0
 10
206.6166912149627
 20
463.5016336476196
 30
0.0
 10
206.6158128602868
 20
463.5005924908724
 30
0.0
  0
SPLINE
  5
16B
330
106
100
AcDbEntity
  8
DV2_Standard
  6
Continuous
 62
     7
100
AcDbSpline
210
0.0
220
0.0
230
1.0
 70
     8
 71
     3
 72
     8
 73
     4
 74
     0
 42
0.0000000167095578
 43
0.0000000001
 40
0.0
 40
0.0
 40
0.0
 40
0.0
 40
1.0
 40
1.0
 40
1.0
 40
1.0
 10
208.6825965744065
 20
465.1513851689516
 30
0.0
 10
208.5492446799109
 20
465.0030705998277
 30
0.0
 10
208.4164169900074
 20
464.8542463719116
 30
0.0
 10
208.2841026011459
 20
464.7048948899662
 30
0.0
  0
SPLINE
  5
16C
330
106
100
AcDbEntity
  8
DV2_Standard
  6
Continuous
 62
     7
100
AcDbSpline
210
0.0
220
0.0
230
1.0
 70
     8
 71
     3
 72
     8
 73
     4
 74
     0
 42
0.000000116501036
 43
0.0000000001
 40
0.0
 40
0.0
 40
0.0
 40
0.0
 40
1.0
 40
1.0
 40
1.0
 40
1.0
 10
208.0026882074737
 20
464.3855652050306
 30
0.0
 10
207.9838282584996
 20
464.3640509129415
 30
0.0
 10
207.9649786943348
 20
464.3425255332547
 30
0.0
 10
207.9461394828782
 20
464.320989014168
 30
0.0
  0
SPLINE
  5
16D
330
106
100
AcDbEntity
  8
DV2_Standard
  6
Continuous
 62
     7
100
AcDbSpline
210
0.0
220
0.0
230
1.0
 70
     8
 71
     3
 72
     8
 73
     4
 74
     0
 42
0.0000000139032547
 43
0.0000000001
 40
0.0
 40
0.0
 40
0.0
 40
0.0
 40
1.0
 40
1.0
 40
1.0
 40
1.0
 10
207.0926784180912
 20
463.3292972224669
 30
0.0
 10
206.9377421392341
 20
463.1462969472636
 30
0.0
 10
206.7836397861811
 20
462.9626322080697
 30
0.0
 10
206.6303714160181
 20
462.7783029594002
 30
0.0
  0
LINE
  5
16E
330
106
100
AcDbEntity
  8
DV2_Standard
  6
Continuous
 62
     7
100
AcDbLine
 10
208.6112016021
 20
465.2112926639
 30
0.0
 11
208.6019758509
 21
465.2190339883
 31
0.0
  0
ARC
  5
16F
330
106
100
AcDbEntity
  8
DV2_Standard
  6
Continuous
 62
     7
100
AcDbCircle
 10
207.8749978859
 20
462.2691920545
 30
0.0
 40
1.340506551256077
100
AcDbArc
 50
144.6896185756
 51
157.3823248357
  0
LINE
  5
170
330
106
100
AcDbEntity
  8
DV2_Standard
  6
Continuous
 62
     7
100
AcDbLine
 10
205.6527092117
 20
461.9810797145
 30
0.0
 11
205.5938460326
 21
461.9190871399
 31
0.0
  0
LINE
  5
171
330
106
100
AcDbEntity
  8
DV2_Standard
  6
Continuous
 62
     7
100
AcDbLine
 10
205.6165369105
 20
461.5599838064
 30
0.0
 11
205.6934170888
 21
461.7164958946
 31
0.0
  0
LINE
  5
172
330
106
100
AcDbEntity
  8
DV2_Standard
  6
Continuous
 62
     7
100
AcDbLine
 10
205.4759771834
 20
461.7533919466
 30
0.0
 11
205.6824371046
 21
461.9710859661
 31
0.0
  0
LINE
  5
173
330
106
100
AcDbEntity
  8
DV2_Standard
  6
Continuous
 62
     7
100
AcDbLine
 10
205.7012389026
 20
461.719187878
 30
0.0
 11
205.6318588684
 21
461.5769246118
 31
0.0
  0
LINE
  5
174
330
106
100
AcDbEntity
  8
DV2_Standard
  6
Continuous
 62
     7
100
AcDbLine
 10
205.8316261565
 20
462.3262792735
 30
0.0
 11
205.8294484992
 21
462.3281065449
 31
0.0
  0
LINE
  5
175
330
106
100
AcDbEntity
  8
DV2_Standard
  6
Continuous
 62
     7
100
AcDbLine
 10
205.5938460326
 20
461.9190871399
 30
0.0
 11
205.565175238
 21
461.943144793
 31
0.0
  0
LINE
  5
176
330
106
100
AcDbEntity
  8
DV2_Standard
  6
Continuous
 62
     7
100
AcDbLine
 10
205.8566965743
 20
462.3052426952
 30
0.0
 11
205.8316261567
 21
462.3262792734
 31
0.0
  0
LINE
  5
177
330
106
100
AcDbEntity
  8
DV2_Standard
  6
Continuous
 62
     7
100
AcDbLine
 10
206.4106607612
 20
462.9626550024
 30
0.0
 11
206.4023237724
 21
462.9696505666
 31
0.0
  0
ARC
  5
178
330
106
100
AcDbEntity
  8
DV2_Standard
  6
Continuous
 62
     7
100
AcDbCircle
 10
266.1772407425
 20
413.2585957783
 30
0.0
 40
77.74688782304662
100
AcDbArc
 50
140.2518166049
 51
140.325927094
  0
ARC
  5
179
330
106
100
AcDbEntity
  8
DV2_Standard
  6
Continuous
 62
     7
100
AcDbCircle
 10
266.1772407425
 20
413.2585957783
 30
0.0
 40
77.74688782304662
100
AcDbArc
 50
137.8630355605
 51
137.930361247
  0
ARC
  5
17A
330
106
100
AcDbEntity
  8
DV2_Standard
  6
Continuous
 62
     7
100
AcDbCircle
 10
9.3027087916
 20
635.7729921204
 30
0.0
 40
261.9544706814252
100
AcDbArc
 50
318.7265281413
 51
319.4978310481
  0
SPLINE
  5
17B
330
106
100
AcDbEntity
  8
DV2_Standard
  6
Continuous
 62
     7
100
AcDbSpline
210
0.0
220
0.0
230
1.0
 70
     8
 71
     3
 72
     8
 73
     4
 74
     0
 42
0.0000077268928626
 43
0.0000000001
 40
0.0
 40
0.0
 40
0.0
 40
0.0
 40
0.9999999999999999
 40
0.9999999999999999
 40
0.9999999999999999
 40
0.9999999999999999
 10
206.1099227892556
 20
462.8946405006463
 30
0.0
 10
206.1100988809353
 20
462.894853482769
 30
0.0
 10
206.1103771659686
 20
462.8951831163452
 30
0.0
 10
206.1107576277391
 20
462.8956293860935
 30
0.0
  0
SPLINE
  5
17C
330
106
100
AcDbEntity
  8
DV2_Standard
  6
Continuous
 62
     7
100
AcDbSpline
210
0.0
220
0.0
230
1.0
 70
     8
 71
     3
 72
    10
 73
     6
 74
     0
 42
0.0000000171749773
 43
0.0000000001
 40
0.0
 40
0.0
 40
0.0
 40
0.0
 40
0.0390978733377119
 40
0.0390978733377119
 40
0.9999999999999999
 40
0.9999999999999999
 40
0.9999999999999999
 40
0.9999999999999999
 10
206.1963012788526
 20
462.9938278042871
 30
0.0
 10
206.1993466921152
 20
462.9973155356075
 30
0.0
 10
206.2024723486802
 20
463.0008949091717
 30
0.0
 10
206.2844688356222
 20
463.0947876153588
 30
0.0
 10
206.4132157672742
 20
463.2421088893926
 30
0.0
 10
206.5791672675408
 20
463.4324845460807
 30
0.0
  0
SPLINE
  5
17D
330
106
100
AcDbEntity
  8
DV2_Standard
  6
Continuous
 62
     7
100
AcDbSpline
210
0.0
220
0.0
230
1.0
 70
     8
 71
     3
 72
     8
 73
     4
 74
     0
 42
0.0000000159587653
 43
0.0000000001
 40
0.0
 40
0.0
 40
0.0
 40
0.0
 40
1.0
 40
1.0
 40
1.0
 40
1.0
 10
208.0104698091241
 20
465.0845901956482
 30
0.0
 10
208.2000457506761
 20
465.3048351827852
 30
0.0
 10
208.3383181146135
 20
465.4660497627884
 30
0.0
 10
208.41905187947
 20
465.5596759880266
 30
0.0
  0
ARC
  5
17E
330
106
100
AcDbEntity
  8
DV2_Standard
  6
Continuous
 62
     7
100
AcDbCircle
 10
266.1772407425
 20
413.2585957783
 30
0.0
 40
77.4210635012879
100
AcDbArc
 50
137.8540380082
 51
138.4469574257
  0
ARC
  5
17F
330
106
100
AcDbEntity
  8
DV2_Standard
  6
Continuous
 62
     7
100
AcDbCircle
 10
266.1772407425
 20
413.2585957783
 30
0.0
 40
77.56364856483776
100
AcDbArc
 50
138.4498130775
 51
138.7141171036
  0
LINE
  5
180
330
106
100
AcDbEntity
  8
DV2_Standard
  6
Continuous
 62
     7
100
AcDbLine
 10
207.8938420534
 20
464.4363743148
 30
0.0
 11
207.9840935258
 21
464.3606443375
 31
0.0
  0
ARC
  5
181
330
106
100
AcDbEntity
  8
DV2_Standard
  6
Continuous
 62
     7
100
AcDbCircle
 10
266.1772407425
 20
413.2585957783
 30
0.0
 40
77.4458633493773
100
AcDbArc
 50
138.7121611116
 51
139.322971266
  0
ARC
  5
182
330
106
100
AcDbEntity
  8
DV2_Standard
  6
Continuous
 62
     7
100
AcDbCircle
 10
266.1772407425
 20
413.2585957783
 30
0.0
 40
77.56364856483783
100
AcDbArc
 50
139.3239994239
 51
139.7211125017
  0
LINE
  5
183
330
106
100
AcDbEntity
  8
DV2_Standard
  6
Continuous
 62
     7
100
AcDbLine
 10
207.0034206547
 20
463.4041698093
 30
0.0
 11
207.1299645481
 21
463.297986875
 31
0.0
  0
ARC
  5
184
330
106
100
AcDbEntity
  8
DV2_Standard
  6
Continuous
 62
     7
100
AcDbCircle
 10
266.1772407425
 20
413.2585957783
 30
0.0
 40
77.39845920506973
100
AcDbArc
 50
139.7205172752
 51
140.3273943527
  0
ARC
  5
185
330
106
100
AcDbEntity
  8
DV2_Standard
  6
Continuous
 62
     7
100
AcDbCircle
 10
266.1772407425
 20
413.2585957783
 30
0.0
 40
77.77887251664536
100
AcDbArc
 50
137.8639147432
 51
138.7176758988
  0
LINE
  5
186
330
106
100
AcDbEntity
  8
DV2_Standard
  6
Continuous
 62
     7
100
AcDbLine
 10
208.500049119
 20
465.4399581252
 30
0.0
 11
208.5522254068
 21
465.3961770214
 31
0.0
  0
ARC
  5
187
330
106
100
AcDbEntity
  8
DV2_Standard
  6
Continuous
 62
     7
100
AcDbCircle
 10
266.1824177388
 20
413.2650151498
 30
0.0
 40
77.71034105131082
100
AcDbArc
 50
137.8681135177
 51
140.3321596822
  0
LINE
  5
188
330
106
100
AcDbEntity
  8
DV2_Standard
  6
Continuous
 62
     7
100
AcDbLine
 10
206.3642634165
 20
462.8703124455
 30
0.0
 11
206.311851074
 21
462.9142916227
 31
0.0
  0
ARC
  5
189
330
106
100
AcDbEntity
  8
DV2_Standard
  6
Continuous
 62
     7
100
AcDbCircle
 10
266.1772407425
 20
413.2585957783
 30
0.0
 40
77.77887251664554
100
AcDbArc
 50
139.3258700892
 51
140.3257930629
  0
LINE
  5
18A
330
106
100
AcDbEntity
  8
DV2_Standard
  6
Continuous
 62
     7
100
AcDbLine
 10
206.2615424444
 20
462.9565055753
 30
0.0
 11
206.2320146869
 21
462.9812823057
 31
0.0
  0
LINE
  5
18B
330
106
100
AcDbEntity
  8
DV2_Standard
  6
Continuous
 62
     7
100
AcDbLine
 10
208.4201585806
 20
465.5069942466
 30
0.0
 11
208.4493559259
 21
465.4824947649
 31
0.0
  0
ARC
  5
18C
330
106
100
AcDbEntity
  8
DV2_Standard
  6
Continuous
 62
     7
100
AcDbCircle
 10
266.1915514
 20
413.2837033564
 30
0.0
 40
77.8387754443096
100
AcDbArc
 50
137.8865022516
 51
138.7395965368
  0
LINE
  5
18D
330
106
100
AcDbEntity
  8
DV2_Standard
  6
Continuous
 62
     7
100
AcDbLine
 10
207.6785813179
 20
464.6169995185
 30
0.0
 11
207.7289295259
 21
464.5747523557
 31
0.0
  0
SPLINE
  5
18E
330
106
100
AcDbEntity
  8
DV2_Standard
  6
Continuous
 62
     7
100
AcDbSpline
210
0.0
220
0.0
230
1.0
 70
     8
 71
     3
 72
    10
 73
     6
 74
     0
 42
0.0000001339861233
 43
0.0000000001
 40
0.0
 40
0.0
 40
0.0
 40
0.0
 40
0.2856419873475992
 40
0.2856419873475992
 40
1.0
 40
1.0
 40
1.0
 40
1.0
 10
206.6041943716749
 20
462.7990399918273
 30
0.0
 10
206.6093634437233
 20
462.8031029933093
 30
0.0
 10
206.6146353853785
 20
462.8072938969128
 30
0.0
 10
206.6334505110523
 20
462.8224124839259
 30
0.0
 10
206.647458739385
 20
462.8339550972115
 30
0.0
 10
206.6620158577467
 20
462.8462232796751
 30
0.0
  0
ARC
  5
18F
330
106
100
AcDbEntity
  8
DV2_Standard
  6
Continuous
 62
     7
100
AcDbCircle
 10
202.5982046515
 20
468.7351375534
 30
0.0
 40
7.015024893255926
100
AcDbArc
 50
329.3185490294
 51
329.7104937814
  0
LINE
  5
190
330
106
100
AcDbEntity
  8
DV2_Standard
  6
Continuous
 62
     7
100
AcDbLine
 10
204.3681631547
 20
460.3961370763
 30
0.0
 11
204.2824260839
 21
460.2144581413
 31
0.0
  0
ELLIPSE
  5
191
330
106
100
AcDbEntity
  8
DV2_Standard
  6
Continuous
 62
     7
100
AcDbEllipse
 10
262.674005156
 20
409.0838103855
 30
0.0
 11
-59.50941670241491
 21
49.93432548373869
 31
0.0
210
0.0
220
0.0
230
1.0
 40
0.4439798452
 41
-0.0474217012963702
 42
-0.0377734704006079
  0
LINE
  5
192
330
106
100
AcDbEntity
  8
DV2_Standard
  6
Continuous
 62
     7
100
AcDbLine
 10
203.9882790213
 20
460.1226061241
 30
0.0
 11
203.6822784326
 21
459.778564992
 31
0.0
  0
SPLINE
  5
193
330
106
100
AcDbEntity
  8
DV2_Standard
  6
Continuous
 62
     7
100
AcDbSpline
210
0.0
220
0.0
230
1.0
 70
     8
 71
     3
 72
     8
 73
     4
 74
     0
 42
0.0000000422099244
 43
0.0000000001
 40
0.0
 40
0.0
 40
0.0
 40
0.0
 40
1.0
 40
1.0
 40
1.0
 40
1.0
 10
203.6822784326182
 20
459.7785649919901
 30
0.0
 10
203.5889428743175
 20
459.6661815529725
 30
0.0
 10
203.5384128909712
 20
459.6055105130908
 30
0.0
 10
203.5306646467714
 20
459.5965230972994
 30
0.0
  0
SPLINE
  5
194
330
106
100
AcDbEntity
  8
DV2_Standard
  6
Continuous
 62
     7
100
AcDbSpline
210
0.0
220
0.0
230
1.0
 70
     8
 71
     3
 72
    12
 73
     8
 74
     0
 42
0.0000000200810888
 43
0.0000000001
 40
0.0
 40
0.0
 40
0.0
 40
0.0
 40
0.5
 40
0.5
 40
0.75
 40
0.75
 40
1.0
 40
1.0
 40
1.0
 40
1.0
 10
205.8156070429513
 20
462.4626521204716
 30
0.0
 10
205.9144650916247
 20
462.5593946872567
 30
0.0
 10
205.9701215309784
 20
462.5960890557443
 30
0.0
 10
205.9896223128389
 20
462.562165215519
 30
0.0
 10
205.9850436075752
 20
462.5357405119366
 30
0.0
 10
205.9544346095705
 20
462.4542724997721
 30
0.0
 10
205.9284451064776
 20
462.3991799883298
 30
0.0
 10
205.8914294808892
 20
462.3292675951126
 30
0.0
  0
LINE
  5
195
330
106
100
AcDbEntity
  8
DV2_Standard
  6
Continuous
 62
     7
100
AcDbLine
 10
205.8914294809
 20
462.3292675951
 30
0.0
 11
205.6744254836
 21
461.8735335251
 31
0.0
  0
SPLINE
  5
196
330
106
100
AcDbEntity
  8
DV2_Standard
  6
Continuous
 62
     7
100
AcDbSpline
210
0.0
220
0.0
230
1.0
 70
     8
 71
     3
 72
    10
 73
     6
 74
     0
 42
0.0000000317410502
 43
0.0000000001
 40
0.0
 40
0.0
 40
0.0
 40
0.0
 40
0.5000000000000008
 40
0.5000000000000008
 40
1.0
 40
1.0
 40
1.0
 40
1.0
 10
205.6744254835502
 20
461.8735335251076
 30
0.0
 10
205.6407398562941
 20
461.7933644003164
 30
0.0
 10
205.6327598546007
 20
461.7420654311094
 30
0.0
 10
205.6667493071956
 20
461.6955546274288
 30
0.0
 10
205.7092495887629
 20
461.7013132125525
 30
0.0
 10
205.7761969043205
 20
461.7366039309642
 30
0.0
  0
ARC
  5
197
330
106
100
AcDbEntity
  8
DV2_Standard
  6
Continuous
 62
     7
100
AcDbCircle
 10
194.3460936657
 20
471.8030350581
 30
0.0
 40
15.23089937204043
100
AcDbArc
 50
316.2841810013
 51
318.6297990949
  0
LINE
  5
198
330
106
100
AcDbEntity
  8
DV2_Standard
  6
Continuous
 62
     7
100
AcDbLine
 10
205.3472216694
 20
461.4853358525
 30
0.0
 11
205.5673069368
 21
461.9476224015
 31
0.0
  0
LINE
  5
199
330
106
100
AcDbEntity
  8
DV2_Standard
  6
Continuous
 62
     7
100
AcDbLine
 10
205.5006475998
 20
462.06488093
 30
0.0
 11
205.1835212551
 21
461.7301754189
 31
0.0
  0
SPLINE
  5
19A
330
106
100
AcDbEntity
  8
DV2_Standard
  6
Continuous
 62
     7
100
AcDbSpline
210
0.0
220
0.0
230
1.0
 70
     8
 71
     3
 72
    10
 73
     6
 74
     0
 42
0.0000000418371909
 43
0.0000000001
 40
0.0
 40
0.0
 40
0.0
 40
0.0
 40
0.9717429693850488
 40
0.9717429693850488
 40
1.0
 40
1.0
 40
1.0
 40
1.0
 10
205.1835212551322
 20
461.730175418873
 30
0.0
 10
205.0780969297514
 20
461.6110977692317
 30
0.0
 10
205.0252925963896
 20
461.5516494128997
 30
0.0
 10
205.0250784518241
 20
461.5518087083782
 30
0.0
 10
205.0251169170816
 20
461.551863638179
 30
0.0
 10
205.0251998978579
 20
461.5519689955994
 30
0.0
  0
LINE
  5
19B
330
106
100
AcDbEntity
  8
DV2_Standard
  6
Continuous
 62
     7
100
AcDbLine
 10
205.6687545195
 20
461.8782920328
 30
0.0
 11
205.7067366913
 21
461.9574296373
 31
0.0
  0
LINE
  5
19C
330
106
100
AcDbEntity
  8
DV2_Standard
  6
Continuous
 62
     7
100
AcDbLine
 10
205.4941340855
 20
462.1233514298
 30
0.0
 11
205.815607043
 21
462.4626521205
 31
0.0
  0
LINE
  5
19D
330
106
100
AcDbEntity
  8
DV2_Standard
  6
Continuous
 62
     7
100
AcDbLine
 10
205.0575513642
 20
461.228891734
 30
0.0
 11
205.1247635183
 21
461.3814178392
 31
0.0
  0
SPLINE
  5
19E
330
106
100
AcDbEntity
  8
DV2_Standard
  6
Continuous
 62
     7
100
AcDbSpline
210
0.0
220
0.0
230
1.0
 70
     8
 71
     3
 72
    10
 73
     6
 74
     0
 42
0.000000047785245
 43
0.0000000001
 40
0.0
 40
0.0
 40
0.0
 40
0.0
 40
0.0319375134965974
 40
0.0319375134965974
 40
1.0
 40
1.0
 40
1.0
 40
1.0
 10
204.6007469449724
 20
461.0095895684207
 30
0.0
 10
204.6006539338812
 20
461.0094693326625
 30
0.0
 10
204.6006101405985
 20
461.0094066406569
 30
0.0
 10
204.6007799583392
 20
461.0092454075419
 30
0.0
 10
204.6461899248658
 20
461.062008108054
 30
0.0
 10
204.7368172079906
 20
461.1676568661601
 30
0.0
  0
LINE
  5
19F
330
106
100
AcDbEntity
  8
DV2_Standard
  6
Continuous
 62
     7
100
AcDbLine
 10
204.736817208
 20
461.1676568662
 30
0.0
 11
205.0527029692
 21
461.5116460603
 31
0.0
  0
SPLINE
  5
1A0
330
106
100
AcDbEntity
  8
DV2_Standard
  6
Continuous
 62
     7
100
AcDbSpline
210
0.0
220
0.0
230
1.0
 70
     8
 71
     3
 72
    12
 73
     8
 74
     0
 42
0.00000002004529
 43
0.0000000001
 40
0.0
 40
0.0
 40
0.0
 40
0.0
 40
0.4999999999999998
 40
0.4999999999999998
 40
0.7499999999999999
 40
0.7499999999999999
 40
1.0
 40
1.0
 40
1.0
 40
1.0
 10
205.0527029691994
 20
461.5116460603036
 30
0.0
 10
205.1499324090397
 20
461.6097903584235
 30
0.0
 10
205.2048249915296
 20
461.6471157894514
 30
0.0
 10
205.2244784499065
 20
461.6130174701746
 30
0.0
 10
205.2201731637075
 20
461.5863485140317
 30
0.0
 10
205.1905517844314
 20
461.5040464768515
 30
0.0
 10
205.1652756384021
 20
461.4483642060866
 30
0.0
 10
205.1292055960622
 20
461.3776904994351
 30
0.0
  0
LINE
  5
1A1
330
106
100
AcDbEntity
  8
DV2_Standard
  6
Continuous
 62
     7
100
AcDbLine
 10
205.1292055961
 20
461.3776904994
 30
0.0
 11
204.8743261258
 21
460.7943131316
 31
0.0
  0
ARC
  5
1A2
330
106
100
AcDbEntity
  8
DV2_Standard
  6
Continuous
 62
     7
100
AcDbCircle
 10
170.1415292691
 20
495.0487334853
 30
0.0
 40
48.78250189622378
100
AcDbArc
 50
314.9261721075
 51
315.3972984626
  0
LINE
  5
1A3
330
106
100
AcDbEntity
  8
DV2_Standard
  6
Continuous
 62
     7
100
AcDbLine
 10
204.7438322451
 20
461.1087655387
 30
0.0
 11
204.4322170691
 21
460.769435608
 31
0.0
  0
SPLINE
  5
1A4
330
106
100
AcDbEntity
  8
DV2_Standard
  6
Continuous
 62
     7
100
AcDbSpline
210
0.0
220
0.0
230
1.0
 70
     8
 71
     3
 72
     8
 73
     4
 74
     0
 42
0.0000000422072062
 43
0.0000000001
 40
0.0
 40
0.0
 40
0.0
 40
0.0
 40
1.0
 40
1.0
 40
1.0
 40
1.0
 10
204.432217069096
 20
460.7694356080376
 30
0.0
 10
204.3370995919548
 20
460.65855310238
 30
0.0
 10
204.285605022179
 20
460.5986913568647
 30
0.0
 10
204.2777097886851
 20
460.5898229040678
 30
0.0
  0
ARC
  5
1A5
330
106
100
AcDbEntity
  8
DV2_Standard
  6
Continuous
 62
     7
100
AcDbCircle
 10
206.3674694449
 20
462.8595769408
 30
0.0
 40
0.1067997397489507
100
AcDbArc
 50
53.9049317507
 51
68.5905318878
  0
ARC
  5
1A6
330
106
100
AcDbEntity
  8
DV2_Standard
  6
Continuous
 62
     7
100
AcDbCircle
 10
206.3674694449
 20
462.8595769408
 30
0.0
 40
0.1067997397489507
100
AcDbArc
 50
75.3446503586
 51
97.255807011
  0
ARC
  5
1A7
330
106
100
AcDbEntity
  8
DV2_Standard
  6
Continuous
 62
     7
100
AcDbCircle
 10
204.67709077
 20
460.4523135686
 30
0.0
 40
0.1031543993151666
100
AcDbArc
 50
136.0601348097
 51
146.0803548344
  0
LINE
  5
1A8
330
106
100
AcDbEntity
  8
DV2_Standard
  6
Continuous
 62
     7
100
AcDbLine
 10
205.4811230833
 20
461.5011809049
 30
0.0
 11
205.7014616721
 21
461.9610322563
 31
0.0
  0
ELLIPSE
  5
1A9
330
106
100
AcDbEntity
  8
DV2_Standard
  6
Continuous
 62
     7
100
AcDbEllipse
 10
205.6450898663
 20
461.8851380052
 30
0.0
 11
0.0883767637180205
 21
-0.04679260235068705
 31
0.0
210
0.0
220
0.0
230
1.0
 40
0.9413717143
 41
1.371654419741866
 42
2.940260795229177
  0
ELLIPSE
  5
1AA
330
106
100
AcDbEntity
  8
DV2_Standard
  6
Continuous
 62
     7
100
AcDbEllipse
 10
205.5720109204
 20
462.060641514
 30
0.0
 11
-0.07487301670175764
 21
0.06628749029785608
 31
0.0
210
0.0
220
0.0
230
1.0
 40
0.9439798765
 41
0.049489406783585
 42
0.7262250281212894
  0
ARC
  5
1AB
330
106
100
AcDbEntity
  8
DV2_Standard
  6
Continuous
 62
     7
100
AcDbCircle
 10
205.4227590008
 20
461.4184980513
 30
0.0
 40
0.1008621837548372
100
AcDbArc
 50
50.7250592333
 51
138.4965897364
  0
ARC
  5
1AC
330
106
100
AcDbEntity
  8
DV2_Standard
  6
Continuous
 62
     7
100
AcDbCircle
 10
205.429797905
 20
461.2231138666
 30
0.0
 40
0.0926262103470869
100
AcDbArc
 50
139.1044045214
 51
144.2468819369
  0
LINE
  5
1AD
330
106
100
AcDbEntity
  8
DV2_Standard
  6
Continuous
 62
     7
100
AcDbLine
 10
204.3089147181
 20
460.3968043357
 30
0.0
 11
204.1911072506
 21
460.2643682605
 31
0.0
  0
ARC
  5
1AE
330
106
100
AcDbEntity
  8
DV2_Standard
  6
Continuous
 62
     7
100
AcDbCircle
 10
207.2123542083
 20
463.9357869608
 30
0.0
 40
0.0948547193921416
100
AcDbArc
 50
49.5564440123
 51
142.4009839992
  0
ARC
  5
1AF
330
106
100
AcDbEntity
  8
DV2_Standard
  6
Continuous
 62
     7
100
AcDbCircle
 10
266.1772407425
 20
413.2585957783
 30
0.0
 40
77.7446439760141
100
AcDbArc
 50
139.2527357652
 51
140.2518198721
  0
LINE
  5
1B0
330
106
100
AcDbEntity
  8
DV2_Standard
  6
Continuous
 62
     7
100
AcDbLine
 10
206.3993491697
 20
462.9721536411
 30
0.0
 11
206.4023272435
 21
462.9696547405
 31
0.0
  0
ARC
  5
1B1
330
106
100
AcDbEntity
  8
DV2_Standard
  6
Continuous
 62
     7
100
AcDbCircle
 10
266.1772407425
 20
413.2585957783
 30
0.0
 40
77.78313963772236
100
AcDbArc
 50
138.7177462578
 51
139.2546628537
  0
ARC
  5
1B2
330
106
100
AcDbEntity
  8
DV2_Standard
  6
Continuous
 62
     7
100
AcDbCircle
 10
208.4997730136
 20
465.4403068804
 30
0.0
 40
0.1038540454683103
100
AcDbArc
 50
140.0494786578
 51
188.1951684603
  0
ARC
  5
1B3
330
106
100
AcDbEntity
  8
DV2_Standard
  6
Continuous
 62
     7
100
AcDbCircle
 10
206.3094401429
 20
462.9119914028
 30
0.0
 40
0.1039034671138136
100
AcDbArc
 50
52.4299886977
 51
138.1734624932
  0
ARC
  5
1B4
330
106
100
AcDbEntity
  8
DV2_Standard
  6
Continuous
 62
     7
100
AcDbCircle
 10
207.2640760648
 20
463.8756952004
 30
0.0
 40
0.107703373503679
100
AcDbArc
 50
53.3497457773
 51
135.3064021219
  0
LINE
  5
1B5
330
106
100
AcDbEntity
  8
DV2_Standard
  6
Continuous
 62
     7
100
AcDbLine
 10
207.273886335
 20
464.0079757077
 30
0.0
 11
207.3042167724
 21
463.9825254489
 31
0.0
  0
ARC
  5
1B6
330
106
100
AcDbEntity
  8
DV2_Standard
  6
Continuous
 62
     7
100
AcDbCircle
 10
207.4265221135
 20
463.7634546793
 30
0.0
 40
0.0892116439688536
100
AcDbArc
 50
49.1397066619
 51
146.193035988
  0
LINE
  5
1B7
330
106
100
AcDbEntity
  8
DV2_Standard
  6
Continuous
 62
     7
100
AcDbLine
 10
207.4848858734
 20
463.8309260728
 30
0.0
 11
207.5070964429
 21
463.8122891922
 31
0.0
  0
LINE
  5
1B8
330
106
100
AcDbEntity
  8
DV2_Standard
  6
Continuous
 62
     7
100
AcDbLine
 10
206.5543003244
 20
462.8421341843
 30
0.0
 11
206.6675227364
 21
462.7471293002
 31
0.0
  0
LINE
  5
1B9
330
106
100
AcDbEntity
  8
DV2_Standard
  6
Continuous
 62
     7
100
AcDbLine
 10
206.5472541637
 20
462.8475357441
 30
0.0
 11
206.5543003244
 21
462.8421341843
 31
0.0
  0
ARC
  5
1BA
330
106
100
AcDbEntity
  8
DV2_Standard
  6
Continuous
 62
     7
100
AcDbCircle
 10
206.4849531245
 20
462.7560785825
 30
0.0
 40
0.1106608869682148
100
AcDbArc
 50
55.7371289431
 51
134.8515275934
  0
ARC
  5
1BB
330
106
100
AcDbEntity
  8
DV2_Standard
  6
Continuous
 62
     7
100
AcDbCircle
 10
266.1772407425
 20
413.2585957783
 30
0.0
 40
77.55513049644851
100
AcDbArc
 50
137.9338952094
 51
138.4266171022
  0
ARC
  5
1BC
330
106
100
AcDbEntity
  8
DV2_Standard
  6
Continuous
 62
     7
100
AcDbCircle
 10
266.1772407425
 20
413.2585957783
 30
0.0
 40
77.55513049644851
100
AcDbArc
 50
138.7139758482
 51
139.2825515743
  0
ARC
  5
1BD
330
106
100
AcDbEntity
  8
DV2_Standard
  6
Continuous
 62
     7
100
AcDbCircle
 10
266.1772407425
 20
413.2585957783
 30
0.0
 40
77.55513049644851
100
AcDbArc
 50
139.7210818705
 51
140.2527243446
  0
ARC
  5
1BE
330
106
100
AcDbEntity
  8
DV2_Standard
  6
Continuous
 62
     7
100
AcDbCircle
 10
208.6839250731
 20
465.2942682964
 30
0.0
 40
0.1105300639116632
100
AcDbArc
 50
143.4172217324
 51
222.518800734
  0
LINE
  5
1BF
330
106
100
AcDbEntity
  8
DV2_Standard
  6
Continuous
 62
     7
100
AcDbLine
 10
208.7047440187
 20
465.1328012566
 30
0.0
 11
208.611201602
 21
465.2112926639
 31
0.0
  0
LINE
  5
1C0
330
106
100
AcDbEntity
  8
DV2_Standard
  6
Continuous
 62
     7
100
AcDbLine
 10
208.611201602
 20
465.2112926639
 30
0.0
 11
208.6024582691
 21
465.2195685315
 31
0.0
  0
ARC
  5
1C1
330
106
100
AcDbEntity
  8
DV2_Standard
  6
Continuous
 62
     7
100
AcDbCircle
 10
208.2037860525
 20
464.6539732689
 30
0.0
 40
0.0890874699735839
100
AcDbArc
 50
49.1586341089
 51
145.3001641923
  0
LINE
  5
1C2
330
106
100
AcDbEntity
  8
DV2_Standard
  6
Continuous
 62
     7
100
AcDbLine
 10
208.2620463146
 20
464.7213699985
 30
0.0
 11
208.30442548
 21
464.6858096564
 31
0.0
  0
ARC
  5
1C3
330
106
100
AcDbEntity
  8
DV2_Standard
  6
Continuous
 62
     7
100
AcDbCircle
 10
206.2532358907
 20
462.9097080581
 30
0.0
 40
0.0974811333473818
100
AcDbArc
 50
48.5170449999
 51
81.8492596878
  0
ARC
  5
1C4
330
106
100
AcDbEntity
  8
DV2_Standard
  6
Continuous
 62
     7
100
AcDbCircle
 10
762.1533657554
 20
1350.883124943
 30
0.0
 40
1007.581234879378
100
AcDbArc
 50
239.1206209522
 51
240.3854265914
  0
ARC
  5
1C5
330
106
100
AcDbEntity
  8
DV2_Standard
  6
Continuous
 62
     7
100
AcDbCircle
 10
232.3084772929
 20
392.5775659898
 30
0.0
 40
33.70128764846795
100
AcDbArc
 50
174.2348239498
 51
180.7571301717
  0
SPLINE
  5
1C6
330
106
100
AcDbEntity
  8
DV2_Standard
  6
Continuous
 62
     7
100
AcDbSpline
210
0.0
220
0.0
230
1.0
 70
     8
 71
     3
 72
    26
 73
    22
 74
     0
 42
0.0000000001610287
 43
0.0000000001
 40
0.0
 40
0.0
 40
0.0
 40
0.0
 40
0.0630367220302528
 40
0.1325615008763777
 40
0.2023249051360895
 40
0.2725176764913397
 40
0.34325820934038
 40
0.4146937475271346
 40
0.4870165161330575
 40
0.5512043472203405
 40
0.6164492941447114
 40
0.6830143448824748
 40
0.7512040255632799
 40
0.7902076992023916
 40
0.8298496875054023
 40
0.8697425790766855
 40
0.90838355526135
 40
0.9368173572883988
 40
0.962750427950754
 40
0.9854892886750822
 40
1.0
 40
1.0
 40
1.0
 40
1.0
 10
195.9413680297808
 20
447.5342857999295
 30
0.0
 10
195.0378714903876
 20
446.4194641027254
 30
0.0
 10
193.4374741756759
 20
444.4394875611773
 30
0.0
 10
190.8132617049791
 20
441.0671211926662
 30
0.0
 10
188.2288768193353
 20
437.6159815857783
 30
0.0
 10
185.6864654646959
 20
434.0650949292271
 30
0.0
 10
183.2433211428791
 20
430.412765231403
 30
0.0
 10
180.9249571406287
 20
426.625118168657
 30
0.0
 10
178.854336789559
 20
422.8504767419351
 30
0.0
 10
177.0441094428115
 20
419.08587101842
 30
0.0
 10
175.4916785776615
 20
415.3360494301668
 30
0.0
 10
174.1407699342786
 20
411.4211875707836
 30
0.0
 10
173.1640973068062
 20
407.9584384858935
 30
0.0
 10
172.4608829377113
 20
405.0017750103805
 30
0.0
 10
171.962142225809
 20
402.5996181508544
 30
0.0
 10
171.529445535175
 20
400.1918842465906
 30
0.0
 10
171.1926042300185
 20
398.0050388189632
 30
0.0
 10
170.9444400481721
 20
396.0925680373741
 30
0.0
 10
170.7812765877606
 20
394.5158352093251
 30
0.0
 10
170.6766138338985
 20
393.1815205094544
 30
0.0
 10
170.6644807409419
 20
392.462691136713
 30
0.0
 10
170.6593141674393
 20
392.1324020256032
 30
0.0
  0
ARC
  5
1C7
330
106
100
AcDbEntity
  8
DV2_Standard
  6
Continuous
 62
     7
100
AcDbCircle
 10
241.9506377745
 20
480.977359069
 30
0.0
 40
5.999999999999867
100
AcDbArc
 50
59.1206209522
 51
109.6848312654
  0
ARC
  5
1C8
330
106
100
AcDbEntity
  8
DV2_Standard
  6
Continuous
 62
     7
100
AcDbCircle
 10
208.7135121656
 20
395.1389752649
 30
0.0
 40
9.985313876722664
100
AcDbArc
 50
110.9401421004
 51
175.2578764864
  0
ARC
  5
1C9
330
106
100
AcDbEntity
  8
DV2_Standard
  6
Continuous
 62
     7
100
AcDbCircle
 10
188.8087687639
 20
453.4749454247
 30
0.0
 40
9.273926643913564
100
AcDbArc
 50
320.2114490963
 51
332.7074752435
  0
LINE
  5
1CA
330
106
100
AcDbEntity
  8
DV2_Standard
  6
Continuous
 62
     7
100
AcDbLine
 10
170.5677012096
 20
292.5910745838
 30
0.0
 11
170.6911368236
 21
285.3009907922
 31
0.0
  0
LINE
  5
1CB
330
106
100
AcDbEntity
  8
DV2_Standard
  6
Continuous
 62
     7
100
AcDbLine
 10
198.5663087681
 20
285.3009907922
 30
0.0
 11
198.689744382
 21
292.5910745838
 31
0.0
  0
ARC
  5
1CC
330
106
100
AcDbEntity
  8
DV2_Standard
  6
Continuous
 62
     7
100
AcDbCircle
 10
186.2849544165
 20
296.4796714916
 30
0.0
 40
13.00000000000057
100
AcDbArc
 50
342.595073569
 51
13.8475131639
  0
ARC
  5
1CD
330
106
100
AcDbEntity
  8
DV2_Standard
  6
Continuous
 62
     7
100
AcDbCircle
 10
182.9724911751
 20
296.4796714916
 30
0.0
 40
13.00000000000053
100
AcDbArc
 50
166.1524868361
 51
197.404926431
  0
ARC
  5
1CE
330
106
100
AcDbEntity
  8
DV2_Standard
  6
Continuous
 62
     7
100
AcDbCircle
 10
707.595539669
 20
342.1209586837
 30
0.0
 40
538.9259834481161
100
AcDbArc
 50
175.4253900124
 51
184.5262602376
  0
ARC
  5
1CF
330
106
100
AcDbEntity
  8
DV2_Standard
  6
Continuous
 62
     7
100
AcDbCircle
 10
-338.3380940773
 20
342.1209586837
 30
0.0
 40
538.9259834481162
100
AcDbArc
 50
355.4737397624
 51
4.5746099876
  0
ARC
  5
1D0
330
106
100
AcDbEntity
  8
DV2_Standard
  6
Continuous
 62
     7
100
AcDbCircle
 10
186.2313601882
 20
388.1436628459
 30
0.0
 40
13.0
100
AcDbArc
 50
346.4787659511
 51
17.8723659312
  0
ARC
  5
1D1
330
106
100
AcDbEntity
  8
DV2_Standard
  6
Continuous
 62
     7
100
AcDbCircle
 10
183.0260854034
 20
388.1436628459
 30
0.0
 40
13.0
100
AcDbArc
 50
162.1242127368
 51
193.5212340489
  0
ARC
  5
1D2
330
106
100
AcDbEntity
  8
DV2_Standard
  6
Continuous
 62
     7
100
AcDbCircle
 10
197.066523741
 20
285.3263851348
 30
0.0
 40
1.499999999999998
100
AcDbArc
 50
270.0
 51
359.0299612216
  0
ARC
  5
1D3
330
106
100
AcDbEntity
  8
DV2_Standard
  6
Continuous
 62
     7
100
AcDbCircle
 10
172.1909218506
 20
285.3263851348
 30
0.0
 40
1.500000000000034
100
AcDbArc
 50
180.9700387784
 51
270.0
  0
ARC
  5
1D4
330
106
100
AcDbEntity
  8
DV2_Standard
  6
Continuous
 62
     7
100
AcDbCircle
 10
271.3850714889
 20
408.5369849883
 30
0.0
 40
84.7469725684729
100
AcDbArc
 50
137.8304542793
 51
137.9056298218
  0
ARC
  5
1D5
330
106
100
AcDbEntity
  8
DV2_Standard
  6
Continuous
 62
     7
100
AcDbCircle
 10
271.758123694
 20
408.981571294
 30
0.0
 40
84.7469725684729
100
AcDbArc
 50
140.4419035437
 51
140.520155854
  0
ARC
  5
1D6
330
106
100
AcDbEntity
  8
DV2_Standard
  6
Continuous
 62
     7
100
AcDbCircle
 10
266.1772407425
 20
413.2585957783
 30
0.0
 40
77.921896478006
100
AcDbArc
 50
143.5094651295
 51
152.5142066705
  0
ARC
  5
1D7
330
106
100
AcDbEntity
  8
DV2_Standard
  6
Continuous
 62
     7
100
AcDbCircle
 10
266.1772407425
 20
413.2585957783
 30
0.0
 40
77.921896478006
100
AcDbArc
 50
142.5956065305
 51
143.1180800043
  0
ARC
  5
1D8
330
106
100
AcDbEntity
  8
DV2_Standard
  6
Continuous
 62
     7
100
AcDbCircle
 10
266.1772407425
 20
413.2585957783
 30
0.0
 40
77.92189647800599
100
AcDbArc
 50
141.6988917136
 51
142.2046676804
  0
ARC
  5
1D9
330
106
100
AcDbEntity
  8
DV2_Standard
  6
Continuous
 62
     7
100
AcDbCircle
 10
266.1772407425
 20
413.2585957783
 30
0.0
 40
77.92189647800602
100
AcDbArc
 50
140.4282187085
 51
141.3080883196
  0
ARC
  5
1DA
330
106
100
AcDbEntity
  8
DV2_Standard
  6
Continuous
 62
     7
100
AcDbCircle
 10
266.1772407425
 20
413.2585957783
 30
0.0
 40
77.92189647800606
100
AcDbArc
 50
109.6848312654
 51
137.7622728253
  0
SPLINE
  5
1DB
330
106
100
AcDbEntity
  8
DV2_Standard
  6
Continuous
 62
     7
100
AcDbSpline
210
0.0
220
0.0
230
1.0
 70
     8
 71
     3
 72
    15
 73
    11
 74
     0
 42
0.000000147959254
 43
0.0000000001
 40
0.0
 40
0.0
 40
0.0
 40
0.0
 40
0.5532325341042152
 40
0.6510448518759285
 40
0.6959782381468445
 40
0.7162790708779113
 40
0.7423776033615894
 40
0.8198119166679144
 40
0.9565961982516651
 40
1.0
 40
1.0
 40
1.0
 40
1.0
 10
206.6222776680092
 20
463.5081638642587
 30
0.0
 10
206.6193456093129
 20
463.5047529332817
 30
0.0
 10
206.6167390715598
 20
463.5017092188728
 30
0.0
 10
206.6147755259505
 20
463.4993539235682
 30
0.0
 10
206.613352850438
 20
463.4976181755939
 30
0.0
 10
206.6113285559105
 20
463.4949843868013
 30
0.0
 10
206.6073987371413
 20
463.4895156739172
 30
0.0
 10
206.59993398956
 20
463.4768635512993
 30
0.0
 10
206.5948178285335
 20
463.4621996764039
 30
0.0
 10
206.592929138869
 20
463.4514900981408
 30
0.0
 10
206.5925748603608
 20
463.4488957019355
 30
0.0
  0
SPLINE
  5
1DC
330
106
100
AcDbEntity
  8
DV2_Standard
  6
Continuous
 62
     7
100
AcDbSpline
210
0.0
220
0.0
230
1.0
 70
     8
 71
     3
 72
    12
 73
     8
 74
     0
 42
0.0000000320475142
 43
0.0000000001
 40
0.0
 40
0.0
 40
0.0
 40
0.0
 40
0.0895373948167876
 40
0.2617532850875028
 40
0.446812830710375
 40
0.7712710988221151
 40
1.0
 40
1.0
 40
1.0
 40
1.0
 10
205.0247588371895
 20
461.2174742962477
 30
0.0
 10
205.0127917281343
 20
461.2299254904967
 30
0.0
 10
204.9836327799239
 20
461.2612531131314
 30
0.0
 10
204.9147987639103
 20
461.2469011007875
 30
0.0
 10
204.874279000659
 20
461.2255196215551
 30
0.0
 10
204.8311175251449
 20
461.1948337247607
 30
0.0
 10
204.7918182961308
 20
461.1554289006049
 30
0.0
 10
204.7727020192142
 20
461.1360377810853
 30
0.0
  0
ARC
  5
1DD
330
106
100
AcDbEntity
  8
DV2_Standard
  6
Continuous
 62
     7
100
AcDbCircle
 10
204.3558420912
 20
460.5284535571
 30
0.0
 40
0.0995237079006852
100
AcDbArc
 50
136.8116172928
 51
137.5505032299
  0
SPLINE
  5
1DE
330
106
100
AcDbEntity
  8
DV2_Standard
  6
Continuous
 62
     7
100
AcDbSpline
210
0.0
220
0.0
230
1.0
 70
     8
 71
     3
 72
    12
 73
     8
 74
     0
 42
0.0000000320854163
 43
0.0000000001
 40
0.0
 40
0.0
 40
0.0
 40
0.0
 40
0.0885302473123864
 40
0.2604035934481459
 40
0.4462942908732483
 40
0.7743598484903202
 40
1.0
 40
1.0
 40
1.0
 40
1.0
 10
205.7825628667329
 20
462.1707264742811
 30
0.0
 10
205.7707176187475
 20
462.1830866507721
 30
0.0
 10
205.7416478993684
 20
462.2143803936158
 30
0.0
 10
205.6736253076262
 20
462.2003847139597
 30
0.0
 10
205.6326080973679
 20
462.1796248166605
 30
0.0
 10
205.5888239636681
 20
462.1492622945824
 30
0.0
 10
205.548626961649
 20
462.1101455236746
 30
0.0
 10
205.5293541454919
 20
462.0911695118597
 30
0.0
  0
ARC
  5
1DF
330
106
100
AcDbEntity
  8
DV2_Standard
  6
Continuous
 62
     7
100
AcDbCircle
 10
203.6099460889
 20
459.5359735701
 30
0.0
 40
0.0999447957961464
100
AcDbArc
 50
137.6109945057
 51
138.339698957
  0
SPLINE
  5
1E0
330
106
100
AcDbEntity
  8
DV2_Standard
  6
Continuous
 62
     7
100
AcDbSpline
210
0.0
220
0.0
230
1.0
 70
     8
 71
     3
 72
    13
 73
     9
 74
     0
 42
0.000000026924287
 43
0.0000000001
 40
0.0
 40
0.0
 40
0.0
 40
0.0
 40
0.0431463535991257
 40
0.1974467888139881
 40
0.3454019445440146
 40
0.5752411420365936
 40
0.9979588689693117
 40
1.0
 40
1.0
 40
1.0
 40
1.0
 10
204.2713375386466
 20
460.2348109011207
 30
0.0
 10
204.2665280731106
 20
460.2422352661167
 30
0.0
 10
204.2484076919257
 20
460.2713269018359
 30
0.0
 10
204.1670199114429
 20
460.2694248885081
 30
0.0
 10
204.1269428946405
 20
460.2469404910091
 30
0.0
 10
204.0689256023672
 20
460.2058215507887
 30
0.0
 10
204.0228711495291
 20
460.1636673995615
 30
0.0
 10
203.9785838824327
 20
460.1133768648818
 30
0.0
 10
203.978337427378
 20
460.1130969736882
 30
0.0
  0
SPLINE
  5
1E1
330
106
100
AcDbEntity
  8
DV2_Standard
  6
Continuous
 62
     7
100
AcDbSpline
210
0.0
220
0.0
230
1.0
 70
     8
 71
     3
 72
    11
 73
     7
 74
     0
 42
0.0000000548657079
 43
0.0000000001
 40
0.0
 40
0.0
 40
0.0
 40
0.0
 40
0.0444299675703566
 40
0.3326046616798225
 40
0.7580641447944075
 40
1.0
 40
1.0
 40
1.0
 40
1.0
 10
204.4352951627211
 20
460.5714701182663
 30
0.0
 10
204.4356147384633
 20
460.5714913899637
 30
0.0
 10
204.4378998597793
 20
460.5701849241592
 30
0.0
 10
204.42953097732
 20
460.5460377532608
 30
0.0
 10
204.4106735285564
 20
460.4904509650918
 30
0.0
 10
204.3813829300007
 20
460.4309063620296
 30
0.0
 10
204.3687726763098
 20
460.4051282482515
 30
0.0
  0
ARC
  5
1E2
330
106
100
AcDbEntity
  8
DV2_Standard
  6
Continuous
 62
     7
100
AcDbCircle
 10
266.1772407425
 20
413.2585957783
 30
0.0
 40
77.8446439760141
100
AcDbArc
 50
139.3233212705
 51
140.3232178598
  0
SPLINE
  5
1E3
330
106
100
AcDbEntity
  8
DV2_Standard
  6
Continuous
 62
     7
100
AcDbSpline
210
0.0
220
0.0
230
1.0
 70
     8
 71
     3
 72
    13
 73
     9
 74
     0
 42
0.0000000835075401
 43
0.0000000001
 40
0.0
 40
0.0
 40
0.0
 40
0.0
 40
0.5955618359915993
 40
0.9360664156904032
 40
0.9771518499143538
 40
0.987936258616431
 40
0.9959697540824447
 40
1.0
 40
1.0
 40
1.0
 40
1.0
 10
206.196912741603
 20
462.9940712718051
 30
0.0
 10
206.1723839210225
 20
462.966615397399
 30
0.0
 10
206.1403214992105
 20
462.930941820352
 30
0.0
 10
206.1292474125264
 20
462.9176272145597
 30
0.0
 10
206.1256594007695
 20
462.9137773684003
 30
0.0
 10
206.1226490237302
 20
462.9098309281368
 30
0.0
 10
206.1204310518777
 20
462.9068520532654
 30
0.0
 10
206.1190321095011
 20
462.9045765113204
 30
0.0
 10
206.1184874276991
 20
462.9036919050656
 30
0.0
  0
LINE
  5
1E4
330
106
100
AcDbEntity
  8
DV2_Standard
  6
Continuous
 62
     7
100
AcDbLine
 10
205.7400526672
 20
405.2006897511
 30
0.0
 11
205.975209742
 21
405.0102633067
 31
0.0
  0
LINE
  5
1E5
330
106
100
AcDbEntity
  8
DV2_Standard
  6
Continuous
 62
     7
100
AcDbLine
 10
263.8462895349
 20
473.9783305571
 30
0.0
 11
263.6179214985
 21
474.1768478625
 31
0.0
  0
ENDBLK
  5
1E7
330
106
100
AcDbEntity
  8
0
100
AcDbBlockEnd
  0
BLOCK
  5
305
330
1E8
100
AcDbEntity
  8
0
100
AcDbBlockBegin
  2
SE2
 70
     0
 10
0.0
 20
0.0
 30
0.0
  3
SE2
  1

  0
ELLIPSE
  5
1EB
330
1E8
100
AcDbEntity
  8
DV3_Standard
  6
Continuous
 62
     7
100
AcDbEllipse
 10
56.1606007282
 20
142.7793235696
 30
0.0
 11
45.45000000000001
 21
-3.469446951953614E-14
 31
0.0
210
0.0
220
0.0
230
1.0
 40
0.6427876097
 41
-4.524342221233361
 42
-4.522022081257845
  0
ELLIPSE
  5
1EC
330
1E8
100
AcDbEntity
  8
DV3_Standard
  6
Continuous
 62
     7
100
AcDbEllipse
 10
56.1606007282
 20
142.7793235696
 30
0.0
 11
45.45000000000001
 21
-3.469446951953614E-14
 31
0.0
210
0.0
220
0.0
230
1.0
 40
0.6427876097
 41
1.505352290627509
 42
1.511176875623979
  0
ELLIPSE
  5
1ED
330
1E8
100
AcDbEntity
  8
DV3_Standard
  6
Continuous
 62
     7
100
AcDbEllipse
 10
56.1606007282
 20
142.7793235696
 30
0.0
 11
45.45000000000001
 21
-3.469446951953614E-14
 31
0.0
210
0.0
220
0.0
230
1.0
 40
0.6427876097
 41
1.45570147347608
 42
1.458020436384843
  0
ELLIPSE
  5
1EE
330
1E8
100
AcDbEntity
  8
DV3_Standard
  6
Continuous
 62
     7
100
AcDbEllipse
 10
56.1606007282
 20
142.7793235696
 30
0.0
 11
-43.79999999999992
 21
6.938893903907228E-14
 31
0.0
210
0.0
220
0.0
230
1.0
 40
0.6427876097
 41
-1.493938898681817
 42
-1.491656149683506
  0
ELLIPSE
  5
1EF
330
1E8
100
AcDbEntity
  8
DV3_Standard
  6
Continuous
 62
     7
100
AcDbEllipse
 10
56.1606007282
 20
142.7793235696
 30
0.0
 11
-43.79999999999992
 21
6.938893903907228E-14
 31
0.0
210
0.0
220
0.0
230
1.0
 40
0.6427876097
 41
4.592938004380403
 42
4.595343269578056
  0
ELLIPSE
  5
1F0
330
1E8
100
AcDbEntity
  8
DV3_Standard
  6
Continuous
 62
     7
100
AcDbEllipse
 10
56.1606007282
 20
138.07762912
 30
0.0
 11
0.0
 21
35.87349048771438
 31
0.0
210
0.0
220
0.0
230
1.0
 40
1.0
 41
2.486546857667139
 42
3.771414600134965
  0
ELLIPSE
  5
1F1
330
1E8
100
AcDbEntity
  8
DV3_Standard
  6
Continuous
 62
     7
100
AcDbEllipse
 10
56.1606007282
 20
143.9005033494
 30
0.0
 11
0.0
 21
46.53021420198759
 31
0.0
210
0.0
220
0.0
230
1.0
 40
1.0
 41
-1.522867938739955
 42
-1.380700388528611
  0
ELLIPSE
  5
1F2
330
1E8
100
AcDbEntity
  8
DV3_Standard
  6
Continuous
 62
     7
100
AcDbEllipse
 10
56.1606007282
 20
143.9005033494
 30
0.0
 11
0.0
 21
45.46393002658495
 31
0.0
210
0.0
220
0.0
230
1.0
 40
1.0
 41
1.380391122628557
 42
1.536314605503307
  0
SPLINE
  5
1F3
330
1E8
100
AcDbEntity
  8
DV3_Standard
  6
Continuous
 62
     7
100
AcDbSpline
210
0.0
220
0.0
230
1.0
 70
     8
 71
     3
 72
    50
 73
    46
 74
     0
 42
0.0000000001663683
 43
0.0000000001
 40
0.0
 40
0.0
 40
0.0
 40
0.0
 40
0.0048263079267799
 40
0.0287055649949562
 40
0.0525884122748142
 40
0.0764748824009602
 40
0.1003649166429405
 40
0.1242583455667216
 40
0.1481548667472864
 40
0.1720540194751144
 40
0.1959551565985453
 40
0.2198574139411152
 40
0.2437592682626236
 40
0.267659207922586
 40
0.2915554189138918
 40
0.3154457445133855
 40
0.3393276737387541
 40
0.3631983461892202
 40
0.3870545796122378
 40
0.4108929269023135
 40
0.4347097687654919
 40
0.4585014466028125
 40
0.4822644369713298
 40
0.5059955641693209
 40
0.5296922413165983
 40
0.5533527234775266
 40
0.5769763500790527
 40
0.6005637495693485
 40
0.624116978347844
 40
0.6476395693976708
 40
0.6711364738535042
 40
0.6946138900570797
 40
0.7180789877921958
 40
0.7415395482307101
 40
0.7650011228837961
 40
0.7884713720750338
 40
0.8119576674087016
 40
0.8354665013904297
 40
0.8590031976940666
 40
0.8825717217679268
 40
0.9061746003543014
 40
0.9298129461264553
 40
0.9534865729040853
 40
0.977194179229605
 40
1.0
 40
1.0
 40
1.0
 40
1.0
 10
77.12345897558082
 20
109.3553230622365
 30
0.0
 10
77.2516998120158
 20
109.3924827954169
 30
0.0
 10
77.90513047090751
 20
109.5821304314731
 30
0.0
 10
79.1853583678324
 20
110.0035064433592
 30
0.0
 10
80.83765540689488
 20
110.5857482861289
 30
0.0
 10
82.47035112212959
 20
111.2179552968135
 30
0.0
 10
84.06112799124266
 20
111.8878869534285
 30
0.0
 10
85.61302538114538
 20
112.5976994091463
 30
0.0
 10
87.12234838639662
 20
113.3456209064348
 30
0.0
 10
88.5872713441961
 20
114.1308630869412
 30
0.0
 10
90.00553479774459
 20
114.952304573993
 30
0.0
 10
91.37505768479198
 20
115.8088383560648
 30
0.0
 10
92.69378110986676
 20
116.6992790213495
 30
0.0
 10
93.95971613161363
 20
117.6223868961338
 30
0.0
 10
95.17094185310991
 20
118.5768653372995
 30
0.0
 10
96.32560665136205
 20
119.5613574918311
 30
0.0
 10
97.421931675682
 20
120.5744441439911
 30
0.0
 10
98.45821667787027
 20
121.6146426979025
 30
0.0
 10
99.43284655327409
 20
122.6804066202412
 30
0.0
 10
100.3442989451537
 20
123.7701259551342
 30
0.0
 10
101.1911526574734
 20
124.8821292996097
 30
0.0
 10
101.9720965655012
 20
126.0146876898713
 30
0.0
 10
102.6859384776657
 20
127.1660207451297
 30
0.0
 10
103.3316132190327
 20
128.3343052445492
 30
0.0
 10
103.9081890683431
 20
129.5176860417204
 30
0.0
 10
104.4148716524395
 20
130.7142888796803
 30
0.0
 10
104.8510045239347
 20
131.9222343035508
 30
0.0
 10
105.2160659410296
 20
133.139651547876
 30
0.0
 10
105.5096618142819
 20
134.3646910795571
 30
0.0
 10
105.7315153233628
 20
135.5955344708907
 30
0.0
 10
105.8814542425656
 20
136.8304004924584
 30
0.0
 10
105.9593974379548
 20
138.0675467413104
 30
0.0
 10
105.9653422179941
 20
139.3052666847615
 30
0.0
 10
105.8993564461884
 20
140.5418399964158
 30
0.0
 10
105.7615812344104
 20
141.7755640576779
 30
0.0
 10
105.5522285072589
 20
143.004749555466
 30
0.0
 10
105.2715685410929
 20
144.2277532527293
 30
0.0
 10
104.9199363487931
 20
145.4429281473968
 30
0.0
 10
104.4977413951204
 20
146.6486110476729
 30
0.0
 10
104.0054790257872
 20
147.8431178614804
 30
0.0
 10
103.4437430160126
 20
149.0247426580721
 30
0.0
 10
102.8132353574074
 20
150.1917626174586
 30
0.0
 10
102.1147805243142
 20
151.3424400574314
 30
0.0
 10
101.3593593983672
 20
152.4601838624718
 30
0.0
 10
100.8171970430517
 20
153.1872533059539
 30
0.0
 10
100.5415586787993
 20
153.540258695718
 30
0.0
  0
SPLINE
  5
1F4
330
1E8
100
AcDbEntity
  8
DV3_Standard
  6
Continuous
 62
     7
100
AcDbSpline
210
0.0
220
0.0
230
1.0
 70
     8
 71
     3
 72
    50
 73
    46
 74
     0
 42
0.000000000169055
 43
0.0000000001
 40
0.0
 40
0.0
 40
0.0
 40
0.0
 40
0.0057940145645558
 40
0.0299062993536806
 40
0.0539913684339478
 40
0.0780457915553161
 40
0.1020666041164766
 40
0.1260515596546947
 40
0.1499993842803738
 40
0.1739100075956536
 40
0.1977847417507507
 40
0.2216263813734175
 40
0.2454392027214663
 40
0.2692288501747691
 40
0.2930021107775121
 40
0.3167665909810933
 40
0.3405292612462826
 40
0.3642965708668969
 40
0.3880763076615098
 40
0.4118755570389474
 40
0.4357003627588191
 40
0.4595554799138904
 40
0.4834442352760433
 40
0.5073684976318613
 40
0.5313287487802939
 40
0.5553242363110154
 40
0.5793531833169696
 40
0.6034130282752319
 40
0.627500670130808
 40
0.65161269818955
 40
0.675745592497617
 40
0.6998958867010123
 40
0.7240602909604207
 40
0.7482357767686991
 40
0.7724196283014189
 40
0.7966094663441179
 40
0.8208032511725757
 40
0.8449992703586409
 40
0.8691960008436334
 40
0.8933921073424993
 40
0.9175867829083001
 40
0.9417794263136137
 40
0.9659696130745965
 40
0.990157068831594
 40
1.0
 40
1.0
 40
1.0
 40
1.0
 10
11.78195617749338
 20
153.5432187607151
 30
0.0
 10
11.71280967224936
 20
153.4546863747251
 30
0.0
 10
11.35908401181747
 20
152.9965827333629
 30
0.0
 10
10.75025006405318
 20
152.159080540865
 30
0.0
 10
10.00108856408332
 20
151.0173702833362
 30
0.0
 10
9.31954890231778
 20
149.8577425391609
 30
0.0
 10
8.706637432902085
 20
148.6820440764054
 30
0.0
 10
8.163219768277544
 20
147.4921389842265
 30
0.0
 10
7.690024800773451
 20
146.2899062460784
 30
0.0
 10
7.287644178943391
 20
145.0772227332328
 30
0.0
 10
6.956537837651836
 20
143.8559505758102
 30
0.0
 10
6.697042609602972
 20
142.6279255217279
 30
0.0
 10
6.509383890763297
 20
141.3949488014905
 30
0.0
 10
6.39368890166183
 20
140.1587830912327
 30
0.0
 10
6.350000000000001
 20
138.9211530931283
 30
0.0
 10
6.378285916295842
 20
137.6837689283652
 30
0.0
 10
6.478443634581811
 20
136.4483435281384
 30
0.0
 10
6.650298220581961
 20
135.2165720532078
 30
0.0
 10
6.893609200343972
 20
133.9901225631731
 30
0.0
 10
7.208076676389501
 20
132.7706367993362
 30
0.0
 10
7.593331555558934
 20
131.5597686053478
 30
0.0
 10
8.04892501446207
 20
130.3591907906617
 30
0.0
 10
8.574316457765658
 20
129.1705979518038
 30
0.0
 10
9.168861619305288
 20
127.9957050230723
 30
0.0
 10
9.831802292087687
 20
126.8362419006963
 30
0.0
 10
10.56225880043604
 20
125.6939449503882
 30
0.0
 10
11.35922583514137
 20
124.570546493806
 30
0.0
 10
12.22157176303172
 20
123.4677634523042
 30
0.0
 10
13.14804108575503
 20
122.3872862255861
 30
0.0
 10
14.13725942229985
 20
121.3307686482907
 30
0.0
 10
15.18774023478439
 20
120.2998195725987
 30
0.0
 10
16.29789254080852
 20
119.2959963083894
 30
0.0
 10
17.4660288457458
 20
118.3207999561019
 30
0.0
 10
18.69037309553351
 20
117.3756722658444
 30
0.0
 10
19.96906710170376
 20
116.4619943670061
 30
0.0
 10
21.30017974850973
 20
115.5810846251683
 30
0.0
 10
22.68170215877235
 20
114.7342042800249
 30
0.0
 10
24.11158919193447
 20
113.9225383541438
 30
0.0
 10
25.58761600001595
 20
113.1472747822084
 30
0.0
 10
27.10792947169883
 20
112.4093111389289
 30
0.0
 10
28.66902935839217
 20
111.7103385581523
 30
0.0
 10
30.27332968069787
 20
111.0487965971366
 30
0.0
 10
31.9009595105106
 20
110.4349724953213
 30
0.0
 10
33.27620887691757
 20
109.9533183286681
 30
0.0
 10
34.0272538576554
 20
109.7196226330896
 30
0.0
 10
34.28240414275099
 20
109.6404806990251
 30
0.0
  0
ARC
  5
1F5
330
1E8
100
AcDbEntity
  8
DV3_Standard
  6
Continuous
 62
     7
100
AcDbCircle
 10
79.6739399659
 20
140.9319026155
 30
0.0
 40
23.8670024081221
100
AcDbArc
 50
21.2093840091
 51
21.3196132473
  0
ELLIPSE
  5
1F6
330
1E8
100
AcDbEntity
  8
DV3_Standard
  6
Continuous
 62
     7
100
AcDbEllipse
 10
56.1606007282
 20
161.2558543956
 30
0.0
 11
0.0
 21
42.00195839369968
 31
0.0
210
0.0
220
0.0
230
1.0
 40
1.0
 41
1.483677245050413
 42
4.799961567132693
  0
ELLIPSE
  5
1F7
330
1E8
100
AcDbEntity
  8
DV3_Standard
  6
Continuous
 62
     7
100
AcDbEllipse
 10
56.1606007282
 20
144.4638022899
 30
0.0
 11
0.0
 21
45.67458712463274
 31
0.0
210
0.0
220
0.0
230
1.0
 40
1.0
 41
1.471069387884663
 42
4.812128453814181
  0
SPLINE
  5
1F8
330
1E8
100
AcDbEntity
  8
DV3_Standard
  6
Continuous
 62
     7
100
AcDbSpline
210
0.0
220
0.0
230
1.0
 70
    12
 71
     2
 72
     6
 73
     3
 74
     0
 42
0.0000000247252852
 43
0.0000000001
 40
0.0
 40
0.0
 40
0.0
 40
1.0
 40
1.0
 40
1.0
 10
60.37735408698473
 20
171.7258607248156
 30
0.0
 41
1.0
 10
60.17531721421852
 20
171.7342496268912
 30
0.0
 41
1.0
 10
59.97322618886924
 20
171.7418345561578
 30
0.0
 41
1.0
  0
ARC
  5
1F9
330
1E8
100
AcDbEntity
  8
DV3_Standard
  6
Continuous
 62
     7
100
AcDbCircle
 10
59.9423207953
 20
171.0564364851
 30
0.0
 40
0.6860944972056885
100
AcDbArc
 50
87.4182157092
 51
109.2701693839
  0
SPLINE
  5
1FA
330
1E8
100
AcDbEntity
  8
DV3_Standard
  6
Continuous
 62
     7
100
AcDbSpline
210
0.0
220
0.0
230
1.0
 70
     8
 71
     3
 72
    10
 73
     6
 74
     0
 42
0.0000000156693791
 43
0.0000000001
 40
0.0
 40
0.0
 40
0.0
 40
0.0
 40
0.5
 40
0.5
 40
1.0
 40
1.0
 40
1.0
 40
1.0
 10
59.71589385504296
 20
171.7040910997403
 30
0.0
 10
59.60268738925906
 20
171.6631160901286
 30
0.0
 10
59.53113067931509
 20
171.5817611658112
 30
0.0
 10
59.53135892884721
 20
171.4076767713339
 30
0.0
 10
59.60279495133025
 20
171.3214332821097
 30
0.0
 10
59.71589497830029
 20
171.2721388480926
 30
0.0
  0
ARC
  5
1FB
330
1E8
100
AcDbEntity
  8
DV3_Standard
  6
Continuous
 62
     7
100
AcDbCircle
 10
59.9964966446
 20
171.9305483815
 30
0.0
 40
0.7157097238325606
100
AcDbArc
 50
246.9172159592
 51
268.1367704694
  0
SPLINE
  5
1FC
330
1E8
100
AcDbEntity
  8
DV3_Standard
  6
Continuous
 62
     7
100
AcDbSpline
210
0.0
220
0.0
230
1.0
 70
    12
 71
     2
 72
     6
 73
     3
 74
     0
 42
0.0000000247252795
 43
0.0000000001
 40
0.0
 40
0.0
 40
0.0
 40
1.0
 40
1.0
 40
1.0
 10
59.97322623138103
 20
171.2152170619726
 30
0.0
 41
1.0
 10
60.17531724760542
 20
171.2076305177588
 30
0.0
 41
1.0
 10
60.37735408698472
 20
171.1992398206478
 30
0.0
 41
1.0
  0
SPLINE
  5
1FD
330
1E8
100
AcDbEntity
  8
DV3_Standard
  6
Continuous
 62
     7
100
AcDbSpline
210
0.0
220
0.0
230
1.0
 70
     8
 71
     3
 72
    30
 73
    26
 74
     0
 42
0.0000000002858645
 43
0.0000000001
 40
0.0
 40
0.0
 40
0.0
 40
0.0
 40
0.1250000000000003
 40
0.1250000000000003
 40
0.2500000000000006
 40
0.2500000000000006
 40
0.3125000000000007
 40
0.3125000000000007
 40
0.3750000000000008
 40
0.3750000000000008
 40
0.437500000000001
 40
0.437500000000001
 40
0.5000000000000011
 40
0.5000000000000011
 40
0.5625000000000012
 40
0.5625000000000012
 40
0.6250000000000014
 40
0.6250000000000014
 40
0.6875000000000016
 40
0.6875000000000016
 40
0.7500000000000017
 40
0.7500000000000017
 40
0.8750000000000009
 40
0.8750000000000009
 40
1.0
 40
1.0
 40
1.0
 40
1.0
 10
40.83993069896595
 20
189.5439257427427
 30
0.0
 10
41.24945552300799
 20
188.893348696115
 30
0.0
 10
41.80870611081983
 20
188.209834927946
 30
0.0
 10
43.25802064994069
 20
186.8092775149252
 30
0.0
 10
44.17059012930346
 20
186.1262387606259
 30
0.0
 10
46.00686250483346
 20
185.1885722074418
 30
0.0
 10
46.70856277188486
 20
184.8864855266251
 30
0.0
 10
48.26871570402503
 20
184.3424280971502
 30
0.0
 10
49.12612828325469
 20
184.1004234327367
 30
0.0
 10
51.02731061235512
 20
183.6893583874054
 30
0.0
 10
52.0471981305982
 20
183.5248261165777
 30
0.0
 10
54.17322040401704
 20
183.2880416379461
 30
0.0
 10
55.30281436488964
 20
183.2145778588323
 30
0.0
 10
57.5268752129747
 20
183.1788847111864
 30
0.0
 10
58.64950873202054
 20
183.2146344373134
 30
0.0
 10
60.82845553777261
 20
183.393135062232
 30
0.0
 10
61.85345151858276
 20
183.5322532347917
 30
0.0
 10
63.77999763586946
 20
183.9103543529165
 30
0.0
 10
64.668166938171
 20
184.1512620465947
 30
0.0
 10
66.22080421961269
 20
184.6876285623106
 30
0.0
 10
66.9003255813422
 20
184.984961252118
 30
0.0
 10
68.71179670462335
 20
185.9436578581075
 30
0.0
 10
69.56907095116817
 20
186.6446494876598
 30
0.0
 10
70.9023236929854
 20
188.0534020945511
 30
0.0
 10
71.41500748869974
 20
188.7473869087343
 30
0.0
 10
71.7897515862274
 20
189.4092043467069
 30
0.0
  0
SPLINE
  5
1FE
330
1E8
100
AcDbEntity
  8
DV3_Standard
  6
Continuous
 62
     7
100
AcDbSpline
210
0.0
220
0.0
230
1.0
 70
     8
 71
     3
 72
    20
 73
    16
 74
     0
 42
0.0000000034536563
 43
0.0000000001
 40
0.0
 40
0.0
 40
0.0
 40
0.0
 40
0.2746338718619987
 40
0.2746338718619987
 40
0.4119508077930026
 40
0.4119508077930026
 40
0.5492677437240067
 40
0.5492677437240067
 40
0.6865846796550107
 40
0.6865846796550107
 40
0.8239016155860147
 40
0.8239016155860147
 40
0.9612185515170187
 40
0.9612185515170187
 40
1.0
 40
1.0
 40
1.0
 40
1.0
 10
71.7897515862274
 20
189.4092043467069
 30
0.0
 10
71.91829940116989
 20
189.6362264295178
 30
0.0
 10
72.08207420267816
 20
189.7988240719076
 30
0.0
 10
72.36450716754814
 20
189.9269697526121
 30
0.0
 10
72.46450971353715
 20
189.9499026275313
 30
0.0
 10
72.66841706668478
 20
189.9531583696006
 30
0.0
 10
72.77279726376214
 20
189.9337594155516
 30
0.0
 10
72.98190747296027
 20
189.85025146648
 30
0.0
 10
73.08649880540936
 20
189.7864640839133
 30
0.0
 10
73.2919428322578
 20
189.6078856321282
 30
0.0
 10
73.39294796671004
 20
189.4921854187834
 30
0.0
 10
73.57998240471602
 20
189.212713012274
 30
0.0
 10
73.66690269800225
 20
189.0483849004565
 30
0.0
 10
73.76697601360237
 20
188.8042691114564
 30
0.0
 10
73.78832705983123
 20
188.7483208154731
 30
0.0
 10
73.80889977164624
 20
188.6902610016158
 30
0.0
  0
SPLINE
  5
1FF
330
1E8
100
AcDbEntity
  8
DV3_Standard
  6
Continuous
 62
     7
100
AcDbSpline
210
0.0
220
0.0
230
1.0
 70
     8
 71
     3
 72
     8
 73
     4
 74
     0
 42
0.0000000912779096
 43
0.0000000001
 40
0.0
 40
0.0
 40
0.0
 40
0.0
 40
1.0
 40
1.0
 40
1.0
 40
1.0
 10
73.80889977164624
 20
188.6902610016158
 30
0.0
 10
73.82090033914626
 20
188.6563932878453
 30
0.0
 10
73.83263606473324
 20
188.6218070931453
 30
0.0
 10
73.84408895930508
 20
188.5865175275878
 30
0.0
  0
SPLINE
  5
200
330
1E8
100
AcDbEntity
  8
DV3_Standard
  6
Continuous
 62
     7
100
AcDbSpline
210
0.0
220
0.0
230
1.0
 70
     8
 71
     3
 72
    18
 73
    14
 74
     0
 42
0.0000000032430511
 43
0.0000000001
 40
0.0
 40
0.0
 40
0.0
 40
0.0
 40
0.1926789457607802
 40
0.1926789457607802
 40
0.3272324548006518
 40
0.3272324548006518
 40
0.4617859638405234
 40
0.4617859638405234
 40
0.596339472880395
 40
0.596339472880395
 40
0.7308929819202665
 40
0.7308929819202665
 40
1.0
 40
1.0
 40
1.0
 40
1.0
 10
38.68867427427298
 20
188.6614150596281
 30
0.0
 10
38.79266608310306
 20
188.968972001656
 30
0.0
 10
38.91793843234726
 20
189.2236918452306
 30
0.0
 10
39.15607738731652
 20
189.5733524052575
 30
0.0
 10
39.26052177966702
 20
189.6912566126302
 30
0.0
 10
39.47308652047423
 20
189.8752198681338
 30
0.0
 10
39.58228395357077
 20
189.9431034036093
 30
0.0
 10
39.80169690500678
 20
190.0340352631541
 30
0.0
 10
39.91246085804736
 20
190.0570402010341
 30
0.0
 10
40.12784167295398
 20
190.0596250085944
 30
0.0
 10
40.23167649538009
 20
190.0394524336559
 30
0.0
 10
40.52637440099197
 20
189.9212238851086
 30
0.0
 10
40.70026478857481
 20
189.7658010239529
 30
0.0
 10
40.83993069896595
 20
189.5439257427427
 30
0.0
  0
ELLIPSE
  5
201
330
1E8
100
AcDbEntity
  8
DV3_Standard
  6
Continuous
 62
     7
100
AcDbEllipse
 10
56.1606007282
 20
164.4950665153
 30
0.0
 11
0.0
 21
29.52851054468009
 31
0.0
210
0.0
220
0.0
230
1.0
 40
1.0
 41
0.7402413029583328
 42
5.533135970906734
  0
ELLIPSE
  5
202
330
1E8
100
AcDbEntity
  8
DV3_Standard
  6
Continuous
 62
     7
100
AcDbEllipse
 10
56.1606007282
 20
144.4638022899
 30
0.0
 11
45.99497920318765
 21
-3.538835890992686E-13
 31
0.0
210
0.0
220
0.0
230
1.0
 40
0.6427876097
 41
1.38783817544777
 42
1.394437360154006
  0
ELLIPSE
  5
203
330
1E8
100
AcDbEntity
  8
DV3_Standard
  6
Continuous
 62
     7
100
AcDbEllipse
 10
56.1606007282
 20
144.4638022899
 30
0.0
 11
45.99497920318765
 21
-3.538835890992686E-13
 31
0.0
210
0.0
220
0.0
230
1.0
 40
0.6427876097
 41
1.41058642787922
 42
1.420744024883215
  0
ELLIPSE
  5
204
330
1E8
100
AcDbEntity
  8
DV3_Standard
  6
Continuous
 62
     7
100
AcDbEllipse
 10
56.1606007282
 20
144.4638022899
 30
0.0
 11
45.99497920318765
 21
-3.538835890992686E-13
 31
0.0
210
0.0
220
0.0
230
1.0
 40
0.6427876097
 41
-4.573606022680526
 42
-4.564229430359313
  0
ELLIPSE
  5
205
330
1E8
100
AcDbEntity
  8
DV3_Standard
  6
Continuous
 62
     7
100
AcDbEllipse
 10
56.1606007282
 20
144.4638022899
 30
0.0
 11
45.99497920318765
 21
-3.538835890992686E-13
 31
0.0
210
0.0
220
0.0
230
1.0
 40
0.6427876097
 41
-4.560087099975461
 42
-4.551006569865099
  0
ELLIPSE
  5
206
330
1E8
100
AcDbEntity
  8
DV3_Standard
  6
Continuous
 62
     7
100
AcDbEllipse
 10
56.1606007282
 20
144.4638022899
 30
0.0
 11
45.99497920318765
 21
-3.538835890992686E-13
 31
0.0
210
0.0
220
0.0
230
1.0
 40
0.6427876097
 41
-4.533955804365431
 42
-4.527338320228499
  0
ARC
  5
207
330
1E8
100
AcDbEntity
  8
DV3_Standard
  6
Continuous
 62
     7
100
AcDbCircle
 10
56.4345788501
 20
232.3421397531
 30
0.0
 40
50.27791408858617
100
AcDbArc
 50
246.3238167747
 51
293.3581947245
  0
SPLINE
  5
208
330
1E8
100
AcDbEntity
  8
DV3_Standard
  6
Continuous
 62
     7
100
AcDbSpline
210
0.0
220
0.0
230
1.0
 70
     8
 71
     3
 72
    65
 73
    61
 74
     0
 42
0.0000000032689308
 43
0.0000000001
 40
0.0
 40
0.0
 40
0.0
 40
0.0
 40
0.0224284657426091
 40
0.0224284657426091
 40
0.0224284657426091
 40
0.0703938286231366
 40
0.0703938286231366
 40
0.0703938286231366
 40
0.1183607269677772
 40
0.1183607269677772
 40
0.1183607269677772
 40
0.1663311725143894
 40
0.1663311725143894
 40
0.1663311725143894
 40
0.2143069304049791
 40
0.2143069304049791
 40
0.2143069304049791
 40
0.2622893536720234
 40
0.2622893536720234
 40
0.2622893536720234
 40
0.3102792044311407
 40
0.3102792044311407
 40
0.3102792044311407
 40
0.3581688129323393
 40
0.3581688129323393
 40
0.3581688129323393
 40
0.4055217556113435
 40
0.4055217556113435
 40
0.4055217556113435
 40
0.452502655511604
 40
0.452502655511604
 40
0.452502655511604
 40
0.548160664996864
 40
0.548160664996864
 40
0.548160664996864
 40
0.5949801248616344
 40
0.5949801248616344
 40
0.5949801248616344
 40
0.6417949187638037
 40
0.6417949187638037
 40
0.6417949187638037
 40
0.6886036284379787
 40
0.6886036284379787
 40
0.6886036284379787
 40
0.735405581081669
 40
0.735405581081669
 40
0.735405581081669
 40
0.7822008435100858
 40
0.7822008435100858
 40
0.7822008435100858
 40
0.8775535760264113
 40
0.8775535760264113
 40
0.8775535760264113
 40
0.9277822151314659
 40
0.9277822151314659
 40
0.9277822151314659
 40
0.9780091706523163
 40
0.9780091706523163
 40
0.9780091706523163
 40
1.0
 40
1.0
 40
1.0
 40
1.0
 10
57.1930694078781
 20
171.7844594318026
 30
0.0
 10
57.19585757024655
 20
171.7662595967008
 30
0.0
 10
57.19763064916744
 20
171.7479947551867
 30
0.0
 10
57.1983782225156
 20
171.7297379987954
 30
0.0
 10
57.19997698265139
 20
171.6906941051103
 30
0.0
 10
57.19689533538525
 20
171.6514486622833
 30
0.0
 10
57.18918310296011
 20
171.6127181561221
 30
0.0
 10
57.18147073598173
 20
171.5739869742401
 30
0.0
 10
57.16907996671811
 20
171.5355335186968
 30
0.0
 10
57.15221363982776
 20
171.4980682909929
 30
0.0
 10
57.13534659275879
 20
171.4606014635538
 30
0.0
 10
57.11389830200297
 20
171.4238911196033
 30
0.0
 10
57.08822928823052
 20
171.3886326306192
 30
0.0
 10
57.06255860615551
 20
171.3533718500851
 30
0.0
 10
57.03250364008494
 20
171.3193412487333
 30
0.0
 10
56.99858894653328
 20
171.2872085787201
 30
0.0
 10
56.96467146265267
 20
171.2550732649939
 30
0.0
 10
56.9266734496332
 20
171.22462956743
 30
0.0
 10
56.88528859288737
 20
171.1965005567187
 30
0.0
 10
56.8438999154915
 20
171.1683689491371
 30
0.0
 10
56.79884837961893
 20
171.1423671108734
 30
0.0
 10
56.75099655929287
 20
171.1190515067175
 30
0.0
 10
56.70324690418416
 20
171.0957856821467
 30
0.0
 10
56.65238438685225
 20
171.0750379944419
 30
0.0
 10
56.59942338673687
 20
171.0572696695297
 30
0.0
 10
56.54705452390743
 20
171.0397000056638
 30
0.0
 10
56.49227671585795
 20
171.0249243074599
 30
0.0
 10
56.43619925346014
 20
171.0132753413224
 30
0.0
 10
56.380561384236
 20
171.0017176918347
 30
0.0
 10
56.32326454958304
 20
170.9931595340411
 30
0.0
 10
56.2654815169738
 20
170.9877953519389
 30
0.0
 10
56.14909597325771
 20
170.9769909129475
 30
0.0
 10
56.02827508246473
 20
170.9792120002394
 30
0.0
 10
55.91301560998711
 20
170.9942548807715
 30
0.0
 10
55.85598699732578
 20
171.0016978664866
 30
0.0
 10
55.79971686927479
 20
171.0122848244212
 30
0.0
 10
55.74534063874922
 20
171.0257783202291
 30
0.0
 10
55.69096757005551
 20
171.0392710314263
 30
0.0
 10
55.63812282983982
 20
171.0557596762864
 30
0.0
 10
55.58784091563456
 20
171.0748848885624
 30
0.0
 10
55.53756286765374
 20
171.0940086302826
 30
0.0
 10
55.48951575670844
 20
171.1158933681781
 30
0.0
 10
55.44460337409809
 20
171.1400797084325
 30
0.0
 10
55.39969486114861
 20
171.1642639647865
 30
0.0
 10
55.35763116929002
 20
171.1909037622016
 30
0.0
 10
55.31916842898868
 20
171.2194632317486
 30
0.0
 10
55.28070899360367
 20
171.2480202473192
 30
0.0
 10
55.24560810498129
 20
171.2786744766999
 30
0.0
 10
55.21446820286521
 20
171.3108354867354
 30
0.0
 10
55.15160564825003
 20
171.3757593661456
 30
0.0
 10
55.10401928567325
 20
171.4481064321102
 30
0.0
 10
55.07480967459441
 20
171.522586231025
 30
0.0
 10
55.05928566734698
 20
171.562169946639
 30
0.0
 10
55.04871324270786
 20
171.6027305388594
 30
0.0
 10
55.04328109288654
 20
171.6434506365321
 30
0.0
 10
55.03784906334467
 20
171.6841698325743
 30
0.0
 10
55.03752033363168
 20
171.7253213431572
 30
0.0
 10
55.04230067992915
 20
171.7660830657792
 30
0.0
 10
55.04439363458925
 20
171.7839295630843
 30
0.0
 10
55.04747214816717
 20
171.8017536778811
 30
0.0
 10
55.05152136900054
 20
171.8194868031095
 30
0.0
  0
SPLINE
  5
209
330
1E8
100
AcDbEntity
  8
DV3_Standard
  6
Continuous
 62
     7
100
AcDbSpline
210
0.0
220
0.0
230
1.0
 70
     8
 71
     3
 72
    10
 73
     6
 74
     0
 42
0.0000000054806311
 43
0.0000000001
 40
0.0
 40
0.0
 40
0.0
 40
0.0
 40
0.5705349491546667
 40
0.5705349491546667
 40
1.0
 40
1.0
 40
1.0
 40
1.0
 10
55.46770641332956
 20
172.7471866065202
 30
0.0
 10
55.06641478064781
 20
172.6571387580887
 30
0.0
 10
54.70375411488042
 20
172.4958239948498
 30
0.0
 10
54.28857063956648
 20
172.0913375334424
 30
0.0
 10
54.19132504323888
 20
171.8837882336334
 30
0.0
 10
54.19248034682743
 20
171.6762196501322
 30
0.0
  0
SPLINE
  5
20A
330
1E8
100
AcDbEntity
  8
DV3_Standard
  6
Continuous
 62
     7
100
AcDbSpline
210
0.0
220
0.0
230
1.0
 70
     8
 71
     3
 72
    12
 73
     8
 74
     0
 42
0.0000000033753415
 43
0.0000000001
 40
0.0
 40
0.0
 40
0.0
 40
0.0
 40
0.1221418219526489
 40
0.1221418219526489
 40
0.5610709109763244
 40
0.5610709109763244
 40
1.0
 40
1.0
 40
1.0
 40
1.0
 10
58.02162451019904
 20
171.8568569663928
 30
0.0
 10
58.00025741031367
 20
171.9425155260729
 30
0.0
 10
57.96233273411863
 20
172.026468362335
 30
0.0
 10
57.71105733796013
 20
172.3918709206738
 30
0.0
 10
57.31787147984937
 20
172.6130179819026
 30
0.0
 10
56.42763902235814
 20
172.8353953034498
 30
0.0
 10
55.92589362310705
 20
172.8438925851366
 30
0.0
 10
55.46770641332956
 20
172.7471866065202
 30
0.0
  0
ARC
  5
20B
330
1E8
100
AcDbEntity
  8
DV3_Standard
  6
Continuous
 62
     7
100
AcDbCircle
 10
56.3880235694
 20
61.398500548
 30
0.0
 40
109.6700987636164
100
AcDbArc
 50
93.9638895025
 51
94.6739893588
  0
LINE
  5
20C
330
1E8
100
AcDbEntity
  8
DV3_Standard
  6
Continuous
 62
     7
100
AcDbLine
 10
47.4514398254
 20
170.7038894079
 30
0.0
 11
47.4514398254
 21
170.3924994523
 31
0.0
  0
ARC
  5
20D
330
1E8
100
AcDbEntity
  8
DV3_Standard
  6
Continuous
 62
     7
100
AcDbCircle
 10
56.4203614951
 20
62.7181494971
 30
0.0
 40
110.0045111838907
100
AcDbArc
 50
93.5429258548
 51
94.7790543671
  0
LINE
  5
20E
330
1E8
100
AcDbEntity
  8
DV3_Standard
  6
Continuous
 62
     7
100
AcDbLine
 10
47.2554951967
 20
172.3402171046
 30
0.0
 11
47.2554951967
 21
171.9428013744
 31
0.0
  0
ARC
  5
20F
330
1E8
100
AcDbEntity
  8
DV3_Standard
  6
Continuous
 62
     7
100
AcDbCircle
 10
56.4160746453
 20
62.3772672547
 30
0.0
 40
109.947817089586
100
AcDbArc
 50
93.9685140527
 51
94.0257915386
  0
LINE
  5
210
330
1E8
100
AcDbEntity
  8
DV3_Standard
  6
Continuous
 62
     7
100
AcDbLine
 10
48.8067766074
 20
172.061455113
 30
0.0
 11
48.8067766074
 21
171.5834560603
 31
0.0
  0
ARC
  5
211
330
1E8
100
AcDbEntity
  8
DV3_Standard
  6
Continuous
 62
     7
100
AcDbCircle
 10
56.4121449745
 20
61.9306225096
 30
0.0
 40
109.9162660104727
100
AcDbArc
 50
93.9676016932
 51
94.5609642225
  0
LINE
  5
212
330
1E8
100
AcDbEntity
  8
DV3_Standard
  6
Continuous
 62
     7
100
AcDbLine
 10
47.6716257612
 20
171.4988152371
 30
0.0
 11
47.6716257612
 21
171.089774695
 31
0.0
  0
ARC
  5
213
330
1E8
100
AcDbEntity
  8
DV3_Standard
  6
Continuous
 62
     7
100
AcDbCircle
 10
56.4014540139
 20
61.6295270129
 30
0.0
 40
109.8078126725978
100
AcDbArc
 50
93.9659348759
 51
94.0232783871
  0
LINE
  5
214
330
1E8
100
AcDbEntity
  8
DV3_Standard
  6
Continuous
 62
     7
100
AcDbLine
 10
48.8067766074
 20
171.1743881385
 30
0.0
 11
48.8067766074
 21
170.8062482505
 31
0.0
  0
LINE
  5
215
330
1E8
100
AcDbEntity
  8
DV3_Standard
  6
Continuous
 62
     7
100
AcDbLine
 10
51.3476589332
 20
170.6380846234
 30
0.0
 11
51.3476589331
 21
171.3210003387
 31
0.0
  0
ARC
  5
216
330
1E8
100
AcDbEntity
  8
DV3_Standard
  6
Continuous
 62
     7
100
AcDbCircle
 10
56.3859144292
 20
62.0092651725
 30
0.0
 40
109.427781954473
100
AcDbArc
 50
92.5897022322
 51
92.6389355435
  0
ARC
  5
217
330
1E8
100
AcDbEntity
  8
DV3_Standard
  6
Continuous
 62
     7
100
AcDbCircle
 10
56.3859144292
 20
62.0092651725
 30
0.0
 40
109.427781954473
100
AcDbArc
 50
91.8810884751
 51
91.9348187843
  0
LINE
  5
218
330
1E8
100
AcDbEntity
  8
DV3_Standard
  6
Continuous
 62
     7
100
AcDbLine
 10
52.7939157877
 20
171.3780770397
 30
0.0
 11
52.8022951083
 21
170.6964222858
 31
0.0
  0
ARC
  5
219
330
1E8
100
AcDbEntity
  8
DV3_Standard
  6
Continuous
 62
     7
100
AcDbCircle
 10
56.4418944686
 20
62.3573800799
 30
0.0
 40
110.3659252102368
100
AcDbArc
 50
91.4730012019
 51
91.8941703208
  0
ARC
  5
21A
330
1E8
100
AcDbEntity
  8
DV3_Standard
  6
Continuous
 62
     7
100
AcDbCircle
 10
56.4204493351
 20
61.8429741684
 30
0.0
 40
110.0042457471054
100
AcDbArc
 50
91.8892245624
 51
92.6431033675
  0
LINE
  5
21B
330
1E8
100
AcDbEntity
  8
DV3_Standard
  6
Continuous
 62
     7
100
AcDbLine
 10
51.3476589331
 20
171.7301930791
 30
0.0
 11
51.3476589331
 21
171.7708148913
 31
0.0
  0
LINE
  5
21C
330
1E8
100
AcDbEntity
  8
DV3_Standard
  6
Continuous
 62
     7
100
AcDbLine
 10
51.3476589331
 20
171.8548050302
 30
0.0
 11
51.3476589331
 21
172.6056759303
 31
0.0
  0
ARC
  5
21D
330
1E8
100
AcDbEntity
  8
DV3_Standard
  6
Continuous
 62
     7
100
AcDbCircle
 10
56.4390045366
 20
62.4144628341
 30
0.0
 40
110.3087722878472
100
AcDbArc
 50
92.6454495147
 51
93.0698386317
  0
LINE
  5
21E
330
1E8
100
AcDbEntity
  8
DV3_Standard
  6
Continuous
 62
     7
100
AcDbLine
 10
50.5316211329
 20
172.5649420204
 30
0.0
 11
50.5359475431
 21
170.596078394
 31
0.0
  0
LINE
  5
21F
330
1E8
100
AcDbEntity
  8
DV3_Standard
  6
Continuous
 62
     7
100
AcDbLine
 10
62.8170030955
 20
171.600436911
 30
0.0
 11
62.8170030955
 21
172.0936400456
 31
0.0
  0
LINE
  5
220
330
1E8
100
AcDbEntity
  8
DV3_Standard
  6
Continuous
 62
     7
100
AcDbLine
 10
62.8170030955
 20
172.0936400456
 30
0.0
 11
62.9256849738
 21
172.102121679
 31
0.0
  0
LINE
  5
221
330
1E8
100
AcDbEntity
  8
DV3_Standard
  6
Continuous
 62
     7
100
AcDbLine
 10
64.2647621037
 20
171.7769906617
 30
0.0
 11
64.3354388909
 21
171.6908538089
 31
0.0
  0
LINE
  5
222
330
1E8
100
AcDbEntity
  8
DV3_Standard
  6
Continuous
 62
     7
100
AcDbLine
 10
64.3354388909
 20
171.6908538089
 30
0.0
 11
64.4224728439
 21
171.3776519869
 31
0.0
  0
ARC
  5
223
330
1E8
100
AcDbEntity
  8
DV3_Standard
  6
Continuous
 62
     7
100
AcDbCircle
 10
63.8993616197
 20
171.3846905826
 30
0.0
 40
0.5231585750761251
100
AcDbArc
 50
319.6808416532
 51
359.2291171084
  0
ARC
  5
224
330
1E8
100
AcDbEntity
  8
DV3_Standard
  6
Continuous
 62
     7
100
AcDbCircle
 10
63.6325174089
 20
171.6777246777
 30
0.0
 40
0.9176259077148636
100
AcDbArc
 50
272.2674813118
 51
316.5095437921
  0
ARC
  5
225
330
1E8
100
AcDbEntity
  8
DV3_Standard
  6
Continuous
 62
     7
100
AcDbCircle
 10
63.387496343
 20
173.7537032618
 30
0.0
 40
3.006079057049052
100
AcDbArc
 50
244.3928417225
 51
275.3699358461
  0
LINE
  5
226
330
1E8
100
AcDbEntity
  8
DV3_Standard
  6
Continuous
 62
     7
100
AcDbLine
 10
62.0882737352
 20
171.0428856891
 30
0.0
 11
62.0882737352
 21
170.7473166171
 31
0.0
  0
SPLINE
  5
227
330
1E8
100
AcDbEntity
  8
DV3_Standard
  6
Continuous
 62
     7
100
AcDbSpline
210
0.0
220
0.0
230
1.0
 70
     8
 71
     3
 72
    10
 73
     6
 74
     0
 42
0.0000000235361727
 43
0.0000000001
 40
0.0
 40
0.0
 40
0.0
 40
0.0
 40
0.074882128596324
 40
0.074882128596324
 40
1.0
 40
1.0
 40
1.0
 40
1.0
 10
65.18462842368292
 20
170.9090553344019
 30
0.0
 10
65.19055110604134
 20
170.9182490540745
 30
0.0
 10
65.19626654589099
 20
170.9275189575205
 30
0.0
 10
65.26979517733591
 20
171.0522976653863
 30
0.0
 10
65.3046762193143
 20
171.1765859278601
 30
0.0
 10
65.3045158857242
 20
171.3057155049573
 30
0.0
  0
SPLINE
  5
228
330
1E8
100
AcDbEntity
  8
DV3_Standard
  6
Continuous
 62
     7
100
AcDbSpline
210
0.0
220
0.0
230
1.0
 70
     8
 71
     3
 72
    12
 73
     8
 74
     0
 42
0.0000000049278561
 43
0.0000000001
 40
0.0
 40
0.0
 40
0.0
 40
0.0
 40
0.2500000000000004
 40
0.2500000000000004
 40
0.5000000000000008
 40
0.5000000000000008
 40
1.0
 40
1.0
 40
1.0
 40
1.0
 10
65.3045158857242
 20
171.3057155049573
 30
0.0
 10
65.30435371495804
 20
171.437295789548
 30
0.0
 10
65.26815104980905
 20
171.5683162339954
 30
0.0
 10
65.12638256356608
 20
171.8231737166082
 30
0.0
 10
65.02264499595552
 20
171.9428645805592
 30
0.0
 10
64.62739135836175
 20
172.2638983253523
 30
0.0
 10
64.25798861488511
 20
172.4187439481204
 30
0.0
 10
63.86071776414929
 20
172.4802094096889
 30
0.0
  0
LINE
  5
229
330
1E8
100
AcDbEntity
  8
DV3_Standard
  6
Continuous
 62
     7
100
AcDbLine
 10
63.8607177641
 20
172.4802094097
 30
0.0
 11
62.9597912345
 21
172.5281780017
 31
0.0
  0
ARC
  5
22A
330
1E8
100
AcDbEntity
  8
DV3_Standard
  6
Continuous
 62
     7
100
AcDbCircle
 10
63.1313282617
 20
168.598245339
 30
0.0
 40
3.933674577983041
100
AcDbArc
 50
92.4993082401
 51
106.9175131522
  0
LINE
  5
22B
330
1E8
100
AcDbEntity
  8
DV3_Standard
  6
Continuous
 62
     7
100
AcDbLine
 10
63.8607177641
 20
172.4802094097
 30
0.0
 11
63.8607177641
 21
172.5515871985
 31
0.0
  0
LINE
  5
22C
330
1E8
100
AcDbEntity
  8
DV3_Standard
  6
Continuous
 62
     7
100
AcDbLine
 10
62.9597912345
 20
172.5281780017
 30
0.0
 11
62.9597912345
 21
172.6046557315
 31
0.0
  0
ARC
  5
22D
330
1E8
100
AcDbEntity
  8
DV3_Standard
  6
Continuous
 62
     7
100
AcDbCircle
 10
51.9318973706
 20
181.6057153195
 30
0.0
 40
6.81626250916426
100
AcDbArc
 50
260.8183372007
 51
281.9575958076
  0
LINE
  5
22E
330
1E8
100
AcDbEntity
  8
DV3_Standard
  6
Continuous
 62
     7
100
AcDbLine
 10
50.844258726
 20
174.8767869671
 30
0.0
 11
50.6064064015
 21
174.793009054
 31
0.0
  0
LINE
  5
22F
330
1E8
100
AcDbEntity
  8
DV3_Standard
  6
Continuous
 62
     7
100
AcDbLine
 10
61.63089772
 20
174.7975109358
 30
0.0
 11
61.3934704572
 21
174.880954378
 31
0.0
  0
ARC
  5
230
330
1E8
100
AcDbEntity
  8
DV3_Standard
  6
Continuous
 62
     7
100
AcDbCircle
 10
60.3006248745
 20
181.6090937232
 30
0.0
 40
6.816316491732709
100
AcDbArc
 50
258.0872352146
 51
279.2259281414
  0
LINE
  5
231
330
1E8
100
AcDbEntity
  8
DV3_Standard
  6
Continuous
 62
     7
100
AcDbLine
 10
58.8935859655
 20
174.9395800959
 30
0.0
 11
57.489382248
 21
175.2444992652
 31
0.0
  0
ARC
  5
232
330
1E8
100
AcDbEntity
  8
DV3_Standard
  6
Continuous
 62
     7
100
AcDbCircle
 10
56.1213722905
 20
168.9970730277
 30
0.0
 40
6.395450401397742
100
AcDbArc
 50
77.6487872638
 51
102.3972135061
  0
LINE
  5
233
330
1E8
100
AcDbEntity
  8
DV3_Standard
  6
Continuous
 62
     7
100
AcDbLine
 10
54.7483469352
 20
175.2433989246
 30
0.0
 11
53.3441432177
 21
174.9373574811
 31
0.0
  0
LINE
  5
234
330
1E8
100
AcDbEntity
  8
DV3_Standard
  6
Continuous
 62
     7
100
AcDbLine
 10
48.0551286997
 20
173.583640895
 30
0.0
 11
47.8810190702
 21
173.416664015
 31
0.0
  0
LINE
  5
235
330
1E8
100
AcDbEntity
  8
DV3_Standard
  6
Continuous
 62
     7
100
AcDbLine
 10
64.3502684543
 20
173.4291437689
 30
0.0
 11
64.188545065
 21
173.5838723843
 31
0.0
  0
ARC
  5
236
330
1E8
100
AcDbEntity
  8
DV3_Standard
  6
Continuous
 62
     7
100
AcDbCircle
 10
63.5148061051
 20
168.4193153034
 30
0.0
 40
5.208317773389551
100
AcDbArc
 50
82.5674894072
 51
97.2292665687
  0
LINE
  5
237
330
1E8
100
AcDbEntity
  8
DV3_Standard
  6
Continuous
 62
     7
100
AcDbLine
 10
62.8593914622
 20
173.5862298251
 30
0.0
 11
61.3605009747
 21
173.3619649798
 31
0.0
  0
ARC
  5
238
330
1E8
100
AcDbEntity
  8
DV3_Standard
  6
Continuous
 62
     7
100
AcDbCircle
 10
60.2950204502
 20
179.8318790199
 30
0.0
 40
6.55706004503588
100
AcDbArc
 50
257.6590234354
 51
279.3516654832
  0
LINE
  5
239
330
1E8
100
AcDbEntity
  8
DV3_Standard
  6
Continuous
 62
     7
100
AcDbLine
 10
58.8935859655
 20
173.4263331557
 30
0.0
 11
57.489382248
 21
173.7429150535
 31
0.0
  0
ARC
  5
23A
330
1E8
100
AcDbEntity
  8
DV3_Standard
  6
Continuous
 62
     7
100
AcDbCircle
 10
56.1214043321
 20
167.7332829072
 30
0.0
 40
6.163362889890569
100
AcDbArc
 50
77.1762221344
 51
102.8722102584
  0
LINE
  5
23B
330
1E8
100
AcDbEntity
  8
DV3_Standard
  6
Continuous
 62
     7
100
AcDbLine
 10
54.7483469352
 20
173.7417565484
 30
0.0
 11
53.3441432177
 21
173.424046146
 31
0.0
  0
ARC
  5
23C
330
1E8
100
AcDbEntity
  8
DV3_Standard
  6
Continuous
 62
     7
100
AcDbCircle
 10
51.9378719369
 20
179.8253716943
 30
0.0
 40
6.553973427669508
100
AcDbArc
 50
260.6867421782
 51
282.390168934
  0
LINE
  5
23D
330
1E8
100
AcDbEntity
  8
DV3_Standard
  6
Continuous
 62
     7
100
AcDbLine
 10
50.8772282085
 20
173.3577908041
 30
0.0
 11
49.3783377211
 21
173.5809147324
 31
0.0
  0
ARC
  5
23E
330
1E8
100
AcDbEntity
  8
DV3_Standard
  6
Continuous
 62
     7
100
AcDbCircle
 10
48.7061526687
 20
168.4467557625
 30
0.0
 40
5.177974611106104
100
AcDbArc
 50
82.5410279282
 51
97.2228833088
  0
LINE
  5
23F
330
1E8
100
AcDbEntity
  8
DV3_Standard
  6
Continuous
 62
     7
100
AcDbLine
 10
62.8593914622
 20
174.3378294938
 30
0.0
 11
61.3605009747
 21
174.1190087299
 31
0.0
  0
ARC
  5
240
330
1E8
100
AcDbEntity
  8
DV3_Standard
  6
Continuous
 62
     7
100
AcDbCircle
 10
60.2981330046
 20
180.723578616
 30
0.0
 40
6.689467025416805
100
AcDbArc
 50
257.8797593249
 51
279.1379500746
  0
LINE
  5
241
330
1E8
100
AcDbEntity
  8
DV3_Standard
  6
Continuous
 62
     7
100
AcDbLine
 10
58.8935859655
 20
174.1832256669
 30
0.0
 11
57.489382248
 21
174.4938605777
 31
0.0
  0
ARC
  5
242
330
1E8
100
AcDbEntity
  8
DV3_Standard
  6
Continuous
 62
     7
100
AcDbCircle
 10
56.1213756083
 20
168.3536865128
 30
0.0
 40
6.290721716403882
100
AcDbArc
 50
77.4398643926
 51
102.6070019606
  0
LINE
  5
243
330
1E8
100
AcDbEntity
  8
DV3_Standard
  6
Continuous
 62
     7
100
AcDbLine
 10
54.7483469352
 20
174.4927395323
 30
0.0
 11
53.3441432177
 21
174.1809739374
 31
0.0
  0
ARC
  5
244
330
1E8
100
AcDbEntity
  8
DV3_Standard
  6
Continuous
 62
     7
100
AcDbCircle
 10
51.9346036514
 20
180.7170287727
 30
0.0
 40
6.686315472562484
100
AcDbArc
 50
260.9010352312
 51
282.1698017492
  0
LINE
  5
245
330
1E8
100
AcDbEntity
  8
DV3_Standard
  6
Continuous
 62
     7
100
AcDbLine
 10
50.8772282085
 20
174.1148494529
 30
0.0
 11
49.3783377211
 21
174.332524451
 31
0.0
  0
LINE
  5
246
330
1E8
100
AcDbEntity
  8
DV3_Standard
  6
Continuous
 62
     7
100
AcDbLine
 10
49.3783377211
 20
174.332524451
 30
0.0
 11
49.1571833114
 21
174.2216001635
 31
0.0
  0
LINE
  5
247
330
1E8
100
AcDbEntity
  8
DV3_Standard
  6
Continuous
 62
     7
100
AcDbLine
 10
63.0800949762
 20
174.2273022629
 30
0.0
 11
62.8593914622
 21
174.3378294938
 31
0.0
  0
LINE
  5
248
330
1E8
100
AcDbEntity
  8
DV3_Standard
  6
Continuous
 62
     7
100
AcDbLine
 10
57.489382248
 20
174.4938605777
 30
0.0
 11
57.489382248
 21
174.5718069267
 31
0.0
  0
LINE
  5
249
330
1E8
100
AcDbEntity
  8
DV3_Standard
  6
Continuous
 62
     7
100
AcDbLine
 10
54.7483469352
 20
174.4927395323
 30
0.0
 11
54.7483469352
 21
174.5706524949
 31
0.0
  0
LINE
  5
24A
330
1E8
100
AcDbEntity
  8
DV3_Standard
  6
Continuous
 62
     7
100
AcDbLine
 10
62.8593914622
 20
174.3378294938
 30
0.0
 11
62.8593914622
 21
174.4056622493
 31
0.0
  0
LINE
  5
24B
330
1E8
100
AcDbEntity
  8
DV3_Standard
  6
Continuous
 62
     7
100
AcDbLine
 10
62.8593914622
 20
174.4056622493
 30
0.0
 11
62.8596770309
 21
174.4109357266
 31
0.0
  0
ARC
  5
24C
330
1E8
100
AcDbEntity
  8
DV3_Standard
  6
Continuous
 62
     7
100
AcDbCircle
 10
67.3112617468
 20
137.929709381
 30
0.0
 40
36.75182284134533
100
AcDbArc
 50
96.9570656461
 51
99.3182083789
  0
LINE
  5
24D
330
1E8
100
AcDbEntity
  8
DV3_Standard
  6
Continuous
 62
     7
100
AcDbLine
 10
61.3605009747
 20
174.1190087299
 30
0.0
 11
61.3605009747
 21
174.1965665428
 31
0.0
  0
SPLINE
  5
24E
330
1E8
100
AcDbEntity
  8
DV3_Standard
  6
Continuous
 62
     7
100
AcDbSpline
210
0.0
220
0.0
230
1.0
 70
     8
 71
     3
 72
    10
 73
     6
 74
     0
 42
0.0000000152639369
 43
0.0000000001
 40
0.0
 40
0.0
 40
0.0
 40
0.0
 40
0.5934626208001959
 40
0.5934626208001959
 40
1.0
 40
1.0
 40
1.0
 40
1.0
 10
59.65957667938834
 20
171.0623003197767
 30
0.0
 10
59.51707798716728
 20
171.1242808458451
 30
0.0
 10
59.42690758453105
 20
171.2331134044338
 30
0.0
 10
59.42692680697065
 20
171.4178770475207
 30
0.0
 10
59.46917230510562
 20
171.4894710721059
 30
0.0
 10
59.54163243994283
 20
171.5437213641998
 30
0.0
  0
LINE
  5
24F
330
1E8
100
AcDbEntity
  8
DV3_Standard
  6
Continuous
 62
     7
100
AcDbLine
 10
60.2198556026
 20
171.7320861159
 30
0.0
 11
59.1727336972
 21
172.6741582743
 31
0.0
  0
ARC
  5
250
330
1E8
100
AcDbEntity
  8
DV3_Standard
  6
Continuous
 62
     7
100
AcDbCircle
 10
55.8816698266
 20
62.4430231321
 30
0.0
 40
110.2802532466383
100
AcDbArc
 50
88.2898835975
 51
88.8282572549
  0
LINE
  5
251
330
1E8
100
AcDbEntity
  8
DV3_Standard
  6
Continuous
 62
     7
100
AcDbLine
 10
58.9816214281
 20
172.0249902206
 30
0.0
 11
59.186306536
 21
171.8613896355
 31
0.0
  0
ARC
  5
252
330
1E8
100
AcDbEntity
  8
DV3_Standard
  6
Continuous
 62
     7
100
AcDbCircle
 10
59.3778365468
 20
170.8910104244
 30
0.0
 40
0.9891003783203655
100
AcDbArc
 50
101.1653233522
 51
121.236690793
  0
SPLINE
  5
253
330
1E8
100
AcDbEntity
  8
DV3_Standard
  6
Continuous
 62
     7
100
AcDbSpline
210
0.0
220
0.0
230
1.0
 70
     8
 71
     3
 72
    16
 73
    12
 74
     0
 42
0.000000012556797
 43
0.0000000001
 40
0.0
 40
0.0
 40
0.0
 40
0.0
 40
0.2176638205074667
 40
0.2176638205074667
 40
0.4353276410149335
 40
0.4353276410149335
 40
0.6529914615224002
 40
0.6529914615224002
 40
0.870655282029867
 40
0.870655282029867
 40
1.0
 40
1.0
 40
1.0
 40
1.0
 10
58.86491415727919
 20
171.7367232483983
 30
0.0
 10
58.80699357005616
 20
171.700555392477
 30
0.0
 10
58.75751619672615
 20
171.6601281289091
 30
0.0
 10
58.67491629954883
 20
171.5710190364701
 30
0.0
 10
58.64211189369921
 20
171.5221801044511
 30
0.0
 10
58.59697411745179
 20
171.421465219709
 30
0.0
 10
58.58399631890042
 20
171.3681708208695
 30
0.0
 10
58.57885756422324
 20
171.2615283710802
 30
0.0
 10
58.58632080431364
 20
171.2082436102463
 30
0.0
 10
58.61468078679019
 20
171.1233607085987
 30
0.0
 10
58.62865507656744
 20
171.092489748327
 30
0.0
 10
58.64594710489801
 20
171.0624127309848
 30
0.0
  0
LINE
  5
254
330
1E8
100
AcDbEntity
  8
DV3_Standard
  6
Continuous
 62
     7
100
AcDbLine
 10
61.2734219009
 20
170.62361804
 30
0.0
 11
61.2734219009
 21
172.5914111147
 31
0.0
  0
ARC
  5
255
330
1E8
100
AcDbEntity
  8
DV3_Standard
  6
Continuous
 62
     7
100
AcDbCircle
 10
55.880273929
 20
62.3740781735
 30
0.0
 40
110.3492026510255
100
AcDbArc
 50
87.1986407005
 51
87.6152142004
  0
LINE
  5
256
330
1E8
100
AcDbEntity
  8
DV3_Standard
  6
Continuous
 62
     7
100
AcDbLine
 10
60.4719425742
 20
170.974585946
 30
0.0
 11
59.9683333506
 21
170.994262816
 31
0.0
  0
ARC
  5
257
330
1E8
100
AcDbEntity
  8
DV3_Standard
  6
Continuous
 62
     7
100
AcDbCircle
 10
59.9955475624
 20
171.8523551645
 30
0.0
 40
0.8585237864809736
100
AcDbArc
 50
246.9623728731
 51
268.1834857126
  0
LINE
  5
258
330
1E8
100
AcDbEntity
  8
DV3_Standard
  6
Continuous
 62
     7
100
AcDbLine
 10
59.1727336972
 20
172.6741582743
 30
0.0
 11
59.1727336972
 21
172.7523458056
 31
0.0
  0
LINE
  5
259
330
1E8
100
AcDbEntity
  8
DV3_Standard
  6
Continuous
 62
     7
100
AcDbLine
 10
58.797718291
 20
171.9410474059
 30
0.0
 11
59.0289195631
 21
172.0465795129
 31
0.0
  0
ELLIPSE
  5
25A
330
1E8
100
AcDbEntity
  8
DV3_Standard
  6
Continuous
 62
     7
100
AcDbEllipse
 10
57.4192213267
 20
113.6401310395
 30
0.0
 11
-36.80176350249421
 21
68.66415571495845
 31
0.0
210
0.0
220
0.0
230
1.0
 40
0.4905778137
 41
-0.8618557055025198
 42
-0.8397336277119845
  0
ELLIPSE
  5
25B
330
1E8
100
AcDbEntity
  8
DV3_Standard
  6
Continuous
 62
     7
100
AcDbEllipse
 10
56.1606001762
 20
113.2498182614
 30
0.0
 11
77.92065029801998
 21
1.014797704201875E-6
 31
0.0
210
0.0
220
0.0
230
1.0
 40
0.7660445307
 41
1.531436533605629
 42
1.548144288921034
  0
ELLIPSE
  5
25C
330
1E8
100
AcDbEntity
  8
DV3_Standard
  6
Continuous
 62
     7
100
AcDbEllipse
 10
56.1606018433
 20
113.2498424988
 30
0.0
 11
77.92063216588284
 21
-2.049797942493825E-6
 31
0.0
210
0.0
220
0.0
230
1.0
 40
0.7660443533
 41
1.503761088856025
 42
1.516653907410382
  0
LINE
  5
25D
330
1E8
100
AcDbEntity
  8
DV3_Standard
  6
Continuous
 62
     7
100
AcDbLine
 10
61.3801202999
 20
172.8064362058
 30
0.0
 11
61.3801202999
 21
170.6182215123
 31
0.0
  0
ELLIPSE
  5
25E
330
1E8
100
AcDbEntity
  8
DV3_Standard
  6
Continuous
 62
     7
100
AcDbEllipse
 10
56.1606009927
 20
111.1020733052
 30
0.0
 11
77.86794620014689
 21
-4.957539656569310E-7
 31
0.0
210
0.0
220
0.0
230
1.0
 40
0.7660444203
 41
1.503715638003812
 42
1.525448072257466
  0
LINE
  5
25F
330
1E8
100
AcDbEntity
  8
DV3_Standard
  6
Continuous
 62
     7
100
AcDbLine
 10
59.6905666518
 20
170.69105514
 30
0.0
 11
59.1897478951
 21
170.7657796364
 31
0.0
  0
SPLINE
  5
260
330
1E8
100
AcDbEntity
  8
DV3_Standard
  6
Continuous
 62
     7
100
AcDbSpline
210
0.0
220
0.0
230
1.0
 70
     8
 71
     3
 72
    22
 73
    18
 74
     0
 42
0.0000000059975739
 43
0.0000000001
 40
0.0
 40
0.0
 40
0.0
 40
0.0
 40
0.125
 40
0.125
 40
0.25
 40
0.25
 40
0.375
 40
0.375
 40
0.5
 40
0.5
 40
0.625
 40
0.625
 40
0.75
 40
0.75
 40
0.875
 40
0.875
 40
1.0
 40
1.0
 40
1.0
 40
1.0
 10
59.18974789506754
 20
170.7657796363644
 30
0.0
 10
59.10481533213711
 20
170.7887808876782
 30
0.0
 10
59.02550440415931
 20
170.8181732746798
 30
0.0
 10
58.87776328170429
 20
170.8893281516842
 30
0.0
 10
58.80951213755343
 20
170.931346391319
 30
0.0
 10
58.69178520617935
 20
171.0234365090193
 30
0.0
 10
58.6406412552152
 20
171.0747945711564
 30
0.0
 10
58.55953092979681
 20
171.1827045778782
 30
0.0
 10
58.52927040925267
 20
171.2390518476603
 30
0.0
 10
58.48992481626757
 20
171.3566673431449
 30
0.0
 10
58.48163471698863
 20
171.4157243670373
 30
0.0
 10
58.48727070537853
 20
171.5334670042823
 30
0.0
 10
58.5016026479414
 20
171.5924493724089
 30
0.0
 10
58.55145327440988
 20
171.7037719704951
 30
0.0
 10
58.58760194378803
 20
171.757660156843
 30
0.0
 10
58.67898694031707
 20
171.8563287627604
 30
0.0
 10
58.73371088313426
 20
171.9010559441272
 30
0.0
 10
58.79771829097464
 20
171.9410474059334
 30
0.0
  0
ARC
  5
261
330
1E8
100
AcDbEntity
  8
DV3_Standard
  6
Continuous
 62
     7
100
AcDbCircle
 10
56.1224066772
 20
174.0316370653
 30
0.0
 40
3.376860082023668
100
AcDbArc
 50
269.9426466051
 51
281.5990705726
  0
LINE
  5
262
330
1E8
100
AcDbEntity
  8
DV3_Standard
  6
Continuous
 62
     7
100
AcDbLine
 10
47.3401201824
 20
170.3684511659
 30
0.0
 11
47.3401201824
 21
170.9029796388
 31
0.0
  0
LINE
  5
263
330
1E8
100
AcDbEntity
  8
DV3_Standard
  6
Continuous
 62
     7
100
AcDbLine
 10
48.6971985523
 20
171.0122461983
 30
0.0
 11
48.6971985523
 21
171.2489473195
 31
0.0
  0
ELLIPSE
  5
264
330
1E8
100
AcDbEntity
  8
DV3_Standard
  6
Continuous
 62
     7
100
AcDbEllipse
 10
56.1605977974
 20
111.8467301324
 30
0.0
 11
-77.90243898490485
 21
-5.411023545898175E-6
 31
0.0
210
0.0
220
0.0
230
0.9999999999999999
 40
0.7660443062
 41
-1.474844778478748
 42
-1.460176310094369
  0
LINE
  5
265
330
1E8
100
AcDbEntity
  8
DV3_Standard
  6
Continuous
 62
     7
100
AcDbLine
 10
47.5605890538
 20
171.158695847
 30
0.0
 11
47.5605890538
 21
171.7001597176
 31
0.0
  0
LINE
  5
266
330
1E8
100
AcDbEntity
  8
DV3_Standard
  6
Continuous
 62
     7
100
AcDbLine
 10
48.6971985523
 20
171.7903947174
 30
0.0
 11
48.6971985523
 21
172.1393687181
 31
0.0
  0
ELLIPSE
  5
267
330
1E8
100
AcDbEntity
  8
DV3_Standard
  6
Continuous
 62
     7
100
AcDbEllipse
 10
56.1606008082
 20
112.7228700524
 30
0.0
 11
-77.92098223856073
 21
1.473294958254101E-7
 31
0.0
210
0.0
220
0.0
230
1.0
 40
0.7660444467
 41
-1.47486758940577
 42
-1.454820866751303
  0
LINE
  5
268
330
1E8
100
AcDbEntity
  8
DV3_Standard
  6
Continuous
 62
     7
100
AcDbLine
 10
47.1439237677
 20
172.0128248247
 30
0.0
 11
47.1439237677
 21
172.5395200611
 31
0.0
  0
LINE
  5
269
330
1E8
100
AcDbEntity
  8
DV3_Standard
  6
Continuous
 62
     7
100
AcDbLine
 10
51.4416028718
 20
171.4138598469
 30
0.0
 11
51.4416028718
 21
170.6427402538
 31
0.0
  0
ELLIPSE
  5
26A
330
1E8
100
AcDbEntity
  8
DV3_Standard
  6
Continuous
 62
     7
100
AcDbEllipse
 10
56.1606008252
 20
111.1020684757
 30
0.0
 11
-77.86794936777238
 21
1.777324398766211E-7
 31
0.0
210
0.0
220
0.0
230
1.0
 40
0.7660444511
 41
-1.510156596748196
 42
-1.497121972936371
  0
ELLIPSE
  5
26B
330
1E8
100
AcDbEntity
  8
DV3_Standard
  6
Continuous
 62
     7
100
AcDbEllipse
 10
50.4247630401
 20
112.9602486422
 30
0.0
 11
0.0
 21
57.63031566208932
 31
0.0
210
0.0
220
0.0
230
1.0
 40
1.0
 41
-0.0000721066126896
 42
0.0000108261193665
  0
ELLIPSE
  5
26C
330
1E8
100
AcDbEntity
  8
DV3_Standard
  6
Continuous
 62
     7
100
AcDbEllipse
 10
56.1605972727
 20
113.2498676045
 30
0.0
 11
-77.92061565534833
 21
-6.390704923586731E-6
 31
0.0
210
0.0
220
0.0
230
1.0
 40
0.7660441935
 41
-1.510197743452672
 42
-1.497110160814112
  0
LINE
  5
26D
330
1E8
100
AcDbEntity
  8
DV3_Standard
  6
Continuous
 62
     7
100
AcDbLine
 10
51.4416028718
 20
172.8309382988
 30
0.0
 11
51.4416028718
 21
171.9552772739
 31
0.0
  0
ELLIPSE
  5
26E
330
1E8
100
AcDbEntity
  8
DV3_Standard
  6
Continuous
 62
     7
100
AcDbEllipse
 10
56.160601406
 20
113.2498146847
 30
0.0
 11
-77.92065038956925
 21
1.261622264991935E-6
 31
0.0
210
0.0
220
0.0
230
1.0
 40
0.7660445311
 41
4.743950909330119
 42
4.756950855592649
  0
ELLIPSE
  5
26F
330
1E8
100
AcDbEntity
  8
DV3_Standard
  6
Continuous
 62
     7
100
AcDbEllipse
 10
56.1606014632
 20
111.1020547404
 30
0.0
 11
-77.86795834890279
 21
1.338485530744116E-6
 31
0.0
210
0.0
220
0.0
230
1.0
 40
0.7660445392
 41
4.743972275391386
 42
4.756849050964547
  0
ELLIPSE
  5
270
330
1E8
100
AcDbEntity
  8
DV3_Standard
  6
Continuous
 62
     7
100
AcDbEllipse
 10
52.6763032888
 20
112.94724878
 30
0.0
 11
0.0
 21
57.74618931499214
 31
0.0
210
0.0
220
0.0
230
1.0
 40
1.0
 41
-0.0004056496608107
 42
-0.0002387613502774
  0
ELLIPSE
  5
271
330
1E8
100
AcDbEntity
  8
DV3_Standard
  6
Continuous
 62
     7
100
AcDbEllipse
 10
56.1606016309
 20
111.8466952418
 30
0.0
 11
-77.90246201966671
 21
1.671774607636678E-6
 31
0.0
210
0.0
220
0.0
230
1.0
 40
0.7660445275
 41
4.756950817679789
 42
4.773001837679681
  0
LINE
  5
272
330
1E8
100
AcDbEntity
  8
DV3_Standard
  6
Continuous
 62
     7
100
AcDbLine
 10
64.3329608791
 20
171.5310399511
 30
0.0
 11
64.2525131818
 21
171.8211649308
 31
0.0
  0
LINE
  5
273
330
1E8
100
AcDbEntity
  8
DV3_Standard
  6
Continuous
 62
     7
100
AcDbLine
 10
64.2525131818
 20
171.8211649308
 30
0.0
 11
64.1225527709
 21
171.9801823318
 31
0.0
  0
ARC
  5
274
330
1E8
100
AcDbEntity
  8
DV3_Standard
  6
Continuous
 62
     7
100
AcDbCircle
 10
63.4298091165
 20
171.1446370933
 30
0.0
 40
1.085370727555544
100
AcDbArc
 50
50.3381532923
 51
87.8722912766
  0
LINE
  5
275
330
1E8
100
AcDbEntity
  8
DV3_Standard
  6
Continuous
 62
     7
100
AcDbLine
 10
63.4701056625
 20
172.2292595182
 30
0.0
 11
62.9256849738
 21
172.1961059634
 31
0.0
  0
LINE
  5
276
330
1E8
100
AcDbEntity
  8
DV3_Standard
  6
Continuous
 62
     7
100
AcDbLine
 10
62.9256849738
 20
172.1961059634
 30
0.0
 11
62.9256849738
 21
171.569125872
 31
0.0
  0
ARC
  5
277
330
1E8
100
AcDbEntity
  8
DV3_Standard
  6
Continuous
 62
     7
100
AcDbCircle
 10
63.1162120074
 20
168.7035566671
 30
0.0
 40
4.044481302057153
100
AcDbArc
 50
92.3404204516
 51
107.5892210077
  0
SPLINE
  5
278
330
1E8
100
AcDbEntity
  8
DV3_Standard
  6
Continuous
 62
     7
100
AcDbSpline
210
0.0
220
0.0
230
1.0
 70
     8
 71
     3
 72
    12
 73
     8
 74
     0
 42
0.0000000049643106
 43
0.0000000001
 40
0.0
 40
0.0
 40
0.0
 40
0.0
 40
0.2500000000000047
 40
0.2500000000000047
 40
0.5000000000000093
 40
0.5000000000000093
 40
1.0
 40
1.0
 40
1.0
 40
1.0
 10
65.41639414861963
 20
171.4377243025326
 30
0.0
 10
65.41656440694821
 20
171.3004230899888
 30
0.0
 10
65.37988994107735
 20
171.1691029010663
 30
0.0
 10
65.23489359530302
 20
170.9231609710715
 30
0.0
 10
65.12885894648909
 20
170.8131655763191
 30
0.0
 10
64.72219441005544
 20
170.5329784931729
 30
0.0
 10
64.34200318124276
 20
170.422471652464
 30
0.0
 10
63.92947400977418
 20
170.4113402076469
 30
0.0
  0
ARC
  5
279
330
1E8
100
AcDbEntity
  8
DV3_Standard
  6
Continuous
 62
     7
100
AcDbCircle
 10
63.7902810421
 20
175.6326376902
 30
0.0
 40
5.223152504345973
100
AcDbArc
 50
258.5024526225
 51
271.5270689208
  0
LINE
  5
27A
330
1E8
100
AcDbEntity
  8
DV3_Standard
  6
Continuous
 62
     7
100
AcDbLine
 10
61.9957622099
 20
170.740588183
 30
0.0
 11
61.9957622099
 21
171.3315000829
 31
0.0
  0
ARC
  5
27B
330
1E8
100
AcDbEntity
  8
DV3_Standard
  6
Continuous
 62
     7
100
AcDbCircle
 10
63.6248690706
 20
171.7931894335
 30
0.0
 40
0.820350524343344
100
AcDbArc
 50
272.0645023
 51
316.4390867372
  0
ARC
  5
27C
330
1E8
100
AcDbEntity
  8
DV3_Standard
  6
Continuous
 62
     7
100
AcDbCircle
 10
63.8550800972
 20
171.5372695504
 30
0.0
 40
0.4779213843942713
100
AcDbArc
 50
319.6544304506
 51
359.2531410625
  0
ARC
  5
27D
330
1E8
100
AcDbEntity
  8
DV3_Standard
  6
Continuous
 62
     7
100
AcDbCircle
 10
51.8868406239
 20
182.2845847648
 30
0.0
 40
7.598826247383977
100
AcDbArc
 50
261.2287698041
 51
282.0014261713
  0
LINE
  5
27E
330
1E8
100
AcDbEntity
  8
DV3_Standard
  6
Continuous
 62
     7
100
AcDbLine
 10
50.7280986483
 20
174.7746262182
 30
0.0
 11
50.1605291581
 21
174.8603632889
 31
0.0
  0
ELLIPSE
  5
27F
330
1E8
100
AcDbEntity
  8
DV3_Standard
  6
Continuous
 62
     7
100
AcDbEllipse
 10
53.4602068079
 20
116.4687842168
 30
0.0
 11
61.52614938018846
 21
47.42730171042758
 31
0.0
210
0.0
220
0.0
230
1.0
 40
0.6864037615
 41
1.121903953343797
 42
1.131552184239651
  0
LINE
  5
280
330
1E8
100
AcDbEntity
  8
DV3_Standard
  6
Continuous
 62
     7
100
AcDbLine
 10
53.3111226948
 20
175.1545103516
 30
0.0
 11
54.7134998445
 21
175.4605109402
 31
0.0
  0
LINE
  5
281
330
1E8
100
AcDbEntity
  8
DV3_Standard
  6
Continuous
 62
     7
100
AcDbLine
 10
57.5241220653
 20
175.4616677862
 30
0.0
 11
58.9264992278
 21
175.1568219944
 31
0.0
  0
ELLIPSE
  5
282
330
1E8
100
AcDbEntity
  8
DV3_Standard
  6
Continuous
 62
     7
100
AcDbEllipse
 10
58.844512914
 20
116.447279302
 30
0.0
 11
-61.52847176172421
 21
47.42920363150132
 31
0.0
210
0.0
220
0.0
230
1.0
 40
0.6864042515
 41
-1.13058355835456
 42
-1.12093665860364
  0
LINE
  5
283
330
1E8
100
AcDbEntity
  8
DV3_Standard
  6
Continuous
 62
     7
100
AcDbLine
 10
62.077053296
 20
174.8652934413
 30
0.0
 11
61.5095232741
 21
174.7790710362
 31
0.0
  0
ARC
  5
284
330
1E8
100
AcDbEntity
  8
DV3_Standard
  6
Continuous
 62
     7
100
AcDbCircle
 10
60.3452771852
 20
182.3122793035
 30
0.0
 40
7.622643619742917
100
AcDbArc
 50
258.0789155855
 51
278.7854695183
  0
LINE
  5
285
330
1E8
100
AcDbEntity
  8
DV3_Standard
  6
Continuous
 62
     7
100
AcDbLine
 10
58.7707114821
 20
174.8540329546
 30
0.0
 11
57.3490951981
 21
175.1630573631
 31
0.0
  0
ARC
  5
286
330
1E8
100
AcDbEntity
  8
DV3_Standard
  6
Continuous
 62
     7
100
AcDbCircle
 10
56.121122167
 20
169.5451279416
 30
0.0
 40
5.750569428273995
100
AcDbArc
 50
77.6701499522
 51
102.3769971789
  0
LINE
  5
287
330
1E8
100
AcDbEntity
  8
DV3_Standard
  6
Continuous
 62
     7
100
AcDbLine
 10
54.8885267116
 20
175.1620449957
 30
0.0
 11
53.4669104487
 21
174.8518504303
 31
0.0
  0
ARC
  5
288
330
1E8
100
AcDbEntity
  8
DV3_Standard
  6
Continuous
 62
     7
100
AcDbCircle
 10
51.8993189191
 20
180.4480115998
 30
0.0
 40
7.291334081982999
100
AcDbArc
 50
260.7564288482
 51
282.4151628268
  0
LINE
  5
289
330
1E8
100
AcDbEntity
  8
DV3_Standard
  6
Continuous
 62
     7
100
AcDbLine
 10
50.7280986619
 20
173.2513598919
 30
0.0
 11
49.2454633948
 21
173.4683638893
 31
0.0
  0
ARC
  5
28A
330
1E8
100
AcDbEntity
  8
DV3_Standard
  6
Continuous
 62
     7
100
AcDbCircle
 10
48.6970955619
 20
168.8964285551
 30
0.0
 40
4.604704114327361
100
AcDbArc
 50
83.1604931385
 51
103.8843625784
  0
ARC
  5
28B
330
1E8
100
AcDbEntity
  8
DV3_Standard
  6
Continuous
 62
     7
100
AcDbCircle
 10
48.9934563538
 20
172.4256556533
 30
0.0
 40
1.687915718391894
100
AcDbArc
 50
126.1755722061
 51
146.1200337593
  0
LINE
  5
28C
330
1E8
100
AcDbEntity
  8
DV3_Standard
  6
Continuous
 62
     7
100
AcDbLine
 10
49.3995156006
 20
173.7955677035
 30
0.0
 11
50.9035520054
 21
173.575482436
 31
0.0
  0
ARC
  5
28D
330
1E8
100
AcDbEntity
  8
DV3_Standard
  6
Continuous
 62
     7
100
AcDbCircle
 10
56.1213497091
 20
167.7835170224
 30
0.0
 40
6.334188411490866
100
AcDbArc
 50
77.2051719637
 51
102.8419304166
  0
LINE
  5
28E
330
1E8
100
AcDbEntity
  8
DV3_Standard
  6
Continuous
 62
     7
100
AcDbLine
 10
57.5241220653
 20
173.9604234122
 30
0.0
 11
58.926499228
 21
173.6444507439
 31
0.0
  0
ARC
  5
28F
330
1E8
100
AcDbEntity
  8
DV3_Standard
  6
Continuous
 62
     7
100
AcDbCircle
 10
63.2487789222
 20
172.4281031022
 30
0.0
 40
1.687258537273553
100
AcDbArc
 50
34.0747974045
 51
53.7355805325
  0
ARC
  5
290
330
1E8
100
AcDbEntity
  8
DV3_Standard
  6
Continuous
 62
     7
100
AcDbCircle
 10
63.5442876438
 20
168.9025787069
 30
0.0
 40
4.604677824793069
100
AcDbArc
 50
76.1527239122
 51
96.8866854552
  0
LINE
  5
291
330
1E8
100
AcDbEntity
  8
DV3_Standard
  6
Continuous
 62
     7
100
AcDbLine
 10
62.9921585183
 20
173.4740348534
 30
0.0
 11
61.5095232741
 21
173.2558003831
 31
0.0
  0
ARC
  5
292
330
1E8
100
AcDbEntity
  8
DV3_Standard
  6
Continuous
 62
     7
100
AcDbCircle
 10
60.3330335445
 20
180.4750697566
 30
0.0
 40
7.314504656583963
100
AcDbArc
 50
257.6670447412
 51
279.255853006
  0
LINE
  5
293
330
1E8
100
AcDbEntity
  8
DV3_Standard
  6
Continuous
 62
     7
100
AcDbLine
 10
58.7707114821
 20
173.3293627836
 30
0.0
 11
57.3490951981
 21
173.6496665033
 31
0.0
  0
ARC
  5
294
330
1E8
100
AcDbEntity
  8
DV3_Standard
  6
Continuous
 62
     7
100
AcDbCircle
 10
56.1210331091
 20
168.2420445882
 30
0.0
 40
5.545314352782685
100
AcDbArc
 50
77.2052339013
 51
102.8418596125
  0
LINE
  5
295
330
1E8
100
AcDbEntity
  8
DV3_Standard
  6
Continuous
 62
     7
100
AcDbLine
 10
54.8885267116
 20
173.6486552873
 30
0.0
 11
53.4669104487
 21
173.3271823299
 31
0.0
  0
LINE
  5
296
330
1E8
100
AcDbEntity
  8
DV3_Standard
  6
Continuous
 62
     7
100
AcDbLine
 10
57.5241220653
 20
174.7117282219
 30
0.0
 11
58.926499228
 21
174.4012671319
 31
0.0
  0
LINE
  5
297
330
1E8
100
AcDbEntity
  8
DV3_Standard
  6
Continuous
 62
     7
100
AcDbLine
 10
61.3340699306
 20
174.3359875542
 30
0.0
 11
62.883917182
 21
174.556883333
 31
0.0
  0
ARC
  5
298
330
1E8
100
AcDbEntity
  8
DV3_Standard
  6
Continuous
 62
     7
100
AcDbCircle
 10
59.2112061906
 20
166.7201953084
 30
0.0
 40
8.65462218821431
100
AcDbArc
 50
60.7932052618
 51
64.8895800854
  0
LINE
  5
299
330
1E8
100
AcDbEntity
  8
DV3_Standard
  6
Continuous
 62
     7
100
AcDbLine
 10
63.4343431208
 20
174.2745053159
 30
0.0
 11
61.5095232741
 21
174.0180258546
 31
0.0
  0
ARC
  5
29A
330
1E8
100
AcDbEntity
  8
DV3_Standard
  6
Continuous
 62
     7
100
AcDbCircle
 10
60.3389295111
 20
181.3894004534
 30
0.0
 40
7.463742575581827
100
AcDbArc
 50
257.8711144284
 51
279.0233733194
  0
LINE
  5
29B
330
1E8
100
AcDbEntity
  8
DV3_Standard
  6
Continuous
 62
     7
100
AcDbLine
 10
58.7707114821
 20
174.0922677667
 30
0.0
 11
57.3490951981
 21
174.4069838246
 31
0.0
  0
ARC
  5
29C
330
1E8
100
AcDbEntity
  8
DV3_Standard
  6
Continuous
 62
     7
100
AcDbCircle
 10
56.1210761104
 20
168.8971453225
 30
0.0
 40
5.645028892621058
100
AcDbArc
 50
77.4354188505
 51
102.6116953277
  0
LINE
  5
29D
330
1E8
100
AcDbEntity
  8
DV3_Standard
  6
Continuous
 62
     7
100
AcDbLine
 10
54.8885267116
 20
174.4059721648
 30
0.0
 11
53.4669097276
 21
174.0900864036
 31
0.0
  0
ARC
  5
29E
330
1E8
100
AcDbEntity
  8
DV3_Standard
  6
Continuous
 62
     7
100
AcDbCircle
 10
51.8933099997
 20
181.3620327091
 30
0.0
 40
7.440256660457786
100
AcDbArc
 50
260.989873665
 51
282.2101558844
  0
LINE
  5
29F
330
1E8
100
AcDbEntity
  8
DV3_Standard
  6
Continuous
 62
     7
100
AcDbLine
 10
50.7280986618
 20
174.0135837768
 30
0.0
 11
48.8032788018
 21
174.268463247
 31
0.0
  0
ARC
  5
2A0
330
1E8
100
AcDbEntity
  8
DV3_Standard
  6
Continuous
 62
     7
100
AcDbCircle
 10
53.0354268757
 20
166.7092800968
 30
0.0
 40
8.663274624440934
100
AcDbArc
 50
115.1494244094
 51
119.2430876897
  0
LINE
  5
2A1
330
1E8
100
AcDbEntity
  8
DV3_Standard
  6
Continuous
 62
     7
100
AcDbLine
 10
53.3111227028
 20
174.3989571277
 30
0.0
 11
54.7134998445
 21
174.7105723037
 31
0.0
  0
SPLINE
  5
2A2
330
1E8
100
AcDbEntity
  8
DV3_Standard
  6
Continuous
 62
     7
100
AcDbSpline
210
0.0
220
0.0
230
1.0
 70
     8
 71
     3
 72
    35
 73
    31
 74
     0
 42
0.000000004465621
 43
0.0000000001
 40
0.0
 40
0.0
 40
0.0
 40
0.0
 40
0.0281308101550134
 40
0.0281308101550134
 40
0.0281308101550134
 40
0.1569632337098371
 40
0.1569632337098371
 40
0.1569632337098371
 40
0.1590635057175399
 40
0.1590635057175399
 40
0.1590635057175399
 40
0.294014071990124
 40
0.294014071990124
 40
0.294014071990124
 40
0.4321466303945243
 40
0.4321466303945243
 40
0.4321466303945243
 40
0.5711654555912378
 40
0.5711654555912378
 40
0.5711654555912378
 40
0.7084534987588426
 40
0.7084534987588426
 40
0.7084534987588426
 40
0.8422992872718467
 40
0.8422992872718467
 40
0.8422992872718467
 40
0.9724939615025537
 40
0.9724939615025537
 40
0.9724939615025537
 40
1.0
 40
1.0
 40
1.0
 40
1.0
 10
56.16071574738012
 20
171.0637106594489
 30
0.0
 10
56.13446265165857
 20
171.0630157797384
 30
0.0
 10
56.1081516846216
 20
171.0629659566277
 30
0.0
 10
56.08189398572814
 20
171.06356141994
 30
0.0
 10
55.96329007022405
 20
171.0662510798626
 30
0.0
 10
55.84378029716239
 20
171.0825277323906
 30
0.0
 10
55.73333313339135
 20
171.110888966662
 30
0.0
 10
55.73150644990614
 20
171.1113580325619
 30
0.0
 10
55.72968175158861
 20
171.1118304146593
 30
0.0
 10
55.72785907990664
 20
171.1123061009941
 30
0.0
 10
55.61253318261252
 20
171.1424042003626
 30
0.0
 10
55.50389242898933
 20
171.1865729489577
 30
0.0
 10
55.41123152480857
 20
171.2406158946137
 30
0.0
 10
55.31639754754895
 20
171.2959262493387
 30
0.0
 10
55.23546673300235
 20
171.3631876171125
 30
0.0
 10
55.1750317063937
 20
171.4362780063655
 30
0.0
 10
55.11419144739682
 20
171.5098584854664
 30
0.0
 10
55.07231636994551
 20
171.5914522766237
 30
0.0
 10
55.05258972240733
 20
171.6740899620541
 30
0.0
 10
55.03309858454237
 20
171.7557410645259
 30
0.0
 10
55.03465631390885
 20
171.8406652167758
 30
0.0
 10
55.05715081612666
 20
171.9219780673108
 30
0.0
 10
55.07909249384767
 20
172.0012925746397
 30
0.0
 10
55.12153191842467
 20
172.0792733502455
 30
0.0
 10
55.18145930252422
 20
172.1497121671306
 30
0.0
 10
55.239770477214
 20
172.2182512869012
 30
0.0
 10
55.31616768852555
 20
172.2814154896649
 30
0.0
 10
55.40508988918924
 20
172.3340749509465
 30
0.0
 10
55.42387386341125
 20
172.345198764301
 30
0.0
 10
55.44332334340224
 20
172.3559150687458
 30
0.0
 10
55.46336046178037
 20
172.3661875123562
 30
0.0
  0
SPLINE
  5
2A3
330
1E8
100
AcDbEntity
  8
DV3_Standard
  6
Continuous
 62
     7
100
AcDbSpline
210
0.0
220
0.0
230
1.0
 70
     8
 71
     3
 72
    32
 73
    28
 74
     0
 42
0.0000000042661985
 43
0.0000000001
 40
0.0
 40
0.0
 40
0.0
 40
0.0
 40
0.0049491090273178
 40
0.0049491090273178
 40
0.0049491090273178
 40
0.1353345014044071
 40
0.1353345014044071
 40
0.1353345014044071
 40
0.2682012155520361
 40
0.2682012155520361
 40
0.2682012155520361
 40
0.4011145424695006
 40
0.4011145424695006
 40
0.4011145424695006
 40
0.5317300405151356
 40
0.5317300405151356
 40
0.5317300405151356
 40
0.6588245977768163
 40
0.6588245977768163
 40
0.6588245977768163
 40
0.7826669013145087
 40
0.7826669013145087
 40
0.7826669013145087
 40
0.9048164061900701
 40
0.9048164061900701
 40
0.9048164061900701
 40
1.0
 40
1.0
 40
1.0
 40
1.0
 10
56.60126719830964
 20
172.4391873053245
 30
0.0
 10
56.60550310370285
 20
172.4377692870701
 30
0.0
 10
56.60972185334267
 20
172.436333070257
 30
0.0
 10
56.6139228332751
 20
172.4348787993975
 30
0.0
 10
56.72455410559598
 20
172.3965811074124
 30
0.0
 10
56.82613476023413
 20
172.3446510670624
 30
0.0
 10
56.91007083088226
 20
172.2839646361338
 30
0.0
 10
56.99560522946892
 20
172.2221226016931
 30
0.0
 10
57.06537485238913
 20
172.1493928162613
 30
0.0
 10
57.11381347618553
 20
172.0722602371171
 30
0.0
 10
57.16228767647947
 20
171.9950710067553
 30
0.0
 10
57.19083064598207
 20
171.911284013226
 30
0.0
 10
57.19731557835248
 20
171.8279180084687
 30
0.0
 10
57.20369183640651
 20
171.7459490489015
 30
0.0
 10
57.18894288336524
 20
171.662153456659
 30
0.0
 10
57.15412112255401
 20
171.5832605349614
 30
0.0
 10
57.12022221536271
 20
171.5064584500474
 30
0.0
 10
57.06640608374263
 20
171.4322888425653
 30
0.0
 10
56.99650512100497
 20
171.3666789939979
 30
0.0
 10
56.92837722054256
 20
171.3027333620997
 30
0.0
 10
56.84318673035397
 20
171.2452793244487
 30
0.0
 10
56.74722633171457
 20
171.1990521123851
 30
0.0
 10
56.65258690005133
 20
171.1534612526231
 30
0.0
 10
56.54497391545234
 20
171.1176228220392
 30
0.0
 10
56.43281463317194
 20
171.0946507139935
 30
0.0
 10
56.34495572981946
 20
171.0766557323963
 30
0.0
 10
56.25269394827561
 20
171.0661451832207
 30
0.0
 10
56.16071574738012
 20
171.0637106594489
 30
0.0
  0
ARC
  5
2A4
330
1E8
100
AcDbEntity
  8
DV3_Standard
  6
Continuous
 62
     7
100
AcDbCircle
 10
59.1162675095
 20
171.2314057831
 30
0.0
 40
1.408772579150672
100
AcDbArc
 50
21.4512639708
 51
26.4701248236
  0
ARC
  5
2A5
330
1E8
100
AcDbEntity
  8
DV3_Standard
  6
Continuous
 62
     7
100
AcDbCircle
 10
59.4514837313
 20
172.7271951878
 30
0.0
 40
0.2800393648254123
100
AcDbArc
 50
143.3708328545
 51
174.3870220883
  0
LINE
  5
2A6
330
1E8
100
AcDbEntity
  8
DV3_Standard
  6
Continuous
 62
     7
100
AcDbLine
 10
59.1727336972
 20
172.7523458056
 30
0.0
 11
59.1727870793
 21
172.7545853686
 31
0.0
  0
SPLINE
  5
2A7
330
1E8
100
AcDbEntity
  8
DV3_Standard
  6
Continuous
 62
     7
100
AcDbSpline
210
0.0
220
0.0
230
1.0
 70
     8
 71
     3
 72
    10
 73
     6
 74
     0
 42
0.0000000804271356
 43
0.0000000001
 40
0.0
 40
0.0
 40
0.0
 40
0.0
 40
0.5
 40
0.5
 40
1.0
 40
1.0
 40
1.0
 40
1.0
 10
60.4274529734458
 20
171.7466075482605
 30
0.0
 10
60.40566492391812
 20
171.7497555137371
 30
0.0
 10
60.38396059989827
 20
171.7510475334014
 30
0.0
 10
60.34477860209437
 20
171.7447892903495
 30
0.0
 10
60.32519540563366
 20
171.736186740859
 30
0.0
 10
60.32461586157469
 20
171.7166842546209
 30
0.0
  0
ARC
  5
2A8
330
1E8
100
AcDbEntity
  8
DV3_Standard
  6
Continuous
 62
     7
100
AcDbCircle
 10
60.4615110299
 20
171.5935028927
 30
0.0
 40
0.15684701707365
100
AcDbArc
 50
102.5412172161
 51
122.4493823673
  0
ARC
  5
2A9
330
1E8
100
AcDbEntity
  8
DV3_Standard
  6
Continuous
 62
     7
100
AcDbCircle
 10
60.2672532195
 20
171.0231785509
 30
0.0
 40
0.2076530080100448
100
AcDbArc
 50
9.6917029661
 51
57.979975731
  0
LINE
  5
2AA
330
1E8
100
AcDbEntity
  8
DV3_Standard
  6
Continuous
 62
     7
100
AcDbLine
 10
60.4719425742
 20
172.7124013383
 30
0.0
 11
60.4719425742
 21
171.0581362366
 31
0.0
  0
ARC
  5
2AB
330
1E8
100
AcDbEntity
  8
DV3_Standard
  6
Continuous
 62
     7
100
AcDbCircle
 10
60.2722134402
 20
172.6801927968
 30
0.0
 40
0.2023094587949076
100
AcDbArc
 50
9.160715623
 51
58.6877301937
  0
ARC
  5
2AC
330
1E8
100
AcDbEntity
  8
DV3_Standard
  6
Continuous
 62
     7
100
AcDbCircle
 10
47.9202111973
 20
174.2371673299
 30
0.0
 40
1.467508772945239
100
AcDbArc
 50
6.5827347555
 51
12.3602268196
  0
LINE
  5
2AD
330
1E8
100
AcDbEntity
  8
DV3_Standard
  6
Continuous
 62
     7
100
AcDbLine
 10
50.8772282086
 20
174.1922742847
 30
0.0
 11
49.378045981
 21
174.4054022731
 31
0.0
  0
ARC
  5
2AE
330
1E8
100
AcDbEntity
  8
DV3_Standard
  6
Continuous
 62
     7
100
AcDbCircle
 10
51.9333860048
 20
180.8127744187
 30
0.0
 40
6.704214443870957
100
AcDbArc
 50
260.9360712186
 51
282.1474595766
  0
ELLIPSE
  5
2AF
330
1E8
100
AcDbEntity
  8
DV3_Standard
  6
Continuous
 62
     7
100
AcDbEllipse
 10
53.3147795414
 20
174.3201174032
 30
0.0
 11
-0.02120020723727582
 21
0.09772692163928164
 31
0.0
210
0.0
220
0.0
230
0.9999999999999999
 40
0.2092495776
 41
3.98792212890696
 42
5.604229588411441
  0
ELLIPSE
  5
2B0
330
1E8
100
AcDbEntity
  8
DV3_Standard
  6
Continuous
 62
     7
100
AcDbEllipse
 10
54.7153569616
 20
174.6313326722
 30
0.0
 11
-0.02218740937951109
 21
0.09750753235028206
 31
0.0
210
0.0
220
0.0
230
1.0
 40
0.2504077022
 41
3.985064341942782
 42
5.601904241187744
  0
ELLIPSE
  5
2B1
330
1E8
100
AcDbEntity
  8
DV3_Standard
  6
Continuous
 62
     7
100
AcDbEllipse
 10
57.5223722088
 20
174.6324871069
 30
0.0
 11
0.02211112096660349
 21
0.09752486005941766
 31
0.0
210
0.0
220
0.0
230
1.0
 40
0.2510599674
 41
0.6814391381249709
 42
2.297924812712353
  0
ELLIPSE
  5
2B2
330
1E8
100
AcDbEntity
  8
DV3_Standard
  6
Continuous
 62
     7
100
AcDbEllipse
 10
58.92294965
 20
174.3224244429
 30
0.0
 11
0.02112333364100334
 21
0.09774356641692114
 31
0.0
210
0.0
220
0.0
230
0.9999999999999997
 40
0.2099151014
 41
0.6791061528409714
 42
2.295098329349059
  0
ARC
  5
2B3
330
1E8
100
AcDbEntity
  8
DV3_Standard
  6
Continuous
 62
     7
100
AcDbCircle
 10
60.2989666031
 20
180.8131811863
 30
0.0
 40
6.701227093808171
100
AcDbArc
 50
257.8940621563
 51
279.1145582534
  0
ELLIPSE
  5
2B4
330
1E8
100
AcDbEntity
  8
DV3_Standard
  6
Continuous
 62
     7
100
AcDbEllipse
 10
61.3274306297
 20
174.2572286409
 30
0.0
 11
-0.01621138194741675
 21
0.09867720656435083
 31
0.0
210
0.0
220
0.0
230
0.9999999999999999
 40
0.300758968
 41
4.001895091818799
 42
5.585618973675181
  0
ARC
  5
2B5
330
1E8
100
AcDbEntity
  8
DV3_Standard
  6
Continuous
 62
     7
100
AcDbCircle
 10
64.4861123717
 20
173.6063505523
 30
0.0
 40
0.3007560121803547
100
AcDbArc
 50
142.717406549
 51
171.3227443978
  0
ARC
  5
2B6
330
1E8
100
AcDbEntity
  8
DV3_Standard
  6
Continuous
 62
     7
100
AcDbCircle
 10
63.4852730118
 20
168.4650781783
 30
0.0
 40
5.23414322100906
100
AcDbArc
 50
82.2754441408
 51
96.8676690791
  0
LINE
  5
2B7
330
1E8
100
AcDbEntity
  8
DV3_Standard
  6
Continuous
 62
     7
100
AcDbLine
 10
62.8593918275
 20
173.6616662895
 30
0.0
 11
61.3605009747
 21
173.4413277007
 31
0.0
  0
ELLIPSE
  5
2B8
330
1E8
100
AcDbEntity
  8
DV3_Standard
  6
Continuous
 62
     7
100
AcDbEllipse
 10
58.92294965
 20
173.5665793048
 30
0.0
 11
-0.02146618204323806
 21
-0.0976688436939363
 31
0.0
210
0.0
220
0.0
230
1.0
 40
0.2069433607
 41
3.836393956217337
 42
5.437422359067478
  0
ARC
  5
2B9
330
1E8
100
AcDbEntity
  8
DV3_Standard
  6
Continuous
 62
     7
100
AcDbCircle
 10
60.2939127381
 20
179.9248101162
 30
0.0
 40
6.570628180865836
100
AcDbArc
 50
257.6947939662
 51
279.3419707401
  0
ELLIPSE
  5
2BA
330
1E8
100
AcDbEntity
  8
DV3_Standard
  6
Continuous
 62
     7
100
AcDbEllipse
 10
54.7153569616
 20
173.8809926621
 30
0.0
 11
0.02257515920594893
 21
-0.09741848996383529
 31
0.0
210
0.0
220
0.0
230
0.9999999999999999
 40
0.2470822577
 41
0.8424820715778832
 42
2.44454396434894
  0
LINE
  5
2BB
330
1E8
100
AcDbEntity
  8
DV3_Standard
  6
Continuous
 62
     7
100
AcDbLine
 10
54.7483469352
 20
173.8203124849
 30
0.0
 11
53.3441432177
 21
173.5028281321
 31
0.0
  0
ELLIPSE
  5
2BC
330
1E8
100
AcDbEntity
  8
DV3_Standard
  6
Continuous
 62
     7
100
AcDbEllipse
 10
50.910298567
 20
173.4976995065
 30
0.0
 11
-0.01653871068357012
 21
-0.09862287284877549
 31
0.0
210
0.0
220
0.0
230
1.0
 40
0.2981577076
 41
3.855270124602675
 42
5.423876500091962
  0
ARC
  5
2BD
330
1E8
100
AcDbEntity
  8
DV3_Standard
  6
Continuous
 62
     7
100
AcDbCircle
 10
51.9385456383
 20
179.9245653536
 30
0.0
 40
6.573767070693389
100
AcDbArc
 50
260.7090830417
 51
282.3462612623
  0
ELLIPSE
  5
2BE
330
1E8
100
AcDbEntity
  8
DV3_Standard
  6
Continuous
 62
     7
100
AcDbEllipse
 10
57.34756996
 20
173.5717883707
 30
0.0
 11
-0.02249901407451156
 21
-0.09743610401535818
 31
0.0
210
0.0
220
0.0
230
1.0
 40
0.2477365235
 41
2.458179563909086
 42
3.845613334464592
  0
ELLIPSE
  5
2BF
330
1E8
100
AcDbEntity
  8
DV3_Standard
  6
Continuous
 62
     7
100
AcDbEllipse
 10
54.8901592104
 20
173.5707784524
 30
0.0
 11
0.02257502726417675
 21
-0.09741852053913105
 31
0.0
210
0.0
220
0.0
230
1.0
 40
0.2470832157
 41
2.437732899337426
 42
3.824884459389719
  0
ARC
  5
2C0
330
1E8
100
AcDbEntity
  8
DV3_Standard
  6
Continuous
 62
     7
100
AcDbCircle
 10
49.6731439134
 20
173.6826883143
 30
0.0
 40
0.295996976417196
100
AcDbArc
 50
157.5824728508
 51
185.1380008693
  0
ARC
  5
2C1
330
1E8
100
AcDbEntity
  8
DV3_Standard
  6
Continuous
 62
     7
100
AcDbCircle
 10
47.7536616301
 20
173.6049005386
 30
0.0
 40
0.3047433991200792
100
AcDbArc
 50
8.741443407
 51
36.9674841125
  0
ARC
  5
2C2
330
1E8
100
AcDbEntity
  8
DV3_Standard
  6
Continuous
 62
     7
100
AcDbCircle
 10
48.7359510756
 20
168.4968972482
 30
0.0
 40
5.199121151723273
100
AcDbArc
 50
82.9025969085
 51
97.5273935115
  0
LINE
  5
2C3
330
1E8
100
AcDbEntity
  8
DV3_Standard
  6
Continuous
 62
     7
100
AcDbLine
 10
61.4061123087
 20
175.1028790983
 30
0.0
 11
61.3936361061
 21
174.9559585461
 31
0.0
  0
ELLIPSE
  5
2C4
330
1E8
100
AcDbEntity
  8
DV3_Standard
  6
Continuous
 62
     7
100
AcDbEllipse
 10
58.9229496498
 20
175.0770096744
 30
0.0
 11
-0.0207734728862475
 21
-0.09781851984274824
 31
0.0
210
0.0
220
0.0
230
0.9999999999999997
 40
0.2129367806
 41
3.804695528052536
 42
5.435934499931474
  0
ARC
  5
2C5
330
1E8
100
AcDbEntity
  8
DV3_Standard
  6
Continuous
 62
     7
100
AcDbCircle
 10
60.3037402705
 20
181.702054388
 30
0.0
 40
6.83357022648565
100
AcDbArc
 50
258.0910583149
 51
279.1773778019
  0
ELLIPSE
  5
2C6
330
1E8
100
AcDbEntity
  8
DV3_Standard
  6
Continuous
 62
     7
100
AcDbEllipse
 10
57.5223722088
 20
175.3814642465
 30
0.0
 11
-0.02171449637164879
 21
-0.09761393674745031
 31
0.0
210
0.0
220
0.0
230
1.0
 40
0.2544423236
 41
3.806947053480481
 42
5.438490016210553
  0
ELLIPSE
  5
2C7
330
1E8
100
AcDbEntity
  8
DV3_Standard
  6
Continuous
 62
     7
100
AcDbEllipse
 10
54.7153569616
 20
175.3803088852
 30
0.0
 11
0.02179104786775399
 21
-0.09759687614291357
 31
0.0
210
0.0
220
0.0
230
1.0
 40
0.253790946
 41
0.8444959883006736
 42
2.476393461366912
  0
ARC
  5
2C8
330
1E8
100
AcDbEntity
  8
DV3_Standard
  6
Continuous
 62
     7
100
AcDbCircle
 10
56.1215027734
 20
169.0612402956
 30
0.0
 40
6.407260137851714
100
AcDbArc
 50
77.673105434
 51
102.3751954109
  0
ELLIPSE
  5
2C9
330
1E8
100
AcDbEntity
  8
DV3_Standard
  6
Continuous
 62
     7
100
AcDbEllipse
 10
61.5026588076
 20
174.6997434977
 30
0.0
 11
0.01579550275092583
 21
-0.09874463070401462
 31
0.0
210
0.0
220
0.0
230
0.9999999999999999
 40
0.3040483165
 41
2.453524203749855
 42
3.781549903722521
  0
ELLIPSE
  5
2CA
330
1E8
100
AcDbEntity
  8
DV3_Standard
  6
Continuous
 62
     7
100
AcDbEllipse
 10
53.3147795414
 20
175.0747009999
 30
0.0
 11
0.02085057137904238
 21
-0.09780211487068688
 31
0.0
210
0.0
220
0.0
230
1.0
 40
0.2122717284
 41
0.847083222175075
 42
2.478637730825966
  0
ARC
  5
2CB
330
1E8
100
AcDbEntity
  8
DV3_Standard
  6
Continuous
 62
     7
100
AcDbCircle
 10
80.5887714797
 20
177.5727461091
 30
0.0
 40
29.85994702234627
100
AcDbArc
 50
184.7530401724
 51
185.0359099735
  0
ARC
  5
2CC
330
1E8
100
AcDbEntity
  8
DV3_Standard
  6
Continuous
 62
     7
100
AcDbCircle
 10
51.9288927802
 20
181.6860446103
 30
0.0
 40
6.821220114049933
100
AcDbArc
 50
260.8491748654
 51
281.9745744888
  0
ELLIPSE
  5
2CD
330
1E8
100
AcDbEntity
  8
DV3_Standard
  6
Continuous
 62
     7
100
AcDbEllipse
 10
50.7350631976
 20
174.6953055265
 30
0.0
 11
-0.01572666169934438
 21
-0.0987556181277667
 31
0.0
210
0.0
220
0.0
230
1.0
 40
0.3046868118
 41
2.506627681206084
 42
3.829803754671672
  0
SPLINE
  5
2CE
330
1E8
100
AcDbEntity
  8
DV3_Standard
  6
Continuous
 62
     7
100
AcDbSpline
210
0.0
220
0.0
230
1.0
 70
     8
 71
     3
 72
    16
 73
    12
 74
     0
 42
0.0000000049376446
 43
0.0000000001
 40
0.0
 40
0.0
 40
0.0
 40
0.0
 40
0.250000000000008
 40
0.250000000000008
 40
0.3750000000000012
 40
0.3750000000000012
 40
0.4999999999999943
 40
0.4999999999999943
 40
0.7499999999999972
 40
0.7499999999999972
 40
1.0
 40
1.0
 40
1.0
 40
1.0
 10
65.30451588572497
 20
171.3626326179191
 30
0.0
 10
65.30435359388201
 20
171.4946312810516
 30
0.0
 10
65.26763995037177
 20
171.6272744322772
 30
0.0
 10
65.16165466363493
 20
171.8188709459714
 30
0.0
 10
65.11738714108908
 20
171.8819278629562
 30
0.0
 10
65.0148884548003
 20
172.0012577212914
 30
0.0
 10
64.95634220342413
 20
172.0582155261861
 30
0.0
 10
64.75842832822079
 20
172.2208237648114
 30
0.0
 10
64.6013762327108
 20
172.314410818943
 30
0.0
 10
64.24861606759544
 20
172.4648236218857
 30
0.0
 10
64.05929394107416
 20
172.5192356457379
 30
0.0
 10
63.86071776414929
 20
172.5515871984913
 30
0.0
  0
ELLIPSE
  5
2CF
330
1E8
100
AcDbEntity
  8
DV3_Standard
  6
Continuous
 62
     7
100
AcDbEllipse
 10
65.4045158527
 20
171.3626848357
 30
0.0
 11
0.0999999231159187
 21
0.0001240034055716155
 31
0.0
210
0.0
220
0.0
230
1.0
 40
0.755681283
 41
1.450795143139678
 42
3.140642706875692
  0
ELLIPSE
  5
2D0
330
1E8
100
AcDbEntity
  8
DV3_Standard
  6
Continuous
 62
     7
100
AcDbEllipse
 10
62.9423343734
 20
172.6679474929
 30
0.0
 11
0.004603939613477027
 21
-0.09989396248025889
 31
0.0
210
0.0
220
0.0
230
1.0
 40
0.1890861173
 41
0.8759290217706798
 42
2.437719878463978
  0
SPLINE
  5
2D1
330
1E8
100
AcDbEntity
  8
DV3_Standard
  6
Continuous
 62
     7
100
AcDbSpline
210
0.0
220
0.0
230
1.0
 70
     8
 71
     3
 72
    23
 73
    19
 74
     0
 42
0.0000000904679541
 43
0.0000000001
 40
0.0
 40
0.0
 40
0.0
 40
0.0
 40
0.013917898935019
 40
0.013917898935019
 40
0.013917898935019
 40
0.2032914570234003
 40
0.2032914570234003
 40
0.2032914570234003
 40
0.4491409510304021
 40
0.4491409510304021
 40
0.4491409510304021
 40
0.6628420796555189
 40
0.6628420796555189
 40
0.6628420796555189
 40
0.8619498973453787
 40
0.8619498973453787
 40
0.8619498973453787
 40
1.0
 40
1.0
 40
1.0
 40
1.0
 10
61.99576220986408
 20
170.7405881829895
 30
0.0
 10
61.99636754587246
 20
170.7407995302252
 30
0.0
 10
61.99697252105022
 20
170.7410067422474
 30
0.0
 10
61.99757692029181
 20
170.7412099043995
 30
0.0
 10
62.00585241626258
 20
170.7439916212761
 30
0.0
 10
62.01407773794687
 20
170.7460183605177
 30
0.0
 10
62.02196564917568
 20
170.7472008094379
 30
0.0
 10
62.03215691250772
 20
170.748728545739
 30
0.0
 10
62.04197523859098
 20
170.7488642285903
 30
0.0
 10
62.0507195866621
 20
170.7474472856503
 30
0.0
 10
62.05832963114931
 20
170.7462141464017
 30
0.0
 10
62.065276779111
 20
170.7437740972924
 30
0.0
 10
62.07100362166094
 20
170.7401112219616
 30
0.0
 10
62.07633657660546
 20
170.7367002762377
 30
0.0
 10
62.08071718523134
 20
170.732142845912
 30
0.0
 10
62.08368474074061
 20
170.7266259786923
 30
0.0
 10
62.08573785607242
 20
170.7228091116995
 30
0.0
 10
62.08714211548112
 20
170.7184566381641
 30
0.0
 10
62.08781571198144
 20
170.7137413017202
 30
0.0
  0
ELLIPSE
  5
2D2
330
1E8
100
AcDbEntity
  8
DV3_Standard
  6
Continuous
 62
     7
100
AcDbEllipse
 10
62.7407156611
 20
170.4404425454
 30
0.0
 11
-0.01984142909140091
 21
-0.09801182424371696
 31
0.0
210
0.0
220
0.0
230
0.9999999999999998
 40
0.094753291
 41
2.287612572462383
 42
3.87837097278141
  0
SPLINE
  5
2D3
330
1E8
100
AcDbEntity
  8
DV3_Standard
  6
Continuous
 62
     7
100
AcDbSpline
210
0.0
220
0.0
230
1.0
 70
     8
 71
     3
 72
    23
 73
    19
 74
     0
 42
0.0000000648643431
 43
0.0000000001
 40
0.0
 40
0.0
 40
0.0
 40
0.0
 40
0.1914698131003549
 40
0.1914698131003549
 40
0.1914698131003549
 40
0.3820633391756441
 40
0.3820633391756441
 40
0.3820633391756441
 40
0.5853887466938347
 40
0.5853887466938347
 40
0.5853887466938347
 40
0.8164376738279492
 40
0.8164376738279492
 40
0.8164376738279492
 40
0.9866061898205735
 40
0.9866061898205735
 40
0.9866061898205735
 40
1.0
 40
1.0
 40
1.0
 40
1.0
 10
61.98665003724195
 20
172.4455558396863
 30
0.0
 10
61.98665003724193
 20
172.4537140871362
 30
0.0
 10
61.98501164376424
 20
172.4625624188613
 30
0.0
 10
61.98197632423663
 20
172.4713009238675
 30
0.0
 10
61.9789490064752
 20
172.4800163922632
 30
0.0
 10
61.97447135121337
 20
172.4888504740541
 30
0.0
 10
61.96900620082392
 20
172.4971829735672
 30
0.0
 10
61.96317313629394
 20
172.5060764172773
 30
0.0
 10
61.95608825439803
 20
172.5146136869618
 30
0.0
 10
61.94832136423599
 20
172.5223165236374
 30
0.0
 10
61.93950542008707
 20
172.5310597627594
 30
0.0
 10
61.92960695858218
 20
172.5389387600914
 30
0.0
 10
61.91934082950638
 20
172.5455273273576
 30
0.0
 10
61.9117388927623
 20
172.5504060768085
 30
0.0
 10
61.90382973311121
 20
172.5546531094793
 30
0.0
 10
61.89587523232057
 20
172.5581433157803
 30
0.0
 10
61.89525331979868
 20
172.5584161931185
 30
0.0
 10
61.89463081344874
 20
172.558684573891
 30
0.0
 10
61.89400792694671
 20
172.5589485004322
 30
0.0
  0
SPLINE
  5
2D4
330
1E8
100
AcDbEntity
  8
DV3_Standard
  6
Continuous
 62
     7
100
AcDbSpline
210
0.0
220
0.0
230
1.0
 70
     8
 71
     3
 72
    17
 73
    13
 74
     0
 42
0.0000001473159963
 43
0.0000000001
 40
0.0
 40
0.0
 40
0.0
 40
0.0
 40
0.108122488929538
 40
0.108122488929538
 40
0.108122488929538
 40
0.6971064694407433
 40
0.6971064694407433
 40
0.6971064694407433
 40
0.9792483136963646
 40
0.9792483136963646
 40
0.9792483136963646
 40
1.0
 40
1.0
 40
1.0
 40
1.0
 10
61.95742018719752
 20
171.6535699772346
 30
0.0
 10
61.95545141878831
 20
171.6536799341211
 30
0.0
 10
61.95342908971716
 20
171.6536764400258
 30
0.0
 10
61.95136821460956
 20
171.6535680765554
 30
0.0
 10
61.94017416819601
 20
171.6529794791614
 30
0.0
 10
61.92749118300405
 20
171.6493196191297
 30
0.0
 10
61.91452804649179
 20
171.6435144647165
 30
0.0
 10
61.9082563407862
 20
171.6407058681998
 30
0.0
 10
61.90185513546581
 20
171.6373678921352
 30
0.0
 10
61.89541936298001
 20
171.6335646149976
 30
0.0
 10
61.89494914809625
 20
171.6332867373192
 30
0.0
 10
61.89447865777066
 20
171.6330063221436
 30
0.0
 10
61.89400792694784
 20
171.6327233911543
 30
0.0
  0
LINE
  5
2D5
330
1E8
100
AcDbEntity
  8
DV3_Standard
  6
Continuous
 62
     7
100
AcDbLine
 10
61.9866500372
 20
172.4455558397
 30
0.0
 11
61.9866500372
 21
171.6633203071
 31
0.0
  0
SPLINE
  5
2D6
330
1E8
100
AcDbEntity
  8
DV3_Standard
  6
Continuous
 62
     7
100
AcDbSpline
210
0.0
220
0.0
230
1.0
 70
     8
 71
     3
 72
    14
 73
    10
 74
     0
 42
0.0000001343021366
 43
0.0000000001
 40
0.0
 40
0.0
 40
0.0
 40
0.0
 40
0.4632686223369576
 40
0.4632686223369576
 40
0.4632686223369576
 40
0.9793389029994473
 40
0.9793389029994473
 40
0.9793389029994473
 40
1.0
 40
1.0
 40
1.0
 40
1.0
 10
62.85829368670446
 20
171.5980391577391
 30
0.0
 10
62.86793768067003
 20
171.597414044106
 30
0.0
 10
62.87836109305654
 20
171.5946006840479
 30
0.0
 10
62.88882276663957
 20
171.590254136752
 30
0.0
 10
62.90051397477486
 20
171.5853967505313
 30
0.0
 10
62.91253142225121
 20
171.578518937896
 30
0.0
 10
62.92427537361055
 20
171.5701397561463
 30
0.0
 10
62.92474551229279
 20
171.5698043173024
 30
0.0
 10
62.9252153909144
 20
171.5694663474204
 30
0.0
 10
62.9256849737925
 20
171.5691258719907
 30
0.0
  0
LINE
  5
2D7
330
1E8
100
AcDbEntity
  8
DV3_Standard
  6
Continuous
 62
     7
100
AcDbLine
 10
62.0882737352
 20
171.117986473
 30
0.0
 11
62.0882737352
 21
171.1258311778
 31
0.0
  0
ARC
  5
2D8
330
1E8
100
AcDbEntity
  8
DV3_Standard
  6
Continuous
 62
     7
100
AcDbCircle
 10
63.3852927445
 20
173.8229431188
 30
0.0
 40
2.999841456841075
100
AcDbArc
 50
244.3824147631
 51
275.4234101366
  0
ELLIPSE
  5
2D9
330
1E8
100
AcDbEntity
  8
DV3_Standard
  6
Continuous
 62
     7
100
AcDbEllipse
 10
63.6448047494
 20
170.898927849
 30
0.0
 11
-0.008989804809847284
 21
0.09959509731645444
 31
0.0
210
0.0
220
0.0
230
0.9999999999999997
 40
0.2391064222
 41
4.013931251914535
 42
5.534781026565835
  0
ARC
  5
2DA
330
1E8
100
AcDbEntity
  8
DV3_Standard
  6
Continuous
 62
     7
100
AcDbCircle
 10
61.6209359657
 20
171.0392595618
 30
0.0
 40
0.4752885812908424
100
AcDbArc
 50
10.4947467246
 51
37.9424490516
  0
ARC
  5
2DB
330
1E8
100
AcDbEntity
  8
DV3_Standard
  6
Continuous
 62
     7
100
AcDbCircle
 10
52.5888049591
 20
172.6965735305
 30
0.0
 40
0.210323399376652
100
AcDbArc
 50
12.8753936147
 51
61.4074183686
  0
ARC
  5
2DC
330
1E8
100
AcDbEntity
  8
DV3_Standard
  6
Continuous
 62
     7
100
AcDbCircle
 10
52.5843762895
 20
171.817271196
 30
0.0
 40
0.2156531033178934
100
AcDbArc
 50
13.8523589429
 51
60.8376095156
  0
LINE
  5
2DD
330
1E8
100
AcDbEntity
  8
DV3_Standard
  6
Continuous
 62
     7
100
AcDbLine
 10
52.7939157877
 20
171.8645917113
 30
0.0
 11
52.7937573151
 21
171.8689030379
 31
0.0
  0
LINE
  5
2DE
330
1E8
100
AcDbEntity
  8
DV3_Standard
  6
Continuous
 62
     7
100
AcDbLine
 10
52.7939157877
 20
172.7404621293
 30
0.0
 11
52.7939157877
 21
171.8645917113
 31
0.0
  0
LINE
  5
2DF
330
1E8
100
AcDbEntity
  8
DV3_Standard
  6
Continuous
 62
     7
100
AcDbLine
 10
52.7938401935
 20
172.7434402032
 30
0.0
 11
52.7939157877
 21
172.7404621293
 31
0.0
  0
LINE
  5
2E0
330
1E8
100
AcDbEntity
  8
DV3_Standard
  6
Continuous
 62
     7
100
AcDbLine
 10
53.6048402488
 20
170.7154334195
 30
0.0
 11
53.6048402488
 21
172.7699961279
 31
0.0
  0
SPLINE
  5
2E1
330
1E8
100
AcDbEntity
  8
DV3_Standard
  6
Continuous
 62
     7
100
AcDbSpline
210
0.0
220
0.0
230
1.0
 70
     8
 71
     3
 72
    23
 73
    19
 74
     0
 42
0.0000000819588922
 43
0.0000000001
 40
0.0
 40
0.0
 40
0.0
 40
0.0
 40
0.0107012924250406
 40
0.0107012924250406
 40
0.0107012924250406
 40
0.2129774385075044
 40
0.2129774385075044
 40
0.2129774385075044
 40
0.5023141861780254
 40
0.5023141861780254
 40
0.5023141861780254
 40
0.7108564920589646
 40
0.7108564920589646
 40
0.7108564920589646
 40
0.8547567896083406
 40
0.8547567896083406
 40
0.8547567896083406
 40
1.0
 40
1.0
 40
1.0
 40
1.0
 10
53.701684632457
 20
170.7226307922604
 30
0.0
 10
53.7012128768222
 20
170.722936012947
 30
0.0
 10
53.70074122099179
 20
170.7232387574008
 30
0.0
 10
53.70026970012272
 20
170.7235390023009
 30
0.0
 10
53.69132027161398
 20
170.72923762657
 30
0.0
 10
53.68237284602373
 20
170.7340652788849
 30
0.0
 10
53.67368726585563
 20
170.7378284183778
 30
0.0
 10
53.66135371534014
 20
170.7431720880159
 30
0.0
 10
53.64926806264471
 20
170.7464833901138
 30
0.0
 10
53.63859288912857
 20
170.7468244418801
 30
0.0
 10
53.63087669851325
 20
170.747070959694
 30
0.0
 10
53.62372529695659
 20
170.7457468726917
 30
0.0
 10
53.61801357478712
 20
170.74236517955
 30
0.0
 10
53.61405548910091
 20
170.7400217477754
 30
0.0
 10
53.61072275627527
 20
170.736627614549
 30
0.0
 10
53.60843014106022
 20
170.7321637093065
 30
0.0
 10
53.606125193824
 20
170.7276757926321
 30
0.0
 10
53.6048402487956
 20
170.7219532678347
 30
0.0
 10
53.60484024879559
 20
170.7154334195386
 30
0.0
  0
ARC
  5
2E2
330
1E8
100
AcDbEntity
  8
DV3_Standard
  6
Continuous
 62
     7
100
AcDbCircle
 10
53.8051097157
 20
172.7359266316
 30
0.0
 40
0.2031467202757893
100
AcDbArc
 50
120.604911662
 51
170.345368496
  0
ARC
  5
2E3
330
1E8
100
AcDbEntity
  8
DV3_Standard
  6
Continuous
 62
     7
100
AcDbCircle
 10
51.5498796725
 20
171.7813058887
 30
0.0
 40
0.2049143929030913
100
AcDbArc
 50
121.8974245846
 51
170.6996528772
  0
LINE
  5
2E4
330
1E8
100
AcDbEntity
  8
DV3_Standard
  6
Continuous
 62
     7
100
AcDbLine
 10
51.3476589331
 20
171.8105972897
 30
0.0
 11
51.3476589331
 21
171.8144220628
 31
0.0
  0
ELLIPSE
  5
2E5
330
1E8
100
AcDbEntity
  8
DV3_Standard
  6
Continuous
 62
     7
100
AcDbEllipse
 10
56.1606011625
 20
112.3137979989
 30
0.0
 11
-77.81653387129701
 21
7.983062405569896E-7
 31
0.0
210
0.0
220
0.0
230
1.0
 40
0.7660444838
 41
4.75566893161945
 42
4.77427835622797
  0
ARC
  5
2E6
330
1E8
100
AcDbEntity
  8
DV3_Standard
  6
Continuous
 62
     7
100
AcDbCircle
 10
48.591737214
 20
171.5925512422
 30
0.0
 40
0.2241966424952763
100
AcDbArc
 50
16.9474959039
 51
61.939956264
  0
ARC
  5
2E7
330
1E8
100
AcDbEntity
  8
DV3_Standard
  6
Continuous
 62
     7
100
AcDbCircle
 10
47.4550314972
 20
171.4995024159
 30
0.0
 40
0.2267283628202224
100
AcDbArc
 50
17.8230108854
 51
62.252987151
  0
ELLIPSE
  5
2E8
330
1E8
100
AcDbEntity
  8
DV3_Standard
  6
Continuous
 62
     7
100
AcDbEllipse
 10
56.1606027647
 20
112.3137891168
 30
0.0
 11
-77.8165398073902
 21
3.757941041682145E-6
 31
0.0
210
0.0
220
0.0
230
1.0
 40
0.7660445395
 41
-1.476145488818848
 42
-1.461479466591292
  0
ELLIPSE
  5
2E9
330
1E8
100
AcDbEntity
  8
DV3_Standard
  6
Continuous
 62
     7
100
AcDbEllipse
 10
56.1606006744
 20
113.1851852666
 30
0.0
 11
-77.82064272887196
 21
-9.889351837433225E-8
 31
0.0
210
0.0
220
0.0
230
1.0
 40
0.7660444404
 41
4.796503287925714
 42
4.827079206899263
  0
LINE
  5
2EA
330
1E8
100
AcDbEntity
  8
DV3_Standard
  6
Continuous
 62
     7
100
AcDbLine
 10
49.6224872535
 20
172.5955352091
 30
0.0
 11
49.6224872535
 21
172.5884890484
 31
0.0
  0
ARC
  5
2EB
330
1E8
100
AcDbEntity
  8
DV3_Standard
  6
Continuous
 62
     7
100
AcDbCircle
 10
49.8215974638
 20
172.5655508033
 30
0.0
 40
0.2013552592506974
100
AcDbArc
 50
122.228806664
 51
171.4360642796
  0
ARC
  5
2EC
330
1E8
100
AcDbEntity
  8
DV3_Standard
  6
Continuous
 62
     7
100
AcDbCircle
 10
47.0431920953
 20
172.3421578103
 30
0.0
 40
0.2215823274835641
100
AcDbArc
 50
17.1802019543
 51
62.960698992
  0
LINE
  5
2ED
330
1E8
100
AcDbEntity
  8
DV3_Standard
  6
Continuous
 62
     7
100
AcDbLine
 10
49.6224872535
 20
170.5818132917
 30
0.0
 11
49.6224872535
 21
172.5955352091
 31
0.0
  0
SPLINE
  5
2EE
330
1E8
100
AcDbEntity
  8
DV3_Standard
  6
Continuous
 62
     7
100
AcDbSpline
210
0.0
220
0.0
230
1.0
 70
     8
 71
     3
 72
    17
 73
    13
 74
     0
 42
0.0000001444325318
 43
0.0000000001
 40
0.0
 40
0.0
 40
0.0
 40
0.0
 40
0.0202436400426491
 40
0.0202436400426491
 40
0.0202436400426491
 40
0.2714759776490309
 40
0.2714759776490309
 40
0.2714759776490309
 40
0.8510381851588481
 40
0.8510381851588481
 40
0.8510381851588481
 40
1.0
 40
1.0
 40
1.0
 40
1.0
 10
49.71421437177974
 20
170.5476195707913
 30
0.0
 10
49.71374354824776
 20
170.5479065904661
 30
0.0
 10
49.7132729963591
 20
170.5481911366865
 30
0.0
 10
49.712802751037
 20
170.5484731869761
 30
0.0
 10
49.7069251689344
 20
170.5519985250411
 30
0.0
 10
49.7010824869345
 20
170.5551417498733
 30
0.0
 10
49.69534694002091
 20
170.5578540328769
 30
0.0
 10
49.68225263260116
 20
170.5640462004235
 30
0.0
 10
49.66944624272539
 20
170.568114309717
 30
0.0
 10
49.65814508012079
 20
170.5691226967724
 30
0.0
 10
49.65523202812256
 20
170.5693826243595
 30
0.0
 10
49.65239531713383
 20
170.5694387850919
 30
0.0
 10
49.64967629182011
 20
170.5692667351647
 30
0.0
  0
SPLINE
  5
2EF
330
1E8
100
AcDbEntity
  8
DV3_Standard
  6
Continuous
 62
     7
100
AcDbSpline
210
0.0
220
0.0
230
1.0
 70
     8
 71
     3
 72
    14
 73
    10
 74
     0
 42
0.0000001289737849
 43
0.0000000001
 40
0.0
 40
0.0
 40
0.0
 40
0.0
 40
0.0201239944116052
 40
0.0201239944116052
 40
0.0201239944116052
 40
0.5736877005126874
 40
0.5736877005126874
 40
0.5736877005126874
 40
1.0
 40
1.0
 40
1.0
 40
1.0
 10
47.34012018238563
 20
170.3684511659242
 30
0.0
 10
47.34058787057751
 20
170.3688078738845
 30
0.0
 10
47.34105594145749
 20
170.3691621346354
 30
0.0
 10
47.34152435964238
 20
170.3695139216383
 30
0.0
 10
47.35438392312675
 20
170.3791715895991
 30
0.0
 10
47.36765563157503
 20
170.3870756143263
 30
0.0
 10
47.38053961663987
 20
170.3924926107135
 30
0.0
 10
47.39045096738469
 20
170.3966597803358
 30
0.0
 10
47.40034138707701
 20
170.3994342523533
 30
0.0
 10
47.40955255134981
 20
170.4002174535043
 30
0.0
  0
ARC
  5
2F0
330
1E8
100
AcDbEntity
  8
DV3_Standard
  6
Continuous
 62
     7
100
AcDbCircle
 10
48.5874831328
 20
170.8106722826
 30
0.0
 40
0.2294984025151687
100
AcDbArc
 50
17.777501693
 51
61.4408242758
  0
ARC
  5
2F1
330
1E8
100
AcDbEntity
  8
DV3_Standard
  6
Continuous
 62
     7
100
AcDbCircle
 10
47.2301870852
 20
170.6978729137
 30
0.0
 40
0.2327102372850786
100
AcDbArc
 50
18.8197151514
 51
61.8095829649
  0
ELLIPSE
  5
2F2
330
1E8
100
AcDbEntity
  8
DV3_Standard
  6
Continuous
 62
     7
100
AcDbEllipse
 10
56.1606015244
 20
111.5542364271
 30
0.0
 11
-77.79367988391996
 21
1.469381324947783E-6
 31
0.0
210
0.0
220
0.0
230
0.9999999999999999
 40
0.7660444805
 41
-1.476115375154569
 42
-1.458596359041668
  0
ARC
  5
2F3
330
1E8
100
AcDbEntity
  8
DV3_Standard
  6
Continuous
 62
     7
100
AcDbCircle
 10
55.1049584356
 20
172.8134234774
 30
0.0
 40
0.3629320881380262
100
AcDbArc
 50
1.825082406
 51
24.3483644144
  0
SPLINE
  5
2F4
330
1E8
100
AcDbEntity
  8
DV3_Standard
  6
Continuous
 62
     7
100
AcDbSpline
210
0.0
220
0.0
230
1.0
 70
     8
 71
     3
 72
    14
 73
    10
 74
     0
 42
0.000000002137306
 43
0.0000000001
 40
0.0
 40
0.0
 40
0.0
 40
0.0
 40
0.2044521714285348
 40
0.2044521714285348
 40
0.4696347809523566
 40
0.4696347809523566
 40
0.7348173904761784
 40
0.7348173904761784
 40
0.9999999999999999
 40
0.9999999999999999
 40
0.9999999999999999
 40
0.9999999999999999
 10
57.0736491092005
 20
170.794765838229
 30
0.0
 10
57.40258938135526
 20
170.9053416476413
 30
0.0
 10
57.6857240538741
 20
171.0705503103527
 30
0.0
 10
58.08750350911271
 20
171.5621187245742
 30
0.0
 10
58.1027530146044
 20
171.904605411435
 30
0.0
 10
57.70551256885843
 20
172.474431288188
 30
0.0
 10
57.31799525064162
 20
172.6916380835291
 30
0.0
 10
56.42297862270658
 20
172.9134732322019
 30
0.0
 10
55.92538589772831
 20
172.9209758630988
 30
0.0
 10
55.46770641332956
 20
172.8249822513125
 30
0.0
  0
SPLINE
  5
2F5
330
1E8
100
AcDbEntity
  8
DV3_Standard
  6
Continuous
 62
     7
100
AcDbSpline
210
0.0
220
0.0
230
1.0
 70
     8
 71
     3
 72
    23
 73
    19
 74
     0
 42
0.000000134610944
 43
0.0000000001
 40
0.0
 40
0.0
 40
0.0
 40
0.0
 40
0.0682991088278175
 40
0.0682991088278175
 40
0.0682991088278175
 40
0.1611266184257847
 40
0.1611266184257847
 40
0.1611266184257847
 40
0.3708715742269885
 40
0.3708715742269885
 40
0.3708715742269885
 40
0.5805887538456042
 40
0.5805887538456042
 40
0.5805887538456042
 40
0.7902940074222422
 40
0.7902940074222422
 40
0.7902940074222422
 40
1.0
 40
1.0
 40
1.0
 40
1.0
 10
56.80136502327784
 20
170.7237374933526
 30
0.0
 10
56.80025356441207
 20
170.7260742291147
 30
0.0
 10
56.79913880599896
 20
170.728266340702
 30
0.0
 10
56.79803071642743
 20
170.7302942250428
 30
0.0
 10
56.79650731663791
 20
170.7330821572255
 30
0.0
 10
56.79498914247272
 20
170.7355724290686
 30
0.0
 10
56.79350180335845
 20
170.7377230266835
 30
0.0
 10
56.79017943341942
 20
170.7425269619784
 30
0.0
 10
56.78694725267836
 20
170.7456948110641
 30
0.0
 10
56.78407287347459
 20
170.7469641290711
 30
0.0
 10
56.78119887121372
 20
170.7482332806211
 30
0.0
 10
56.77860333514251
 20
170.7476393778145
 30
0.0
 10
56.77650119830586
 20
170.7452313390776
 30
0.0
 10
56.77439918292914
 20
170.7428234394754
 30
0.0
 10
56.77273255307676
 20
170.7385351930723
 30
0.0
 10
56.77163936179871
 20
170.7327214817269
 30
0.0
 10
56.77054616840178
 20
170.726907759113
 30
0.0
 10
56.76999627191442
 20
170.7194082138197
 30
0.0
 10
56.77003524190916
 20
170.7108438619864
 30
0.0
  0
ARC
  5
2F6
330
1E8
100
AcDbEntity
  8
DV3_Standard
  6
Continuous
 62
     7
100
AcDbCircle
 10
55.3769454891
 20
170.6635045955
 30
0.0
 40
0.7421489073087045
100
AcDbArc
 50
358.574120508
 51
1.3309791964
  0
SPLINE
  5
2F7
330
1E8
100
AcDbEntity
  8
DV3_Standard
  6
Continuous
 62
     7
100
AcDbSpline
210
0.0
220
0.0
230
1.0
 70
     8
 71
     3
 72
    12
 73
     8
 74
     0
 42
0.0000000033727755
 43
0.0000000001
 40
0.0
 40
0.0
 40
0.0
 40
0.0
 40
0.3451012338056633
 40
0.3451012338056633
 40
0.6902024676113265
 40
0.6902024676113265
 40
0.9999999999999999
 40
0.9999999999999999
 40
0.9999999999999999
 40
0.9999999999999999
 10
55.46770641332956
 20
172.8249722538598
 30
0.0
 10
55.06500695175855
 20
172.7351308397315
 30
0.0
 10
54.69740419246729
 20
172.5701873963768
 30
0.0
 10
54.22842394316053
 20
172.1091615786767
 30
0.0
 10
54.1357107399445
 20
171.8160546449793
 30
0.0
 10
54.31081838781009
 20
171.3020056791866
 30
0.0
 10
54.53217417282347
 20
171.0872818926956
 30
0.0
 10
54.82686487767954
 20
170.9324241707305
 30
0.0
  0
ELLIPSE
  5
2F8
330
1E8
100
AcDbEntity
  8
DV3_Standard
  6
Continuous
 62
     7
100
AcDbEllipse
 10
56.1606007282
 20
143.5426303896
 30
0.0
 11
-45.00000000000001
 21
-2.081668171172169E-14
 31
0.0
210
0.0
220
0.0
230
1.0
 40
0.6427876097
 41
4.596137991800878
 42
4.598516718269136
  0
ARC
  5
2F9
330
1E8
100
AcDbEntity
  8
DV3_Standard
  6
Continuous
 62
     7
100
AcDbCircle
 10
-484.4677777498
 20
269.6519474496
 30
0.0
 40
509.6596369459946
100
AcDbArc
 50
346.3083789093
 51
348.1414556637
  0
ARC
  5
2FA
330
1E8
100
AcDbEntity
  8
DV3_Standard
  6
Continuous
 62
     7
100
AcDbCircle
 10
577.0889143382
 20
265.1858693865
 30
0.0
 40
489.4599835762494
100
AcDbArc
 50
191.821293425
 51
193.7302401053
  0
SPLINE
  5
2FB
330
1E8
100
AcDbEntity
  8
DV3_Standard
  6
Continuous
 62
     7
100
AcDbSpline
210
0.0
220
0.0
230
1.0
 70
     8
 71
     3
 72
    72
 73
    68
 74
     0
 42
0.0000000001756669
 43
0.0000000001
 40
0.0
 40
0.0
 40
0.0
 40
0.0
 40
0.004158208570861
 40
0.0187989403205835
 40
0.0320156951023622
 40
0.044663212732435
 40
0.0571286032812401
 40
0.0703862302605654
 40
0.0899556239270505
 40
0.1119529660654537
 40
0.1364484073624688
 40
0.1562796848048094
 40
0.1747652496118453
 40
0.191827615460384
 40
0.2074419905666304
 40
0.2230825875481521
 40
0.2383093717589101
 40
0.255686069074311
 40
0.2753198866637685
 40
0.2904366746244702
 40
0.3036988656072738
 40
0.3152404702930612
 40
0.3254215280898575
 40
0.3347580995227588
 40
0.3438696808362822
 40
0.3533722021599102
 40
0.3637245214869824
 40
0.3850401962428638
 40
0.406512212349716
 40
0.4281405946162851
 40
0.4499213724008193
 40
0.4718510820866608
 40
0.4940437291078227
 40
0.5166867426192071
 40
0.5397756725611298
 40
0.5554191986474567
 40
0.5712536683285873
 40
0.587276691586901
 40
0.6034864837799294
 40
0.6197504778442311
 40
0.6351681071335561
 40
0.6462550782454796
 40
0.6571255834392989
 40
0.667975776882619
 40
0.6790070221336812
 40
0.6943165928404439
 40
0.710536289605889
 40
0.7260171216007886
 40
0.7404072818570511
 40
0.7538603436993445
 40
0.7669328446303884
 40
0.780491568848023
 40
0.7946268839312349
 40
0.8240339266926915
 40
0.854296397699924
 40
0.8690554336067647
 40
0.8834724999133918
 40
0.8975594513278439
 40
0.9106057433162853
 40
0.9217857108191807
 40
0.9312541435819479
 40
0.9407787441518877
 40
0.953139689384837
 40
0.9666629127042551
 40
0.9790169279300728
 40
0.9962942557484916
 40
1.0
 40
1.0
 40
1.0
 40
1.0
 10
73.81938268182951
 20
188.6545878104045
 30
0.0
 10
73.78810507132805
 20
188.7472941685099
 30
0.0
 10
73.66712698919322
 20
189.1051002159872
 30
0.0
 10
73.41499202357735
 20
189.7773834588835
 30
0.0
 10
73.09741056519127
 20
190.5697696644004
 30
0.0
 10
72.78834388909445
 20
191.2963225161454
 30
0.0
 10
72.47919496694541
 20
191.9918141932102
 30
0.0
 10
72.12509481277068
 20
192.7608011393522
 30
0.0
 10
71.71547258088023
 20
193.6217084283882
 30
0.0
 10
71.27741899276123
 20
194.523252183221
 30
0.0
 10
70.90329911515438
 20
195.2934488391808
 30
0.0
 10
70.60918869780171
 20
195.921430815022
 30
0.0
 10
70.3828333639546
 20
196.4251963927981
 30
0.0
 10
70.20321613774762
 20
196.840012303357
 30
0.0
 10
70.06164907610125
 20
197.1782464532444
 30
0.0
 10
69.94119425786933
 20
197.4751521865002
 30
0.0
 10
69.81097588249943
 20
197.8069411324201
 30
0.0
 10
69.67739293153511
 20
198.1593891280349
 30
0.0
 10
69.55520084465071
 20
198.4933225208797
 30
0.0
 10
69.4451123862286
 20
198.8010202567671
 30
0.0
 10
69.31072241826068
 20
199.1658550072845
 30
0.0
 10
69.14357361216405
 20
199.5954455789087
 30
0.0
 10
68.92881814782818
 20
200.1026760073239
 30
0.0
 10
68.65073290427443
 20
200.6918415799497
 30
0.0
 10
68.29435548075537
 20
201.3567068258588
 30
0.0
 10
67.84788839344183
 20
202.08111807808
 30
0.0
 10
67.1310351399366
 20
203.0790839726318
 30
0.0
 10
66.08180968536017
 20
204.2644317420593
 30
0.0
 10
64.62242473649646
 20
205.5145377049829
 30
0.0
 10
62.9953548532797
 20
206.5614410572294
 30
0.0
 10
61.22764009752441
 20
207.3821728615054
 30
0.0
 10
59.34670400245635
 20
207.9535211118999
 30
0.0
 10
57.37956687261907
 20
208.2647069799673
 30
0.0
 10
55.35325465331485
 20
208.2962545449079
 30
0.0
 10
53.53684104472108
 20
208.0594599863689
 30
0.0
 10
51.96278567195765
 20
207.6564923310551
 30
0.0
 10
50.63370312935507
 20
207.171621877806
 30
0.0
 10
49.34560164440528
 20
206.5466915555098
 30
0.0
 10
48.11743101810392
 20
205.7871981571563
 30
0.0
 10
46.98559809810544
 20
204.9175194320147
 30
0.0
 10
46.06811889787639
 20
204.0359990546908
 30
0.0
 10
45.35754557548868
 20
203.2195832644239
 30
0.0
 10
44.80634867745241
 20
202.4893011217295
 30
0.0
 10
44.33165368562563
 20
201.7689404047552
 30
0.0
 10
43.87675464748186
 20
200.9834006460345
 30
0.0
 10
43.45998241795261
 20
200.1500288620079
 30
0.0
 10
43.1057884045167
 20
199.3322904554172
 30
0.0
 10
42.82691863188108
 20
198.6141106436797
 30
0.0
 10
42.62590473723918
 20
198.0581183757529
 30
0.0
 10
42.48948146650361
 20
197.6748520375345
 30
0.0
 10
42.42247642167073
 20
197.4915734968644
 30
0.0
 10
42.33508461767439
 20
197.2580963903984
 30
0.0
 10
42.19717405397559
 20
196.9011045272926
 30
0.0
 10
41.98080176414071
 20
196.3649799978613
 30
0.0
 10
41.69972025370776
 20
195.7101386919712
 30
0.0
 10
41.41490169259573
 20
195.0800052498941
 30
0.0
 10
41.1812447021604
 20
194.575592313954
 30
0.0
 10
40.93454496382835
 20
194.0470718391726
 30
0.0
 10
40.69016793644259
 20
193.5220998246094
 30
0.0
 10
40.46191297905889
 20
193.0266144898298
 30
0.0
 10
40.24309044275505
 20
192.5446855566973
 30
0.0
 10
40.00222686077171
 20
192.0044196992544
 30
0.0
 10
39.72797869006086
 20
191.3722026929748
 30
0.0
 10
39.43199941760141
 20
190.6620888950857
 30
0.0
 10
39.10699102250624
 20
189.8358604277252
 30
0.0
 10
38.84502156408341
 20
189.1347837671432
 30
0.0
 10
38.71330398933663
 20
188.7280332658813
 30
0.0
 10
38.68613431233848
 20
188.6440300207871
 30
0.0
  0
ARC
  5
2FC
330
1E8
100
AcDbEntity
  8
DV3_Standard
  6
Continuous
 62
     7
100
AcDbCircle
 10
67.8570872197
 20
156.1070142695
 30
0.0
 40
31.39820786969426
100
AcDbArc
 50
16.3221319232
 51
73.4626862289
  0
ARC
  5
2FD
330
1E8
100
AcDbEntity
  8
DV3_Standard
  6
Continuous
 62
     7
100
AcDbCircle
 10
44.5581572858
 20
156.0354570214
 30
0.0
 40
31.5147428713612
100
AcDbArc
 50
106.1919192394
 51
163.6443715521
  0
ARC
  5
2FE
330
1E8
100
AcDbEntity
  8
DV3_Standard
  6
Continuous
 62
     7
100
AcDbCircle
 10
34.0979563158
 20
191.3863070874
 30
0.0
 40
5.349831957609045
100
AcDbArc
 50
288.2534912223
 51
329.604584386
  0
ARC
  5
2FF
330
1E8
100
AcDbEntity
  8
DV3_Standard
  6
Continuous
 62
     7
100
AcDbCircle
 10
78.5434073261
 20
191.3981600437
 30
0.0
 40
5.471846036781847
100
AcDbArc
 50
209.8852650746
 51
251.3826437394
  0
ARC
  5
300
330
1E8
100
AcDbEntity
  8
DV3_Standard
  6
Continuous
 62
     7
100
AcDbCircle
 10
56.1606007282
 20
194.514066577
 30
0.0
 40
15.95916657497909
100
AcDbArc
 50
0.0
 51
186.4744096725
  0
ARC
  5
301
330
1E8
100
AcDbEntity
  8
DV3_Standard
  6
Continuous
 62
     7
100
AcDbCircle
 10
56.1606007282
 20
194.514066577
 30
0.0
 40
15.95916657497909
100
AcDbArc
 50
354.5471191827
 51
0.0
  0
ARC
  5
302
330
1E8
100
AcDbEntity
  8
DV3_Standard
  6
Continuous
 62
     7
100
AcDbCircle
 10
56.1606007282
 20
194.514066577
 30
0.0
 40
14.60263739239874
100
AcDbArc
 50
4.9422582146
 51
175.8462476974
  0
LINE
  5
303
330
1E8
100
AcDbEntity
  8
DV3_Standard
  6
Continuous
 62
     7
100
AcDbLine
 10
62.8585921273
 20
171.5976751424
 30
0.0
 11
61.9569335054
 21
171.6532577035
 31
0.0
  0
ARC
  5
304
330
1E8
100
AcDbEntity
  8
DV3_Standard
  6
Continuous
 62
     7
100
AcDbCircle
 10
55.6251274949
 20
76.4465062737
 30
0.0
 40
94.31178887322581
100
AcDbArc
 50
93.6322272092
 51
94.9976210888
  0
ENDBLK
  5
306
330
1E8
100
AcDbEntity
  8
0
100
AcDbBlockEnd
  0
ENDSEC
  0
SECTION
  2
ENTITIES
  0
INSERT
  5
5F
330
1F
100
AcDbEntity
  8
Default
100
AcDbBlockReference
  2
SEANNOT_GROUP
 10
0.0
 20
0.0
 30
0.0
  0
INSERT
  5
66
330
1F
100
AcDbEntity
  8
Default
100
AcDbBlockReference
  2
SEANNOT_GROUP1
 10
0.0
 20
0.0
 30
0.0
  0
INSERT
  5
6C
330
1F
100
AcDbEntity
  8
Default
100
AcDbBlockReference
  2
SEANNOT_GROUP2
 10
0.0
 20
0.0
 30
0.0
  0
INSERT
  5
76
330
1F
100
AcDbEntity
  8
Default
100
AcDbBlockReference
  2
SE
 10
0.0
 20
0.0
 30
0.0
  0
INSERT
  5
107
330
1F
100
AcDbEntity
  8
Default
100
AcDbBlockReference
  2
SE1
 10
0.0
 20
0.0
 30
0.0
  0
INSERT
  5
1E9
330
1F
100
AcDbEntity
  8
Default
100
AcDbBlockReference
  2
SE2
 10
0.0
 20
0.0
 30
0.0
  0
TEXT
  5
308
330
1F
100
AcDbEntity
  8
Default
  6
Continuous
 62
     7
100
AcDbText
 10
5.9362635081
 20
53.4225120485
 30
0.0
 40
10.0
  1
Grohe AG^J
  7
SEACAD_seiso_ttf
 11
5.9362635081
 21
63.4225120485
 31
0.0
100
AcDbText
 73
     3
  0
TEXT
  5
309
330
1F
100
AcDbEntity
  8
Default
  6
Continuous
 62
     7
100
AcDbText
 10
5.9362635081
 20
37.0588756849
 30
0.0
 40
10.0
  1
 
  7
SEACAD_seiso_ttf
 11
5.9362635081
 21
47.0588756849
 31
0.0
100
AcDbText
 73
     3
  0
TEXT
  5
30A
330
1F
100
AcDbEntity
  8
Default
  6
Continuous
 62
     7
100
AcDbText
 10
5.9362635081
 20
20.6952393213
 30
0.0
 40
10.0
  1
ecn: 
  7
SEACAD_seiso_ttf
 11
5.9362635081
 21
30.6952393213
 31
0.0
100
AcDbText
 73
     3
  0
TEXT
  5
30B
330
1F
100
AcDbEntity
  8
Default
  6
Continuous
 62
     7
100
AcDbText
 10
5.9362635081
 20
4.3316029576
 30
0.0
 40
10.0
  1
unit: mm
  7
SEACAD_seiso_ttf
 11
5.9362635081
 21
14.3316029576
 31
0.0
100
AcDbText
 73
     3
  0
LINE
  5
30C
330
1F
100
AcDbEntity
  8
Default
  6
Continuous
 62
     7
100
AcDbLine
 10
0.0
 20
0.0
 30
0.0
 11
100.0
 21
0.0
 31
0.0
  0
LINE
  5
30D
330
1F
100
AcDbEntity
  8
Default
  6
Continuous
 62
     7
100
AcDbLine
 10
0.0
 20
0.0
 30
0.0
 11
0.0
 21
100.0
 31
0.0
  0
TEXT
  5
30E
330
1F
100
AcDbEntity
  8
Default
  6
Continuous
 62
     7
100
AcDbText
 10
24.3923665681
 20
-18.2375342018
 30
0.0
 40
10.0
  1
100 mm
  7
SEACAD_seiso_ttf
 11
24.3923665681
 21
-8.2375342018
 31
0.0
100
AcDbText
 73
     3
  0
TEXT
  5
30F
330
1F
100
AcDbEntity
  8
Default
  6
Continuous
 62
     7
100
AcDbText
 10
-7.6150308803
 20
24.6231930421
 30
0.0
 40
10.0
  1
100 mm
 50
90.0
  7
SEACAD_seiso_ttf
 11
-17.6150308803
 21
24.6231930421
 31
0.0
100
AcDbText
 73
     3
  0
TEXT
  5
310
330
1F
100
AcDbEntity
  8
Default
  6
Continuous
 62
     7
100
AcDbText
 10
28.4878128572
 20
20.0907663715
 30
0.0
 40
10.0
  1
208768
  7
SEACAD_seiso_ttf
 11
28.4878128572
 21
30.0907663715
 31
0.0
100
AcDbText
 73
     3
  0
TEXT
  5
311
330
1F
100
AcDbEntity
  8
Default
  6
Continuous
 62
     7
100
AcDbText
 10
5.9012241913
 20
36.7242780188
 30
0.0
 40
10.0
  1
27125000
  7
SEACAD_seiso_ttf
 11
5.9012241913
 21
46.7242780188
 31
0.0
100
AcDbText
 73
     3
  0
ENDSEC
  0
SECTION
  2
OBJECTS
  0
DICTIONARY
  5
C
330
0
100
AcDbDictionary
281
     1
  3
ACAD_GROUP
350
D
  3
ACAD_LAYOUT
350
1A
  3
ACAD_MLEADERSTYLE
350
315
  3
ACAD_MLINESTYLE
350
17
  3
ACAD_PLOTSETTINGS
350
19
  3
ACAD_PLOTSTYLENAME
350
E
  3
ACAD_SCALELIST
350
3B
  3
ACAD_TABLESTYLE
350
314
  3
ACAD_VISUALSTYLE
350
2A
  3
AcDbVariableDictionary
350
312
  0
DICTIONARY
  5
D
102
{ACAD_REACTORS
330
C
102
}
330
C
100
AcDbDictionary
281
     1
  0
DICTIONARY
  5
1A
102
{ACAD_REACTORS
330
C
102
}
330
C
100
AcDbDictionary
281
     1
  3
Layout1
350
1E
  3
Model
350
22
  0
DICTIONARY
  5
315
102
{ACAD_REACTORS
330
C
102
}
330
C
100
AcDbDictionary
281
     1
  0
DICTIONARY
  5
17
102
{ACAD_REACTORS
330
C
102
}
330
C
100
AcDbDictionary
281
     1
  3
Standard
350
18
  0
DICTIONARY
  5
19
102
{ACAD_REACTORS
330
C
102
}
330
C
100
AcDbDictionary
281
     1
  0
ACDBDICTIONARYWDFLT
  5
E
102
{ACAD_REACTORS
330
C
102
}
330
C
100
AcDbDictionary
281
     1
  3
Normal
350
F
100
AcDbDictionaryWithDefault
340
F
  0
DICTIONARY
  5
3B
102
{ACAD_REACTORS
330
C
102
}
330
C
100
AcDbDictionary
281
     1
  3
A0
350
3C
  3
A1
350
3D
  3
A2
350
3E
  3
A3
350
3F
  3
A4
350
40
  3
A5
350
41
  3
A6
350
42
  3
A7
350
43
  3
A8
350
44
  3
A9
350
45
  3
B0
350
46
  3
B1
350
47
  3
B2
350
48
  3
B3
350
49
  3
B4
350
4A
  3
B5
350
4B
  3
B6
350
4C
  3
B7
350
4D
  3
B8
350
4E
  3
B9
350
4F
  3
C0
350
50
  3
C1
350
51
  3
C2
350
52
  3
C3
350
53
  3
C4
350
54
  3
C5
350
55
  3
C6
350
56
  3
C7
350
57
  3
C8
350
58
  3
C9
350
59
  3
D0
350
5A
  3
D1
350
5B
  3
D2
350
5C
  0
DICTIONARY
  5
314
102
{ACAD_REACTORS
330
C
102
}
330
C
100
AcDbDictionary
281
     1
  0
DICTIONARY
  5
2A
102
{ACAD_REACTORS
330
C
102
}
330
C
100
AcDbDictionary
281
     1
  3
2dWireframe
350
2F
  3
3D Hidden
350
31
  3
3dWireframe
350
30
  3
Basic
350
32
  3
Brighten
350
36
  3
ColorChange
350
3A
  3
Conceptual
350
34
  3
Dim
350
35
  3
Facepattern
350
39
  3
Flat
350
2B
  3
FlatWithEdges
350
2C
  3
Gouraud
350
2D
  3
GouraudWithEdges
350
2E
  3
Linepattern
350
38
  3
Realistic
350
33
  3
Thicken
350
37
  0
DICTIONARY
  5
312
102
{ACAD_REACTORS
330
C
102
}
330
C
100
AcDbDictionary
281
     1
  3
CANNOSCALE
350
313
  3
PSOLHEIGHT
350
317
  3
PSOLWIDTH
350
316
  0
LAYOUT
  5
1E
102
{ACAD_REACTORS
330
1A
102
}
330
1A
100
AcDbPlotSettings
  1

  2
none_device
  4

  6

 40
0.0
 41
0.0
 42
0.0
 43
0.0
 44
0.0
 45
0.0
 46
0.0
 47
0.0
 48
0.0
 49
0.0
140
0.0
141
0.0
142
1.0
143
1.0
 70
   688
 72
     0
 73
     0
 74
     5
  7

 75
    16
147
1.0
148
0.0
149
0.0
100
AcDbLayout
  1
Layout1
 70
     1
 71
     1
 10
0.0
 20
0.0
 11
1682.0
 21
2378.0
 12
0.0
 22
0.0
 32
0.0
 14
0.0
 24
0.0
 34
0.0
 15
1682.0
 25
2378.0
 35
0.0
146
0.0
 13
0.0
 23
0.0
 33
0.0
 16
1.0
 26
0.0
 36
0.0
 17
0.0
 27
1.0
 37
0.0
 76
     0
330
1B
  0
LAYOUT
  5
22
102
{ACAD_REACTORS
330
1A
102
}
330
1A
100
AcDbPlotSettings
  1

  2
none_device
  4

  6

 40
0.0
 41
0.0
 42
0.0
 43
0.0
 44
0.0
 45
0.0
 46
0.0
 47
0.0
 48
0.0
 49
0.0
140
0.0
141
0.0
142
1.0
143
1.0
 70
  1712
 72
     0
 73
     0
 74
     0
  7

 75
     0
147
1.0
148
0.0
149
0.0
100
AcDbLayout
  1
Model
 70
     1
 71
     0
 10
0.0
 20
0.0
 11
1682.0
 21
2378.0
 12
0.0
 22
0.0
 32
0.0
 14
0.0
 24
0.0
 34
0.0
 15
1682.0
 25
2378.0
 35
0.0
146
0.0
 13
0.0
 23
0.0
 33
0.0
 16
1.0
 26
0.0
 36
0.0
 17
0.0
 27
1.0
 37
0.0
 76
     0
330
1F
331
29
  0
MLINESTYLE
  5
18
102
{ACAD_REACTORS
330
17
102
}
330
17
100
AcDbMlineStyle
  2
Standard
 70
     0
  3

 62
   256
 51
90.0
 52
90.0
 71
     2
 49
0.5
 62
   256
  6
BYLAYER
 49
-0.5
 62
   256
  6
BYLAYER
  0
ACDBPLACEHOLDER
  5
F
102
{ACAD_REACTORS
330
E
102
}
330
E
  0
SCALE
  5
3C
102
{ACAD_REACTORS
330
3B
102
}
330
3B
100
AcDbScale
 70
     0
300
1:1
140
1.0
141
1.0
290
     1
  0
SCALE
  5
3D
102
{ACAD_REACTORS
330
3B
102
}
330
3B
100
AcDbScale
 70
     0
300
1:2
140
1.0
141
2.0
290
     0
  0
SCALE
  5
3E
102
{ACAD_REACTORS
330
3B
102
}
330
3B
100
AcDbScale
 70
     0
300
1:4
140
1.0
141
4.0
290
     0
  0
SCALE
  5
3F
102
{ACAD_REACTORS
330
3B
102
}
330
3B
100
AcDbScale
 70
     0
300
1:5
140
1.0
141
5.0
290
     0
  0
SCALE
  5
40
102
{ACAD_REACTORS
330
3B
102
}
330
3B
100
AcDbScale
 70
     0
300
1:8
140
1.0
141
8.0
290
     0
  0
SCALE
  5
41
102
{ACAD_REACTORS
330
3B
102
}
330
3B
100
AcDbScale
 70
     0
300
1:10
140
1.0
141
10.0
290
     0
  0
SCALE
  5
42
102
{ACAD_REACTORS
330
3B
102
}
330
3B
100
AcDbScale
 70
     0
300
1:16
140
1.0
141
16.0
290
     0
  0
SCALE
  5
43
102
{ACAD_REACTORS
330
3B
102
}
330
3B
100
AcDbScale
 70
     0
300
1:20
140
1.0
141
20.0
290
     0
  0
SCALE
  5
44
102
{ACAD_REACTORS
330
3B
102
}
330
3B
100
AcDbScale
 70
     0
300
1:30
140
1.0
141
30.0
290
     0
  0
SCALE
  5
45
102
{ACAD_REACTORS
330
3B
102
}
330
3B
100
AcDbScale
 70
     0
300
1:40
140
1.0
141
40.0
290
     0
  0
SCALE
  5
46
102
{ACAD_REACTORS
330
3B
102
}
330
3B
100
AcDbScale
 70
     0
300
1:50
140
1.0
141
50.0
290
     0
  0
SCALE
  5
47
102
{ACAD_REACTORS
330
3B
102
}
330
3B
100
AcDbScale
 70
     0
300
1:100
140
1.0
141
100.0
290
     0
  0
SCALE
  5
48
102
{ACAD_REACTORS
330
3B
102
}
330
3B
100
AcDbScale
 70
     0
300
2:1
140
2.0
141
1.0
290
     0
  0
SCALE
  5
49
102
{ACAD_REACTORS
330
3B
102
}
330
3B
100
AcDbScale
 70
     0
300
4:1
140
4.0
141
1.0
290
     0
  0
SCALE
  5
4A
102
{ACAD_REACTORS
330
3B
102
}
330
3B
100
AcDbScale
 70
     0
300
8:1
140
8.0
141
1.0
290
     0
  0
SCALE
  5
4B
102
{ACAD_REACTORS
330
3B
102
}
330
3B
100
AcDbScale
 70
     0
300
10:1
140
10.0
141
1.0
290
     0
  0
SCALE
  5
4C
102
{ACAD_REACTORS
330
3B
102
}
330
3B
100
AcDbScale
 70
     0
300
100:1
140
100.0
141
1.0
290
     0
  0
SCALE
  5
4D
102
{ACAD_REACTORS
330
3B
102
}
330
3B
100
AcDbScale
 70
     0
300
1/128" = 1'-0"
140
0.0078125
141
12.0
290
     0
  0
SCALE
  5
4E
102
{ACAD_REACTORS
330
3B
102
}
330
3B
100
AcDbScale
 70
     0
300
1/64" = 1'-0"
140
0.015625
141
12.0
290
     0
  0
SCALE
  5
4F
102
{ACAD_REACTORS
330
3B
102
}
330
3B
100
AcDbScale
 70
     0
300
1/32" = 1'-0"
140
0.03125
141
12.0
290
     0
  0
SCALE
  5
50
102
{ACAD_REACTORS
330
3B
102
}
330
3B
100
AcDbScale
 70
     0
300
1/16" = 1'-0"
140
0.0625
141
12.0
290
     0
  0
SCALE
  5
51
102
{ACAD_REACTORS
330
3B
102
}
330
3B
100
AcDbScale
 70
     0
300
3/32" = 1'-0"
140
0.09375
141
12.0
290
     0
  0
SCALE
  5
52
102
{ACAD_REACTORS
330
3B
102
}
330
3B
100
AcDbScale
 70
     0
300
1/8" = 1'-0"
140
0.125
141
12.0
290
     0
  0
SCALE
  5
53
102
{ACAD_REACTORS
330
3B
102
}
330
3B
100
AcDbScale
 70
     0
300
3/16" = 1'-0"
140
0.1875
141
12.0
290
     0
  0
SCALE
  5
54
102
{ACAD_REACTORS
330
3B
102
}
330
3B
100
AcDbScale
 70
     0
300
1/4" = 1'-0"
140
0.25
141
12.0
290
     0
  0
SCALE
  5
55
102
{ACAD_REACTORS
330
3B
102
}
330
3B
100
AcDbScale
 70
     0
300
3/8" = 1'-0"
140
0.375
141
12.0
290
     0
  0
SCALE
  5
56
102
{ACAD_REACTORS
330
3B
102
}
330
3B
100
AcDbScale
 70
     0
300
1/2" = 1'-0"
140
0.5
141
12.0
290
     0
  0
SCALE
  5
57
102
{ACAD_REACTORS
330
3B
102
}
330
3B
100
AcDbScale
 70
     0
300
3/4" = 1'-0"
140
0.75
141
12.0
290
     0
  0
SCALE
  5
58
102
{ACAD_REACTORS
330
3B
102
}
330
3B
100
AcDbScale
 70
     0
300
1" = 1'-0"
140
1.0
141
12.0
290
     0
  0
SCALE
  5
59
102
{ACAD_REACTORS
330
3B
102
}
330
3B
100
AcDbScale
 70
     0
300
1-1/2" = 1'-0"
140
1.5
141
12.0
290
     0
  0
SCALE
  5
5A
102
{ACAD_REACTORS
330
3B
102
}
330
3B
100
AcDbScale
 70
     0
300
3" = 1'-0"
140
3.0
141
12.0
290
     0
  0
SCALE
  5
5B
102
{ACAD_REACTORS
330
3B
102
}
330
3B
100
AcDbScale
 70
     0
300
6" = 1'-0"
140
6.0
141
12.0
290
     0
  0
SCALE
  5
5C
102
{ACAD_REACTORS
330
3B
102
}
330
3B
100
AcDbScale
 70
     0
300
1'-0" = 1'-0"
140
12.0
141
12.0
290
     0
  0
VISUALSTYLE
  5
2F
102
{ACAD_REACTORS
330
2A
102
}
330
2A
100
AcDbVisualStyle
  2
2dWireframe
 70
     4
 71
     0
 72
     2
 73
     0
 90
        0
 40
-0.6
 41
-30.0
 62
     5
 63
     7
 74
     1
 91
        4
 64
     7
 65
   257
 75
     1
175
     1
 42
1.0
 92
        0
 66
   257
 43
1.0
 76
     1
 77
     6
 78
     2
 67
     7
 79
     5
170
     0
171
     0
290
     0
174
     0
 93
        1
 44
0.0
173
     0
291
     0
 45
0.0
1001
ACAD
1000
AcDbSavedByObjectVersion
1070
     0
  0
VISUALSTYLE
  5
31
102
{ACAD_REACTORS
330
2A
102
}
330
2A
100
AcDbVisualStyle
  2
3D Hidden
 70
     6
 71
     1
 72
     2
 73
     2
 90
        0
 40
-0.6
 41
-30.0
 62
     5
 63
     7
 74
     2
 91
        2
 64
     7
 65
   257
 75
     2
175
     1
 42
40.0
 92
        0
 66
   257
 43
1.0
 76
     1
 77
     6
 78
     2
 67
     7
 79
     3
170
     0
171
     0
290
     0
174
     0
 93
        1
 44
0.0
173
     0
291
     0
 45
0.0
1001
ACAD
1000
AcDbSavedByObjectVersion
1070
     0
  0
VISUALSTYLE
  5
30
102
{ACAD_REACTORS
330
2A
102
}
330
2A
100
AcDbVisualStyle
  2
3dWireframe
 70
     5
 71
     0
 72
     2
 73
     0
 90
        0
 40
-0.6
 41
-30.0
 62
     5
 63
     7
 74
     1
 91
        4
 64
     7
 65
   257
 75
     1
175
     1
 42
1.0
 92
        0
 66
   257
 43
1.0
 76
     1
 77
     6
 78
     2
 67
     7
 79
     5
170
     0
171
     0
290
     0
174
     0
 93
        1
 44
0.0
173
     0
291
     0
 45
0.0
1001
ACAD
1000
AcDbSavedByObjectVersion
1070
     0
  0
VISUALSTYLE
  5
32
102
{ACAD_REACTORS
330
2A
102
}
330
2A
100
AcDbVisualStyle
  2
Basic
 70
     7
 71
     1
 72
     0
 73
     1
 90
        0
 40
-0.6
 41
-30.0
 62
     5
 63
     7
 74
     0
 91
        4
 64
     7
 65
   257
 75
     1
175
     1
 42
1.0
 92
        8
 66
     7
 43
1.0
 76
     1
 77
     6
 78
     2
 67
     7
 79
     5
170
     0
171
     0
290
     0
174
     0
 93
        1
 44
0.0
173
     0
291
     1
 45
0.0
1001
ACAD
1000
AcDbSavedByObjectVersion
1070
     0
  0
VISUALSTYLE
  5
36
102
{ACAD_REACTORS
330
2A
102
}
330
2A
100
AcDbVisualStyle
  2
Brighten
 70
    12
 71
     2
 72
     2
 73
     0
 90
        0
 40
-0.6
 41
-30.0
 62
     5
 63
     7
 74
     1
 91
        4
 64
     7
 65
   257
 75
     1
175
     1
 42
1.0
 92
        8
 66
     7
 43
1.0
 76
     1
 77
     6
 78
     2
 67
     7
 79
     5
170
     0
171
     0
290
     0
174
     0
 93
        1
 44
50.0
173
     0
291
     1
 45
0.0
1001
ACAD
1000
AcDbSavedByObjectVersion
1070
     0
  0
VISUALSTYLE
  5
3A
102
{ACAD_REACTORS
330
2A
102
}
330
2A
100
AcDbVisualStyle
  2
ColorChange
 70
    16
 71
     2
 72
     2
 73
     3
 90
        0
 40
-0.6
 41
-30.0
 62
     5
 63
     8
 74
     1
 91
        4
 64
     7
 65
   257
 75
     1
175
     1
 42
1.0
 92
        8
 66
     8
 43
1.0
 76
     1
 77
     6
 78
     2
 67
     7
 79
     5
170
     0
171
     0
290
     0
174
     0
 93
        1
 44
0.0
173
     0
291
     1
 45
0.0
1001
ACAD
1000
AcDbSavedByObjectVersion
1070
     0
  0
VISUALSTYLE
  5
34
102
{ACAD_REACTORS
330
2A
102
}
330
2A
100
AcDbVisualStyle
  2
Conceptual
 70
     9
 71
     3
 72
     2
 73
     0
 90
        0
 40
-0.6
 41
-30.0
 62
     5
 63
     7
 74
     2
 91
        2
 64
     7
 65
   257
 75
     1
175
     1
 42
40.0
 92
        8
 66
     7
 43
1.0
 76
     1
 77
     6
 78
     2
 67
     7
 79
     3
170
     0
171
     0
290
     0
174
     0
 93
        1
 44
0.0
173
     0
291
     0
 45
0.0
1001
ACAD
1000
AcDbSavedByObjectVersion
1070
     0
  0
VISUALSTYLE
  5
35
102
{ACAD_REACTORS
330
2A
102
}
330
2A
100
AcDbVisualStyle
  2
Dim
 70
    11
 71
     2
 72
     2
 73
     0
 90
        0
 40
-0.6
 41
-30.0
 62
     5
 63
     7
 74
     1
 91
        4
 64
     7
 65
   257
 75
     1
175
     1
 42
1.0
 92
        8
 66
     7
 43
1.0
 76
     1
 77
     6
 78
     2
 67
     7
 79
     5
170
     0
171
     0
290
     0
174
     0
 93
        1
 44
-50.0
173
     0
291
     1
 45
0.0
1001
ACAD
1000
AcDbSavedByObjectVersion
1070
     0
  0
VISUALSTYLE
  5
39
102
{ACAD_REACTORS
330
2A
102
}
330
2A
100
AcDbVisualStyle
  2
Facepattern
 70
    15
 71
     2
 72
     2
 73
     0
 90
        0
 40
-0.6
 41
-30.0
 62
     5
 63
     7
 74
     1
 91
        4
 64
     7
 65
   257
 75
     1
175
     1
 42
1.0
 92
        8
 66
     7
 43
1.0
 76
     1
 77
     6
 78
     2
 67
     7
 79
     5
170
     0
171
     0
290
     0
174
     0
 93
        1
 44
0.0
173
     0
291
     1
 45
0.0
1001
ACAD
1000
AcDbSavedByObjectVersion
1070
     0
  0
VISUALSTYLE
  5
2B
102
{ACAD_REACTORS
330
2A
102
}
330
2A
100
AcDbVisualStyle
  2
Flat
 70
     0
 71
     2
 72
     1
 73
     1
 90
        2
 40
-0.6
 41
30.0
 62
     5
 63
     7
 74
     0
 91
        4
 64
     7
 65
   257
 75
     1
175
     1
 42
1.0
 92
        8
 66
     7
 43
1.0
 76
     1
 77
     6
 78
     2
 67
     7
 79
     5
170
     0
171
     0
290
     0
174
     0
 93
       13
 44
0.0
173
     0
291
     1
 45
0.0
1001
ACAD
1000
AcDbSavedByObjectVersion
1070
     0
  0
VISUALSTYLE
  5
2C
102
{ACAD_REACTORS
330
2A
102
}
330
2A
100
AcDbVisualStyle
  2
FlatWithEdges
 70
     1
 71
     2
 72
     1
 73
     1
 90
        2
 40
-0.6
 41
30.0
 62
     5
 63
     7
 74
     1
 91
        4
 64
     7
 65
   257
 75
     1
175
     1
 42
1.0
 92
        0
 66
   257
 43
1.0
 76
     1
 77
     6
 78
     2
 67
     7
 79
     5
170
     0
171
     0
290
     0
174
     0
 93
       13
 44
0.0
173
     0
291
     1
 45
0.0
1001
ACAD
1000
AcDbSavedByObjectVersion
1070
     0
  0
VISUALSTYLE
  5
2D
102
{ACAD_REACTORS
330
2A
102
}
330
2A
100
AcDbVisualStyle
  2
Gouraud
 70
     2
 71
     2
 72
     2
 73
     1
 90
        2
 40
-0.6
 41
30.0
 62
     5
 63
     7
 74
     0
 91
        4
 64
     7
 65
   257
 75
     1
175
     1
 42
1.0
 92
        0
 66
     7
 43
1.0
 76
     1
 77
     6
 78
     2
 67
     7
 79
     5
170
     0
171
     0
290
     0
174
     0
 93
       13
 44
0.0
173
     0
291
     1
 45
0.0
1001
ACAD
1000
AcDbSavedByObjectVersion
1070
     0
  0
VISUALSTYLE
  5
2E
102
{ACAD_REACTORS
330
2A
102
}
330
2A
100
AcDbVisualStyle
  2
GouraudWithEdges
 70
     3
 71
     2
 72
     2
 73
     1
 90
        2
 40
-0.6
 41
30.0
 62
     5
 63
     7
 74
     1
 91
        4
 64
     7
 65
   257
 75
     1
175
     1
 42
1.0
 92
        0
 66
   257
 43
1.0
 76
     1
 77
     6
 78
     2
 67
     7
 79
     5
170
     0
171
     0
290
     0
174
     0
 93
       13
 44
0.0
173
     0
291
     1
 45
0.0
1001
ACAD
1000
AcDbSavedByObjectVersion
1070
     0
  0
VISUALSTYLE
  5
38
102
{ACAD_REACTORS
330
2A
102
}
330
2A
100
AcDbVisualStyle
  2
Linepattern
 70
    14
 71
     2
 72
     2
 73
     0
 90
        0
 40
-0.6
 41
-30.0
 62
     5
 63
     7
 74
     1
 91
        4
 64
     7
 65
   257
 75
     7
175
     7
 42
1.0
 92
        8
 66
     7
 43
1.0
 76
     1
 77
     6
 78
     2
 67
     7
 79
     5
170
     0
171
     0
290
     0
174
     0
 93
        1
 44
0.0
173
     0
291
     1
 45
0.0
1001
ACAD
1000
AcDbSavedByObjectVersion
1070
     0
  0
VISUALSTYLE
  5
33
102
{ACAD_REACTORS
330
2A
102
}
330
2A
100
AcDbVisualStyle
  2
Realistic
 70
     8
 71
     2
 72
     2
 73
     0
 90
        0
 40
-0.6
 41
-30.0
 62
     5
 63
     7
 74
     1
 91
        0
 64
     7
 65
   257
 75
     1
175
     1
 42
1.0
 92
        8
 66
     8
 43
1.0
 76
     1
 77
     6
 78
     2
 67
     7
 79
     5
170
     0
171
     0
290
     0
174
     0
 93
       13
 44
0.0
173
     0
291
     0
 45
0.0
1001
ACAD
1000
AcDbSavedByObjectVersion
1070
     0
  0
VISUALSTYLE
  5
37
102
{ACAD_REACTORS
330
2A
102
}
330
2A
100
AcDbVisualStyle
  2
Thicken
 70
    13
 71
     2
 72
     2
 73
     0
 90
        0
 40
-0.6
 41
-30.0
 62
     5
 63
     7
 74
     1
 91
        4
 64
     7
 65
   257
 75
     1
175
     1
 42
1.0
 92
       12
 66
     7
 43
1.0
 76
     1
 77
     6
 78
     2
 67
     7
 79
     5
170
     0
171
     0
290
     0
174
     0
 93
        1
 44
0.0
173
     0
291
     1
 45
0.0
1001
ACAD
1000
AcDbSavedByObjectVersion
1070
     0
  0
DICTIONARYVAR
  5
313
102
{ACAD_REACTORS
330
312
102
}
330
312
100
DictionaryVariables
280
     0
  1
1:1
  0
DICTIONARYVAR
  5
317
102
{ACAD_REACTORS
330
312
102
}
330
312
100
DictionaryVariables
280
     0
  1
80.000000
  0
DICTIONARYVAR
  5
316
102
{ACAD_REACTORS
330
312
102
}
330
312
100
DictionaryVariables
280
     0
  1
5.000000
  0
ENDSEC
  0
EOF
