  0
SECTION
  2
HEADER
  9
$ACADVER
  1
AC1009
  9
$DWGCODEPAGE
  3
ansi_1252
  9
$INSBASE
 10
0.0
 20
0.0
 30
0.0
  9
$EXTMIN
 10
1.000000000000000E+20
 20
1.000000000000000E+20
 30
1.000000000000000E+20
  9
$EXTMAX
 10
-1.000000000000000E+20
 20
-1.000000000000000E+20
 30
-1.000000000000000E+20
  9
$LIMMIN
 10
0.0
 20
0.0
  9
$LIMMAX
 10
12.0
 20
9.0
  9
$ORTHOMODE
 70
     0
  9
$REGENMODE
 70
     1
  9
$FILLMODE
 70
     1
  9
$QTEXTMODE
 70
     0
  9
$MIRRTEXT
 70
     1
  9
$DRAGMODE
 70
     2
  9
$LTSCALE
 40
1.0
  9
$OSMODE
 70
    37
  9
$ATTMODE
 70
     1
  9
$TEXTSIZE
 40
0.2
  9
$TRACEWID
 40
0.05
  9
$TEXTSTYLE
  7
STANDARD
  9
$CLAYER
  8
0
  9
$CELTYPE
  6
BYLAYER
  9
$CECOLOR
 62
   256
  9
$DIMSCALE
 40
1.0
  9
$DIMASZ
 40
0.18
  9
$DIMEXO
 40
0.0625
  9
$DIMDLI
 40
0.38
  9
$DIMRND
 40
0.0
  9
$DIMDLE
 40
0.0
  9
$DIMEXE
 40
0.18
  9
$DIMTP
 40
0.0
  9
$DIMTM
 40
0.0
  9
$DIMTXT
 40
0.18
  9
$DIMCEN
 40
0.09
  9
$DIMTSZ
 40
0.0
  9
$DIMTOL
 70
     0
  9
$DIMLIM
 70
     0
  9
$DIMTIH
 70
     1
  9
$DIMTOH
 70
     1
  9
$DIMSE1
 70
     0
  9
$DIMSE2
 70
     0
  9
$DIMTAD
 70
     0
  9
$DIMZIN
 70
     0
  9
$DIMBLK
  1

  9
$DIMASO
 70
     1
  9
$DIMSHO
 70
     1
  9
$DIMPOST
  1

  9
$DIMAPOST
  1

  9
$DIMALT
 70
     0
  9
$DIMALTD
 70
     2
  9
$DIMALTF
 40
25.4
  9
$DIMLFAC
 40
1.0
  9
$DIMTOFL
 70
     0
  9
$DIMTVP
 40
0.0
  9
$DIMTIX
 70
     0
  9
$DIMSOXD
 70
     0
  9
$DIMSAH
 70
     0
  9
$DIMBLK1
  1

  9
$DIMBLK2
  1

  9
$DIMSTYLE
  2
STANDARD
  9
$DIMCLRD
 70
     0
  9
$DIMCLRE
 70
     0
  9
$DIMCLRT
 70
     0
  9
$DIMTFAC
 40
1.0
  9
$DIMGAP
 40
0.09
  9
$LUNITS
 70
     2
  9
$LUPREC
 70
     4
  9
$SKETCHINC
 40
0.1
  9
$FILLETRAD
 40
0.5
  9
$AUNITS
 70
     0
  9
$AUPREC
 70
     0
  9
$MENU
  1
.
  9
$ELEVATION
 40
0.0
  9
$PELEVATION
 40
0.0
  9
$THICKNESS
 40
0.0
  9
$LIMCHECK
 70
     0
  9
$CHAMFERA
 40
0.5
  9
$CHAMFERB
 40
0.5
  9
$SKPOLY
 70
     0
  9
$TDCREATE
 40
2455966.466360301
  9
$TDUPDATE
 40
2455966.466360301
  9
$TDINDWG
 40
0.0000000116
  9
$TDUSRTIMER
 40
0.0000000116
  9
$USRTIMER
 70
     1
  9
$ANGBASE
 50
0.0
  9
$ANGDIR
 70
     0
  9
$PDMODE
 70
     0
  9
$PDSIZE
 40
0.0
  9
$PLINEWID
 40
0.0
  9
$COORDS
 70
     1
  9
$SPLFRAME
 70
     0
  9
$SPLINETYPE
 70
     6
  9
$SPLINESEGS
 70
     8
  9
$ATTDIA
 70
     0
  9
$ATTREQ
 70
     1
  9
$HANDLING
 70
     1
  9
$HANDSEED
  5
AC7
  9
$SURFTAB1
 70
     6
  9
$SURFTAB2
 70
     6
  9
$SURFTYPE
 70
     6
  9
$SURFU
 70
     6
  9
$SURFV
 70
     6
  9
$UCSNAME
  2

  9
$UCSORG
 10
0.0
 20
0.0
 30
0.0
  9
$UCSXDIR
 10
1.0
 20
0.0
 30
0.0
  9
$UCSYDIR
 10
0.0
 20
1.0
 30
0.0
  9
$PUCSNAME
  2

  9
$PUCSORG
 10
0.0
 20
0.0
 30
0.0
  9
$PUCSXDIR
 10
1.0
 20
0.0
 30
0.0
  9
$PUCSYDIR
 10
0.0
 20
1.0
 30
0.0
  9
$USERI1
 70
     0
  9
$USERI2
 70
     0
  9
$USERI3
 70
     0
  9
$USERI4
 70
     0
  9
$USERI5
 70
     0
  9
$USERR1
 40
0.0
  9
$USERR2
 40
0.0
  9
$USERR3
 40
0.0
  9
$USERR4
 40
0.0
  9
$USERR5
 40
0.0
  9
$WORLDVIEW
 70
     1
  9
$SHADEDGE
 70
     3
  9
$SHADEDIF
 70
    70
  9
$TILEMODE
 70
     1
  9
$MAXACTVP
 70
    64
  9
$PLIMCHECK
 70
     0
  9
$PEXTMIN
 10
1.000000000000000E+20
 20
1.000000000000000E+20
 30
1.000000000000000E+20
  9
$PEXTMAX
 10
-1.000000000000000E+20
 20
-1.000000000000000E+20
 30
-1.000000000000000E+20
  9
$PLIMMIN
 10
0.0
 20
0.0
  9
$PLIMMAX
 10
12.0
 20
9.0
  9
$UNITMODE
 70
     0
  9
$VISRETAIN
 70
     1
  9
$PLINEGEN
 70
     0
  9
$PSLTSCALE
 70
     1
  0
ENDSEC
  0
SECTION
  2
TABLES
  0
TABLE
  2
VPORT
 70
     1
  0
VPORT
  2
*ACTIVE
 70
     0
 10
0.0
 20
0.0
 11
1.0
 21
1.0
 12
0.0
 22
0.0
 13
0.0
 23
0.0
 14
0.5
 24
0.5
 15
0.5
 25
0.5
 16
0.2258787006139755
 26
-0.2258786857128143
 36
0.2261769324541092
 17
-0.0102500021457672
 27
0.0374999940395355
 37
-0.0069999992847443
 40
0.142122681835596
 41
1.972972972850329
 42
50.0
 43
0.0
 44
0.0
 50
0.0
 51
0.0
 71
     0
 72
   100
 73
     1
 74
     3
 75
     0
 76
     0
 77
     0
 78
     0
  0
ENDTAB
  0
TABLE
  2
LTYPE
 70
     1
  0
LTYPE
  2
CONTINUOUS
 70
     0
  3
Solid line
 72
    65
 73
     0
 40
0.0
  0
ENDTAB
  0
TABLE
  2
LAYER
 70
     2
  0
LAYER
  2
0
 70
     0
 62
     7
  6
CONTINUOUS
  0
LAYER
  2
LAYER_1
 70
     0
 62
     7
  6
CONTINUOUS
  0
ENDTAB
  0
TABLE
  2
STYLE
 70
     1
  0
STYLE
  2
STANDARD
 70
     0
 40
0.0
 41
1.0
 50
0.0
 71
     0
 42
0.2
  3
txt
  4

  0
ENDTAB
  0
TABLE
  2
VIEW
 70
     0
  0
ENDTAB
  0
TABLE
  2
UCS
 70
     0
  0
ENDTAB
  0
TABLE
  2
APPID
 70
     1
  0
APPID
  2
ACAD
 70
     0
  0
ENDTAB
  0
TABLE
  2
DIMSTYLE
 70
     1
  0
DIMSTYLE
  2
STANDARD
 70
     0
  3

  4

  5

  6

  7

 40
1.0
 41
0.18
 42
0.0625
 43
0.38
 44
0.18
 45
0.0
 46
0.0
 47
0.0
 48
0.0
140
0.18
141
0.09
142
0.0
143
25.4
144
1.0
145
0.0
146
1.0
147
0.09
 71
     0
 72
     0
 73
     1
 74
     1
 75
     0
 76
     0
 77
     0
 78
     0
170
     0
171
     2
172
     0
173
     0
174
     0
175
     0
176
     0
177
     0
178
     0
  0
ENDTAB
  0
ENDSEC
  0
SECTION
  2
BLOCKS
  0
BLOCK
  8
0
  2
$MODEL_SPACE
 70
     0
 10
0.0
 20
0.0
 30
0.0
  3
$MODEL_SPACE
  1

  0
ENDBLK
  5
21
  8
0
  0
BLOCK
 67
     1
  8
0
  2
$PAPER_SPACE
 70
     0
 10
0.0
 20
0.0
 30
0.0
  3
$PAPER_SPACE
  1

  0
ENDBLK
  5
1D
 67
     1
  8
0
  0
BLOCK
  8
0
  2
BUMPERS_Ø_12_X_1_E-0000047
 70
     0
 10
0.0
 20
0.0
 30
0.0
  3
BUMPERS_Ø_12_X_1_E-0000047
  1

  0
POLYLINE
  5
3C
  8
0
 62
     7
 66
     1
 10
0.0
 20
0.0
 30
0.0
 70
    64
 71
    16
 72
    16
  0
VERTEX
  5
3D
  8
0
 10
-0.0295000001788139
 20
0.1005000025033951
 30
0.0010000000474975
 70
   192
  0
VERTEX
  5
3E
  8
0
 10
-0.0312573611736298
 20
0.096257358789444
 30
0.0
 70
   192
  0
VERTEX
  5
3F
  8
0
 10
-0.0295000001788139
 20
0.1005000025033951
 30
0.0
 70
   192
  0
VERTEX
  5
40
  8
0
 10
-0.0355000011622906
 20
0.0944999977946281
 30
0.0010000000474975
 70
   192
  0
VERTEX
  5
41
  8
0
 10
-0.0397426411509514
 20
0.096257358789444
 30
0.0
 70
   192
  0
VERTEX
  5
42
  8
0
 10
-0.0355000011622906
 20
0.0944999977946281
 30
0.0
 70
   192
  0
VERTEX
  5
43
  8
0
 10
-0.0397426411509514
 20
0.096257358789444
 30
0.0010000000474975
 70
   192
  0
VERTEX
  5
44
  8
0
 10
-0.0414999984204769
 20
0.1005000025033951
 30
0.0
 70
   192
  0
VERTEX
  5
45
  8
0
 10
-0.0414999984204769
 20
0.1005000025033951
 30
0.0010000000474975
 70
   192
  0
VERTEX
  5
46
  8
0
 10
-0.0397426411509514
 20
0.1047426387667656
 30
0.0
 70
   192
  0
VERTEX
  5
47
  8
0
 10
-0.0397426411509514
 20
0.1047426387667656
 30
0.0010000000474975
 70
   192
  0
VERTEX
  5
48
  8
0
 10
-0.0355000011622906
 20
0.1064999997615814
 30
0.0
 70
   192
  0
VERTEX
  5
49
  8
0
 10
-0.0355000011622906
 20
0.1064999997615814
 30
0.0010000000474975
 70
   192
  0
VERTEX
  5
4A
  8
0
 10
-0.0312573611736298
 20
0.1047426387667656
 30
0.0010000000474975
 70
   192
  0
VERTEX
  5
4B
  8
0
 10
-0.0312573611736298
 20
0.1047426387667656
 30
0.0
 70
   192
  0
VERTEX
  5
4C
  8
0
 10
-0.0312573611736298
 20
0.096257358789444
 30
0.0010000000474975
 70
   192
  0
VERTEX
  5
4D
  8
0
 62
     7
 10
0.0
 20
0.0
 30
0.0
 70
   128
 71
     3
 72
     2
 73
     1
  0
VERTEX
  5
4E
  8
0
 62
     7
 10
0.0
 20
0.0
 30
0.0
 70
   128
 71
     6
 72
     5
 73
     4
  0
VERTEX
  5
4F
  8
0
 62
     7
 10
0.0
 20
0.0
 30
0.0
 70
   128
 71
     4
 72
     5
 73
     7
  0
VERTEX
  5
50
  8
0
 62
     7
 10
0.0
 20
0.0
 30
0.0
 70
   128
 71
     5
 72
     8
 73
     7
  0
VERTEX
  5
51
  8
0
 62
     7
 10
0.0
 20
0.0
 30
0.0
 70
   128
 71
     7
 72
     8
 73
     9
  0
VERTEX
  5
52
  8
0
 62
     7
 10
0.0
 20
0.0
 30
0.0
 70
   128
 71
     8
 72
    10
 73
     9
  0
VERTEX
  5
53
  8
0
 62
     7
 10
0.0
 20
0.0
 30
0.0
 70
   128
 71
     9
 72
    10
 73
    11
  0
VERTEX
  5
54
  8
0
 62
     7
 10
0.0
 20
0.0
 30
0.0
 70
   128
 71
    10
 72
    12
 73
    11
  0
VERTEX
  5
55
  8
0
 62
     7
 10
0.0
 20
0.0
 30
0.0
 70
   128
 71
    11
 72
    12
 73
    13
  0
VERTEX
  5
56
  8
0
 62
     7
 10
0.0
 20
0.0
 30
0.0
 70
   128
 71
    13
 72
    12
 73
    14
  0
VERTEX
  5
57
  8
0
 62
     7
 10
0.0
 20
0.0
 30
0.0
 70
   128
 71
    12
 72
    15
 73
    14
  0
VERTEX
  5
58
  8
0
 62
     7
 10
0.0
 20
0.0
 30
0.0
 70
   128
 71
    14
 72
    15
 73
     1
  0
VERTEX
  5
59
  8
0
 62
     7
 10
0.0
 20
0.0
 30
0.0
 70
   128
 71
    15
 72
     3
 73
     1
  0
VERTEX
  5
5A
  8
0
 62
     7
 10
0.0
 20
0.0
 30
0.0
 70
   128
 71
     4
 72
    16
 73
     6
  0
VERTEX
  5
5B
  8
0
 62
     7
 10
0.0
 20
0.0
 30
0.0
 70
   128
 71
     6
 72
    16
 73
     2
  0
VERTEX
  5
5C
  8
0
 62
     7
 10
0.0
 20
0.0
 30
0.0
 70
   128
 71
    16
 72
     1
 73
     2
  0
SEQEND
  5
5D
  8
0
 62
     7
  0
ENDBLK
  5
61
  8
0
  0
BLOCK
  8
0
  2
BUMPERS_Ø_12_X_1_E-0000040
 70
     0
 10
0.0
 20
0.0
 30
0.0
  3
BUMPERS_Ø_12_X_1_E-0000040
  1

  0
POLYLINE
  5
63
  8
0
 62
     7
 66
     1
 10
0.0
 20
0.0
 30
0.0
 70
    64
 71
    16
 72
    16
  0
VERTEX
  5
64
  8
0
 10
0.0274999998509884
 20
0.0384999997913837
 30
0.0010000000474975
 70
   192
  0
VERTEX
  5
65
  8
0
 10
0.0232573598623276
 20
0.0402573607861996
 30
0.0
 70
   192
  0
VERTEX
  5
66
  8
0
 10
0.0274999998509884
 20
0.0384999997913837
 30
0.0
 70
   192
  0
VERTEX
  5
67
  8
0
 10
0.0317426398396492
 20
0.0402573607861996
 30
0.0
 70
   192
  0
VERTEX
  5
68
  8
0
 10
0.0317426398396492
 20
0.0402573607861996
 30
0.0010000000474975
 70
   192
  0
VERTEX
  5
69
  8
0
 10
0.033500000834465
 20
0.0445000007748604
 30
0.0010000000474975
 70
   192
  0
VERTEX
  5
6A
  8
0
 10
0.033500000834465
 20
0.0445000007748604
 30
0.0
 70
   192
  0
VERTEX
  5
6B
  8
0
 10
0.0317426398396492
 20
0.0487426407635212
 30
0.0
 70
   192
  0
VERTEX
  5
6C
  8
0
 10
0.0317426398396492
 20
0.0487426407635212
 30
0.0010000000474975
 70
   192
  0
VERTEX
  5
6D
  8
0
 10
0.0274999998509884
 20
0.050500001758337
 30
0.0010000000474975
 70
   192
  0
VERTEX
  5
6E
  8
0
 10
0.0274999998509884
 20
0.050500001758337
 30
0.0
 70
   192
  0
VERTEX
  5
6F
  8
0
 10
0.0232573598623276
 20
0.0487426407635212
 30
0.0010000000474975
 70
   192
  0
VERTEX
  5
70
  8
0
 10
0.0232573598623276
 20
0.0487426407635212
 30
0.0
 70
   192
  0
VERTEX
  5
71
  8
0
 10
0.0215000007301569
 20
0.0445000007748604
 30
0.0010000000474975
 70
   192
  0
VERTEX
  5
72
  8
0
 10
0.0215000007301569
 20
0.0445000007748604
 30
0.0
 70
   192
  0
VERTEX
  5
73
  8
0
 10
0.0232573598623276
 20
0.0402573607861996
 30
0.0010000000474975
 70
   192
  0
VERTEX
  5
74
  8
0
 62
     7
 10
0.0
 20
0.0
 30
0.0
 70
   128
 71
     3
 72
     2
 73
     1
  0
VERTEX
  5
75
  8
0
 62
     7
 10
0.0
 20
0.0
 30
0.0
 70
   128
 71
     3
 72
     1
 73
     4
  0
VERTEX
  5
76
  8
0
 62
     7
 10
0.0
 20
0.0
 30
0.0
 70
   128
 71
     1
 72
     5
 73
     4
  0
VERTEX
  5
77
  8
0
 62
     7
 10
0.0
 20
0.0
 30
0.0
 70
   128
 71
     5
 72
     6
 73
     4
  0
VERTEX
  5
78
  8
0
 62
     7
 10
0.0
 20
0.0
 30
0.0
 70
   128
 71
     4
 72
     6
 73
     7
  0
VERTEX
  5
79
  8
0
 62
     7
 10
0.0
 20
0.0
 30
0.0
 70
   128
 71
     7
 72
     6
 73
     8
  0
VERTEX
  5
7A
  8
0
 62
     7
 10
0.0
 20
0.0
 30
0.0
 70
   128
 71
     6
 72
     9
 73
     8
  0
VERTEX
  5
7B
  8
0
 62
     7
 10
0.0
 20
0.0
 30
0.0
 70
   128
 71
     9
 72
    10
 73
     8
  0
VERTEX
  5
7C
  8
0
 62
     7
 10
0.0
 20
0.0
 30
0.0
 70
   128
 71
     8
 72
    10
 73
    11
  0
VERTEX
  5
7D
  8
0
 62
     7
 10
0.0
 20
0.0
 30
0.0
 70
   128
 71
    10
 72
    12
 73
    11
  0
VERTEX
  5
7E
  8
0
 62
     7
 10
0.0
 20
0.0
 30
0.0
 70
   128
 71
    11
 72
    12
 73
    13
  0
VERTEX
  5
7F
  8
0
 62
     7
 10
0.0
 20
0.0
 30
0.0
 70
   128
 71
    12
 72
    14
 73
    13
  0
VERTEX
  5
80
  8
0
 62
     7
 10
0.0
 20
0.0
 30
0.0
 70
   128
 71
    13
 72
    14
 73
    15
  0
VERTEX
  5
81
  8
0
 62
     7
 10
0.0
 20
0.0
 30
0.0
 70
   128
 71
    15
 72
    14
 73
     2
  0
VERTEX
  5
82
  8
0
 62
     7
 10
0.0
 20
0.0
 30
0.0
 70
   128
 71
    14
 72
    16
 73
     2
  0
VERTEX
  5
83
  8
0
 62
     7
 10
0.0
 20
0.0
 30
0.0
 70
   128
 71
    16
 72
     1
 73
     2
  0
SEQEND
  5
84
  8
0
 62
     7
  0
ENDBLK
  5
87
  8
0
  0
BLOCK
  8
0
  2
BUMPERS_Ø_12_X_1_E-0000041
 70
     0
 10
0.0
 20
0.0
 30
0.0
  3
BUMPERS_Ø_12_X_1_E-0000041
  1

  0
POLYLINE
  5
89
  8
0
 62
     7
 66
     1
 10
0.0
 20
0.0
 30
0.0
 70
    64
 71
    16
 72
    22
  0
VERTEX
  5
8A
  8
0
 10
-0.0395000018179417
 20
-0.0315000005066395
 30
0.0
 70
   192
  0
VERTEX
  5
8B
  8
0
 10
-0.0352573581039906
 20
-0.0297426413744688
 30
0.0010000000474975
 70
   192
  0
VERTEX
  5
8C
  8
0
 10
-0.0395000018179417
 20
-0.0315000005066395
 30
0.0010000000474975
 70
   192
  0
VERTEX
  5
8D
  8
0
 10
-0.0437426418066025
 20
-0.0297426413744688
 30
0.0
 70
   192
  0
VERTEX
  5
8E
  8
0
 10
-0.0437426418066025
 20
-0.0297426413744688
 30
0.0010000000474975
 70
   192
  0
VERTEX
  5
8F
  8
0
 10
-0.045499999076128
 20
-0.0254999995231628
 30
0.0
 70
   192
  0
VERTEX
  5
90
  8
0
 10
-0.045499999076128
 20
-0.0254999995231628
 30
0.0010000000474975
 70
   192
  0
VERTEX
  5
91
  8
0
 10
-0.0437426418066025
 20
-0.021257359534502
 30
0.0
 70
   192
  0
VERTEX
  5
92
  8
0
 10
-0.0437426418066025
 20
-0.021257359534502
 30
0.0010000000474975
 70
   192
  0
VERTEX
  5
93
  8
0
 10
-0.0395000018179417
 20
-0.0195000004023314
 30
0.0010000000474975
 70
   192
  0
VERTEX
  5
94
  8
0
 10
-0.0395000018179417
 20
-0.0195000004023314
 30
0.0
 70
   192
  0
VERTEX
  5
95
  8
0
 10
-0.0352573581039906
 20
-0.021257359534502
 30
0.0
 70
   192
  0
VERTEX
  5
96
  8
0
 10
-0.0352573581039906
 20
-0.021257359534502
 30
0.0010000000474975
 70
   192
  0
VERTEX
  5
97
  8
0
 10
-0.033500000834465
 20
-0.0254999995231628
 30
0.0
 70
   192
  0
VERTEX
  5
98
  8
0
 10
-0.033500000834465
 20
-0.0254999995231628
 30
0.0010000000474975
 70
   192
  0
VERTEX
  5
99
  8
0
 10
-0.0352573581039906
 20
-0.0297426413744688
 30
0.0
 70
   192
  0
VERTEX
  5
9A
  8
0
 62
     7
 10
0.0
 20
0.0
 30
0.0
 70
   128
 71
     3
 72
     2
 73
     1
  0
VERTEX
  5
9B
  8
0
 62
     7
 10
0.0
 20
0.0
 30
0.0
 70
   128
 71
     1
 72
     4
 73
     3
  0
VERTEX
  5
9C
  8
0
 62
     7
 10
0.0
 20
0.0
 30
0.0
 70
   128
 71
     3
 72
     4
 73
     5
  0
VERTEX
  5
9D
  8
0
 62
     7
 10
0.0
 20
0.0
 30
0.0
 70
   128
 71
     4
 72
     6
 73
     5
  0
VERTEX
  5
9E
  8
0
 62
     7
 10
0.0
 20
0.0
 30
0.0
 70
   128
 71
     5
 72
     6
 73
     7
  0
VERTEX
  5
9F
  8
0
 62
     7
 10
0.0
 20
0.0
 30
0.0
 70
   128
 71
     6
 72
     8
 73
     7
  0
VERTEX
  5
A0
  8
0
 62
     7
 10
0.0
 20
0.0
 30
0.0
 70
   128
 71
     7
 72
     8
 73
     9
  0
VERTEX
  5
A1
  8
0
 62
     7
 10
0.0
 20
0.0
 30
0.0
 70
   128
 71
     9
 72
     8
 73
    10
  0
VERTEX
  5
A2
  8
0
 62
     7
 10
0.0
 20
0.0
 30
0.0
 70
   128
 71
     8
 72
    11
 73
    10
  0
VERTEX
  5
A3
  8
0
 62
     7
 10
0.0
 20
0.0
 30
0.0
 70
   128
 71
    11
 72
    12
 73
    10
  0
VERTEX
  5
A4
  8
0
 62
     7
 10
0.0
 20
0.0
 30
0.0
 70
   128
 71
    10
 72
    12
 73
    13
  0
VERTEX
  5
A5
  8
0
 62
     7
 10
0.0
 20
0.0
 30
0.0
 70
   128
 71
    12
 72
    14
 73
    13
  0
VERTEX
  5
A6
  8
0
 62
     7
 10
0.0
 20
0.0
 30
0.0
 70
   128
 71
    13
 72
    14
 73
    15
  0
VERTEX
  5
A7
  8
0
 62
     7
 10
0.0
 20
0.0
 30
0.0
 70
   128
 71
    14
 72
    16
 73
    15
  0
VERTEX
  5
A8
  8
0
 62
     7
 10
0.0
 20
0.0
 30
0.0
 70
   128
 71
    15
 72
    16
 73
     2
  0
VERTEX
  5
A9
  8
0
 62
     7
 10
0.0
 20
0.0
 30
0.0
 70
   128
 71
    16
 72
     1
 73
     2
  0
VERTEX
  5
AA
  8
0
 62
     7
 10
0.0
 20
0.0
 30
0.0
 70
   128
 71
     3
 72
     5
 73
     2
  0
VERTEX
  5
AB
  8
0
 62
     7
 10
0.0
 20
0.0
 30
0.0
 70
   128
 71
     9
 72
    10
 73
     7
  0
VERTEX
  5
AC
  8
0
 62
     7
 10
0.0
 20
0.0
 30
0.0
 70
   128
 71
    10
 72
    13
 73
     7
  0
VERTEX
  5
AD
  8
0
 62
     7
 10
0.0
 20
0.0
 30
0.0
 70
   128
 71
    13
 72
    15
 73
     7
  0
VERTEX
  5
AE
  8
0
 62
     7
 10
0.0
 20
0.0
 30
0.0
 70
   128
 71
    15
 72
     2
 73
     7
  0
VERTEX
  5
AF
  8
0
 62
     7
 10
0.0
 20
0.0
 30
0.0
 70
   128
 71
     7
 72
     2
 73
     5
  0
SEQEND
  5
B0
  8
0
 62
     7
  0
ENDBLK
  5
B3
  8
0
  0
BLOCK
  8
0
  2
GLASSCHUTZRING_E-000004863
 70
     0
 10
0.0
 20
0.0
 30
0.0
  3
GLASSCHUTZRING_E-000004863
  1

  0
POLYLINE
  5
B5
  8
0
 66
     1
 10
0.0
 20
0.0
 30
0.0
 70
    64
 71
   295
 72
   555
  0
VERTEX
  5
B6
  8
0
 10
0.0339124985039234
 20
-0.0084922984242439
 30
-0.0117871863767505
 70
   192
  0
VERTEX
  5
B7
  8
0
 10
0.0342689156532288
 20
0.0084922984242439
 30
-0.0119366645812988
 70
   192
  0
VERTEX
  5
B8
  8
0
 10
0.0342689156532288
 20
-0.0084922984242439
 30
-0.0119366645812988
 70
   192
  0
VERTEX
  5
B9
  8
0
 10
0.0342811048030853
 20
-0.0084922984242439
 30
-0.0119365192949772
 70
   192
  0
VERTEX
  5
BA
  8
0
 10
0.0342811048030853
 20
0.0084922984242439
 30
-0.0119365192949772
 70
   192
  0
VERTEX
  5
BB
  8
0
 10
0.0339124985039234
 20
0.0084922984242439
 30
-0.0117871863767505
 70
   192
  0
VERTEX
  5
BC
  8
0
 10
0.0337709598243237
 20
-0.0084922984242439
 30
-0.0114802429452538
 70
   192
  0
VERTEX
  5
BD
  8
0
 10
0.0337709598243237
 20
0.0084922984242439
 30
-0.0114802429452538
 70
   192
  0
VERTEX
  5
BE
  8
0
 10
0.0342451632022858
 20
0.008757758885622
 30
-0.0119373854249716
 70
   192
  0
VERTEX
  5
BF
  8
0
 10
0.0339125357568264
 20
0.0086668478325009
 30
-0.0118103073909879
 70
   192
  0
VERTEX
  5
C0
  8
0
 10
0.0337530933320522
 20
0.0086250491440296
 30
-0.0114818485453725
 70
   192
  0
VERTEX
  5
C1
  8
0
 10
0.0335672199726105
 20
-0.0088941818103194
 30
-0.0114793321117759
 70
   192
  0
VERTEX
  5
C2
  8
0
 10
0.0336744450032711
 20
-0.0090114502236247
 30
-0.0118120312690735
 70
   192
  0
VERTEX
  5
C3
  8
0
 10
0.0332769602537155
 20
-0.0091372793540359
 30
-0.0118137095123529
 70
   192
  0
VERTEX
  5
C4
  8
0
 10
0.0332686640322208
 20
-0.0089914249256253
 30
-0.0114694992080331
 70
   192
  0
VERTEX
  5
C5
  8
0
 10
0.0339125357568264
 20
-0.0086668478325009
 30
-0.0118103073909879
 70
   192
  0
VERTEX
  5
C6
  8
0
 10
0.0337530933320522
 20
-0.0086250491440296
 30
-0.0114818485453725
 70
   192
  0
VERTEX
  5
C7
  8
0
 10
0.0338746421039104
 20
-0.0092962682247162
 30
-0.0119463140144944
 70
   192
  0
VERTEX
  5
C8
  8
0
 10
0.0342451632022858
 20
-0.008757758885622
 30
-0.0119373854249716
 70
   192
  0
VERTEX
  5
C9
  8
0
 10
0.0332804992794991
 20
-0.0094913486391306
 30
-0.0119606303051114
 70
   192
  0
VERTEX
  5
CA
  8
0
 10
0.0332804992794991
 20
0.0094913486391306
 30
-0.0119606303051114
 70
   192
  0
VERTEX
  5
CB
  8
0
 10
0.031171478331089
 20
0.0091372793540359
 30
-0.0118644442409277
 70
   192
  0
VERTEX
  5
CC
  8
0
 10
0.0311750192195177
 20
0.0094913486391306
 30
-0.0120113650336862
 70
   192
  0
VERTEX
  5
CD
  8
0
 10
0.0311631858348846
 20
0.0089914249256253
 30
-0.0115202339366078
 70
   192
  0
VERTEX
  5
CE
  8
0
 10
0.0332769602537155
 20
0.0091372793540359
 30
-0.0118137095123529
 70
   192
  0
VERTEX
  5
CF
  8
0
 10
0.0332686640322208
 20
0.0089914249256253
 30
-0.0114694992080331
 70
   192
  0
VERTEX
  5
D0
  8
0
 10
0.0311750192195177
 20
-0.0094913486391306
 30
-0.0120113650336862
 70
   192
  0
VERTEX
  5
D1
  8
0
 10
0.0311631858348846
 20
-0.0089914249256253
 30
-0.0115202339366078
 70
   192
  0
VERTEX
  5
D2
  8
0
 10
0.031171478331089
 20
-0.0091372793540359
 30
-0.0118644442409277
 70
   192
  0
VERTEX
  5
D3
  8
0
 10
0.0307053811848164
 20
0.008954169228673
 30
-0.0118839787319303
 70
   192
  0
VERTEX
  5
D4
  8
0
 10
0.0308049451559782
 20
0.0088459393009543
 30
-0.0115655669942498
 70
   192
  0
VERTEX
  5
D5
  8
0
 10
0.0305141601711512
 20
0.0084931356832385
 30
-0.011887626722455
 70
   192
  0
VERTEX
  5
D6
  8
0
 10
0.0306570827960968
 20
0.0084931356832385
 30
-0.011579280719161
 70
   192
  0
VERTEX
  5
D7
  8
0
 10
0.0304649733006954
 20
0.009199095889926
 30
-0.0120284743607044
 70
   192
  0
VERTEX
  5
D8
  8
0
 10
0.0301710292696953
 20
0.0084931356832385
 30
-0.0120355570688844
 70
   192
  0
VERTEX
  5
D9
  8
0
 10
0.0301774498075247
 20
-0.0086059393361211
 30
-0.012035402469337
 70
   192
  0
VERTEX
  5
DA
  8
0
 10
0.0304473657160997
 20
-0.0088632265105844
 30
-0.0119924554601312
 70
   192
  0
VERTEX
  5
DB
  8
0
 10
0.0305894874036312
 20
-0.0093041956424713
 30
-0.0120254745706916
 70
   192
  0
VERTEX
  5
DC
  8
0
 10
0.0308049451559782
 20
-0.0088459393009543
 30
-0.0115655669942498
 70
   192
  0
VERTEX
  5
DD
  8
0
 10
0.0305141601711512
 20
-0.0084931356832385
 30
-0.011887626722455
 70
   192
  0
VERTEX
  5
DE
  8
0
 10
0.0306570827960968
 20
-0.0084931356832385
 30
-0.011579280719161
 70
   192
  0
VERTEX
  5
DF
  8
0
 10
0.0301710292696953
 20
-0.0084931356832385
 30
-0.0120355570688844
 70
   192
  0
VERTEX
  5
E0
  8
0
 10
0.0307053625583649
 20
-0.0089541524648666
 30
-0.0118839805945754
 70
   192
  0
VERTEX
  5
E1
  8
0
 10
-0.0304676741361618
 20
-0.0084922984242439
 30
-0.013338515534997
 70
   192
  0
VERTEX
  5
E2
  8
0
 10
-0.0301112588495016
 20
0.0084922984242439
 30
-0.0134879937395453
 70
   192
  0
VERTEX
  5
E3
  8
0
 10
-0.0301112588495016
 20
-0.0084922984242439
 30
-0.0134879937395453
 70
   192
  0
VERTEX
  5
E4
  8
0
 10
-0.030099069699645
 20
-0.0084922984242439
 30
-0.0134878493845463
 70
   192
  0
VERTEX
  5
E5
  8
0
 10
-0.030099069699645
 20
0.0084922984242439
 30
-0.0134878493845463
 70
   192
  0
VERTEX
  5
E6
  8
0
 10
-0.0304676741361618
 20
0.0084922984242439
 30
-0.013338515534997
 70
   192
  0
VERTEX
  5
E7
  8
0
 10
-0.0306092109531164
 20
-0.0084922984242439
 30
-0.0130315721035004
 70
   192
  0
VERTEX
  5
E8
  8
0
 10
-0.0306092109531164
 20
0.0084922984242439
 30
-0.0130315721035004
 70
   192
  0
VERTEX
  5
E9
  8
0
 10
-0.0301350075751543
 20
0.008757758885622
 30
-0.0134887155145407
 70
   192
  0
VERTEX
  5
EA
  8
0
 10
-0.0304676350206137
 20
0.0086668478325009
 30
-0.0133616365492344
 70
   192
  0
VERTEX
  5
EB
  8
0
 10
-0.0306270774453878
 20
0.0086250491440296
 30
-0.013033177703619
 70
   192
  0
VERTEX
  5
EC
  8
0
 10
-0.0308129508048296
 20
-0.0088941818103194
 30
-0.0130306612700224
 70
   192
  0
VERTEX
  5
ED
  8
0
 10
-0.0307057276368141
 20
-0.0090114502236247
 30
-0.01336336042732
 70
   192
  0
VERTEX
  5
EE
  8
0
 10
-0.0311032142490149
 20
-0.0091372793540359
 30
-0.013365039601922
 70
   192
  0
VERTEX
  5
EF
  8
0
 10
-0.0311115086078644
 20
-0.0089914249256253
 30
-0.0130208283662796
 70
   192
  0
VERTEX
  5
F0
  8
0
 10
-0.0304676350206137
 20
-0.0086668478325009
 30
-0.0133616365492344
 70
   192
  0
VERTEX
  5
F1
  8
0
 10
-0.0306270774453878
 20
-0.0086250491440296
 30
-0.013033177703619
 70
   192
  0
VERTEX
  5
F2
  8
0
 10
-0.0305055323988199
 20
-0.0092962682247162
 30
-0.0134976431727409
 70
   192
  0
VERTEX
  5
F3
  8
0
 10
-0.0301350075751543
 20
-0.008757758885622
 30
-0.0134887155145407
 70
   192
  0
VERTEX
  5
F4
  8
0
 10
-0.0310996733605862
 20
-0.0094913486391306
 30
-0.0135119603946805
 70
   192
  0
VERTEX
  5
F5
  8
0
 10
-0.0310996733605862
 20
0.0094913486391306
 30
-0.0135119603946805
 70
   192
  0
VERTEX
  5
F6
  8
0
 10
-0.0331999585032463
 20
0.0091372793540359
 30
-0.0134155629202724
 70
   192
  0
VERTEX
  5
F7
  8
0
 10
-0.0331964194774628
 20
0.0094913486391306
 30
-0.0135624837130308
 70
   192
  0
VERTEX
  5
F8
  8
0
 10
-0.0311115086078644
 20
0.0089914249256253
 30
-0.0130208283662796
 70
   192
  0
VERTEX
  5
F9
  8
0
 10
-0.033208254724741
 20
0.0089914249256253
 30
-0.0130713526159525
 70
   192
  0
VERTEX
  5
FA
  8
0
 10
-0.0311032142490149
 20
0.0091372793540359
 30
-0.013365039601922
 70
   192
  0
VERTEX
  5
FB
  8
0
 10
-0.0331999585032463
 20
-0.0091372793540359
 30
-0.0134155629202724
 70
   192
  0
VERTEX
  5
FC
  8
0
 10
-0.033208254724741
 20
-0.0089914249256253
 30
-0.0130713526159525
 70
   192
  0
VERTEX
  5
FD
  8
0
 10
-0.0331964194774628
 20
-0.0094913486391306
 30
-0.0135624837130308
 70
   192
  0
VERTEX
  5
FE
  8
0
 10
-0.0336660593748093
 20
0.008954169228673
 30
-0.0134350983425975
 70
   192
  0
VERTEX
  5
FF
  8
0
 10
-0.0335664935410023
 20
0.0088459393009543
 30
-0.0131166856735945
 70
   192
  0
VERTEX
  5
100
  8
0
 10
-0.0338572785258293
 20
0.0084931356832385
 30
-0.0134387454017997
 70
   192
  0
VERTEX
  5
101
  8
0
 10
-0.0337143577635288
 20
0.0084931356832385
 30
-0.0131303993985057
 70
   192
  0
VERTEX
  5
102
  8
0
 10
-0.0339064635336399
 20
0.009199095889926
 30
-0.0135795939713717
 70
   192
  0
VERTEX
  5
103
  8
0
 10
-0.03420040756464
 20
0.0084931356832385
 30
-0.0135866766795516
 70
   192
  0
VERTEX
  5
104
  8
0
 10
-0.0341939888894558
 20
-0.0086059393361211
 30
-0.0135865220800042
 70
   192
  0
VERTEX
  5
105
  8
0
 10
-0.0339240729808807
 20
-0.0088632265105844
 30
-0.0135435741394758
 70
   192
  0
VERTEX
  5
106
  8
0
 10
-0.0337819494307041
 20
-0.0093041956424713
 30
-0.0135765932500362
 70
   192
  0
VERTEX
  5
107
  8
0
 10
-0.0335664935410023
 20
-0.0088459393009543
 30
-0.0131166856735945
 70
   192
  0
VERTEX
  5
108
  8
0
 10
-0.0338572785258293
 20
-0.0084931356832385
 30
-0.0134387454017997
 70
   192
  0
VERTEX
  5
109
  8
0
 10
-0.0337143577635288
 20
-0.0084931356832385
 30
-0.0131303993985057
 70
   192
  0
VERTEX
  5
10A
  8
0
 10
-0.03420040756464
 20
-0.0084931356832385
 30
-0.0135866766795516
 70
   192
  0
VERTEX
  5
10B
  8
0
 10
-0.0336660742759705
 20
-0.0089541524648666
 30
-0.0134350992739201
 70
   192
  0
VERTEX
  5
10C
  8
0
 10
0.0312477704137564
 20
0.0106885796412826
 30
-0.0094663305208087
 70
   192
  0
VERTEX
  5
10D
  8
0
 10
0.0311544090509415
 20
0.010908791795373
 30
-0.0120118614286184
 70
   192
  0
VERTEX
  5
10E
  8
0
 10
0.0311965700238943
 20
0.0109931379556656
 30
-0.0095965098589659
 70
   192
  0
VERTEX
  5
10F
  8
0
 10
0.0321543738245964
 20
0.0099096335470676
 30
-0.011987766250968
 70
   192
  0
VERTEX
  5
110
  8
0
 10
0.0317499898374081
 20
0.0101068103685975
 30
-0.0093999998643994
 70
   192
  0
VERTEX
  5
111
  8
0
 10
0.0321995429694653
 20
0.0099999997764826
 30
-0.0093999998643994
 70
   192
  0
VERTEX
  5
112
  8
0
 10
0.0314472541213036
 20
0.0102018946781754
 30
-0.0120048047974706
 70
   192
  0
VERTEX
  5
113
  8
0
 10
0.0313965380191803
 20
0.0104044396430254
 30
-0.0093999998643994
 70
   192
  0
VERTEX
  5
114
  8
0
 10
0.0311544090509415
 20
-0.010908791795373
 30
-0.0120118614286184
 70
   192
  0
VERTEX
  5
115
  8
0
 10
0.0312481317669153
 20
-0.0106875076889992
 30
-0.0094659309834242
 70
   192
  0
VERTEX
  5
116
  8
0
 10
0.0311965700238943
 20
-0.0109931379556656
 30
-0.0095965098589659
 70
   192
  0
VERTEX
  5
117
  8
0
 10
0.0317499898374081
 20
-0.0101068103685975
 30
-0.0093999998643994
 70
   192
  0
VERTEX
  5
118
  8
0
 10
0.0321543738245964
 20
-0.0099096335470676
 30
-0.011987766250968
 70
   192
  0
VERTEX
  5
119
  8
0
 10
0.0321995429694653
 20
-0.0099999997764826
 30
-0.0093999998643994
 70
   192
  0
VERTEX
  5
11A
  8
0
 10
0.0314472541213036
 20
-0.0102018946781754
 30
-0.0120048047974706
 70
   192
  0
VERTEX
  5
11B
  8
0
 10
0.0313965380191803
 20
-0.0104044396430254
 30
-0.0093999998643994
 70
   192
  0
VERTEX
  5
11C
  8
0
 10
-0.0314208120107651
 20
0.0101489936932921
 30
-0.013519698753953
 70
   192
  0
VERTEX
  5
11D
  8
0
 10
-0.0311965700238943
 20
0.0109931379556656
 30
-0.0095965098589659
 70
   192
  0
VERTEX
  5
11E
  8
0
 10
-0.0311282128095627
 20
0.0108563834801316
 30
-0.0135126477107406
 70
   192
  0
VERTEX
  5
11F
  8
0
 10
-0.0317499898374081
 20
0.0101068103685975
 30
-0.0093999998643994
 70
   192
  0
VERTEX
  5
120
  8
0
 10
-0.0321273356676102
 20
0.009855542331934
 30
-0.013536723330617
 70
   192
  0
VERTEX
  5
121
  8
0
 10
-0.0321995429694653
 20
0.0099999997764826
 30
-0.0093999998643994
 70
   192
  0
VERTEX
  5
122
  8
0
 10
-0.0313965380191803
 20
0.0104044396430254
 30
-0.0093999998643994
 70
   192
  0
VERTEX
  5
123
  8
0
 10
-0.0311965700238943
 20
-0.0109931379556656
 30
-0.0095965098589659
 70
   192
  0
VERTEX
  5
124
  8
0
 10
-0.0314208120107651
 20
-0.0101489936932921
 30
-0.013519698753953
 70
   192
  0
VERTEX
  5
125
  8
0
 10
-0.0311282128095627
 20
-0.0108563834801316
 30
-0.0135126477107406
 70
   192
  0
VERTEX
  5
126
  8
0
 10
-0.0321273356676102
 20
-0.009855542331934
 30
-0.013536723330617
 70
   192
  0
VERTEX
  5
127
  8
0
 10
-0.0317499898374081
 20
-0.0101068103685975
 30
-0.0093999998643994
 70
   192
  0
VERTEX
  5
128
  8
0
 10
-0.0321995429694653
 20
-0.0099999997764826
 30
-0.0093999998643994
 70
   192
  0
VERTEX
  5
129
  8
0
 10
-0.0313965380191803
 20
-0.0104044396430254
 30
-0.0093999998643994
 70
   192
  0
VERTEX
  5
12A
  8
0
 10
0.0313059091567993
 20
0.008463135920465
 30
-0.0093999998643994
 70
   192
  0
VERTEX
  5
12B
  8
0
 10
0.0313057601451874
 20
0.0088172042742372
 30
-0.0095469634979963
 70
   192
  0
VERTEX
  5
12C
  8
0
 10
0.0309542957693338
 20
0.0088166948407888
 30
-0.0098630813881755
 70
   192
  0
VERTEX
  5
12D
  8
0
 10
0.0313057005405426
 20
0.0089630596339703
 30
-0.0098912762477994
 70
   192
  0
VERTEX
  5
12E
  8
0
 10
0.030950041487813
 20
0.008463135920465
 30
-0.0095487777143717
 70
   192
  0
VERTEX
  5
12F
  8
0
 10
0.030807813629508
 20
0.008463135920465
 30
-0.009856422431767
 70
   192
  0
VERTEX
  5
130
  8
0
 10
0.0310548469424248
 20
0.0087140761315823
 30
-0.0095478696748614
 70
   192
  0
VERTEX
  5
131
  8
0
 10
0.0331307984888554
 20
0.0084639033302665
 30
-0.0093999998643994
 70
   192
  0
VERTEX
  5
132
  8
0
 10
0.0331306494772434
 20
0.0088179716840386
 30
-0.0095469634979963
 70
   192
  0
VERTEX
  5
133
  8
0
 10
0.0331305861473083
 20
0.0089638270437717
 30
-0.0098912762477994
 70
   192
  0
VERTEX
  5
134
  8
0
 10
0.030950041487813
 20
-0.008463135920465
 30
-0.0095487777143717
 70
   192
  0
VERTEX
  5
135
  8
0
 10
0.0313059091567993
 20
-0.008463135920465
 30
-0.0093999998643994
 70
   192
  0
VERTEX
  5
136
  8
0
 10
0.030807813629508
 20
-0.008463135920465
 30
-0.009856422431767
 70
   192
  0
VERTEX
  5
137
  8
0
 10
0.0334824360907078
 20
0.0088174361735582
 30
-0.0098630534484982
 70
   192
  0
VERTEX
  5
138
  8
0
 10
0.0333817377686501
 20
0.0087149664759636
 30
-0.0095478696748614
 70
   192
  0
VERTEX
  5
139
  8
0
 10
0.0334866680204868
 20
0.0084639033302665
 30
-0.0095487777143717
 70
   192
  0
VERTEX
  5
13A
  8
0
 10
0.0336288958787918
 20
0.0084639033302665
 30
-0.009856422431767
 70
   192
  0
VERTEX
  5
13B
  8
0
 10
0.0309542957693338
 20
-0.0088166948407888
 30
-0.0098630813881755
 70
   192
  0
VERTEX
  5
13C
  8
0
 10
0.0313057601451874
 20
-0.0088172042742372
 30
-0.0095469634979963
 70
   192
  0
VERTEX
  5
13D
  8
0
 10
0.0313057005405426
 20
-0.0089630596339703
 30
-0.0098912762477994
 70
   192
  0
VERTEX
  5
13E
  8
0
 10
0.0310548469424248
 20
-0.0087140761315823
 30
-0.0095478696748614
 70
   192
  0
VERTEX
  5
13F
  8
0
 10
0.0331307984888554
 20
-0.0084639033302665
 30
-0.0093999998643994
 70
   192
  0
VERTEX
  5
140
  8
0
 10
0.0334866680204868
 20
-0.0084639033302665
 30
-0.0095487777143717
 70
   192
  0
VERTEX
  5
141
  8
0
 10
0.0336288958787918
 20
-0.0084639033302665
 30
-0.009856422431767
 70
   192
  0
VERTEX
  5
142
  8
0
 10
0.0331306494772434
 20
-0.0088179716840386
 30
-0.0095469634979963
 70
   192
  0
VERTEX
  5
143
  8
0
 10
0.0331305861473083
 20
-0.0089638270437717
 30
-0.0098912762477994
 70
   192
  0
VERTEX
  5
144
  8
0
 10
0.0334824360907078
 20
-0.0088174361735582
 30
-0.0098630534484982
 70
   192
  0
VERTEX
  5
145
  8
0
 10
0.0333817377686501
 20
-0.0087149664759636
 30
-0.0095478696748614
 70
   192
  0
VERTEX
  5
146
  8
0
 10
-0.0329298228025436
 20
0.008436125703156
 30
-0.0093999998643994
 70
   192
  0
VERTEX
  5
147
  8
0
 10
-0.0332856923341751
 20
-0.008436125703156
 30
-0.0095487777143717
 70
   192
  0
VERTEX
  5
148
  8
0
 10
-0.0332856923341751
 20
0.008436125703156
 30
-0.0095487777143717
 70
   192
  0
VERTEX
  5
149
  8
0
 10
-0.0334279201924801
 20
-0.008436125703156
 30
-0.009856422431767
 70
   192
  0
VERTEX
  5
14A
  8
0
 10
-0.0334279201924801
 20
0.008436125703156
 30
-0.009856422431767
 70
   192
  0
VERTEX
  5
14B
  8
0
 10
-0.0329298228025436
 20
-0.008436125703156
 30
-0.0093999998643994
 70
   192
  0
VERTEX
  5
14C
  8
0
 10
-0.0329299718141556
 20
0.0087901949882507
 30
-0.0095469634979963
 70
   192
  0
VERTEX
  5
14D
  8
0
 10
-0.0332814380526543
 20
0.0087896846234798
 30
-0.0098630813881755
 70
   192
  0
VERTEX
  5
14E
  8
0
 10
-0.0329300314188004
 20
0.0089360494166613
 30
-0.0098912762477994
 70
   192
  0
VERTEX
  5
14F
  8
0
 10
-0.0331808850169182
 20
0.0086870659142733
 30
-0.0095478696748614
 70
   192
  0
VERTEX
  5
150
  8
0
 10
-0.0332814380526543
 20
-0.0087896846234798
 30
-0.0098630813881755
 70
   192
  0
VERTEX
  5
151
  8
0
 10
-0.0329299718141556
 20
-0.0087901949882507
 30
-0.0095469634979963
 70
   192
  0
VERTEX
  5
152
  8
0
 10
-0.0329300314188004
 20
-0.0089360494166613
 30
-0.0098912762477994
 70
   192
  0
VERTEX
  5
153
  8
0
 10
-0.0331808850169182
 20
-0.0086870659142733
 30
-0.0095478696748614
 70
   192
  0
VERTEX
  5
154
  8
0
 10
-0.0313850976526737
 20
0.0084367748349905
 30
-0.0093999998643994
 70
   192
  0
VERTEX
  5
155
  8
0
 10
-0.0313852466642857
 20
0.0087908441200852
 30
-0.0095469634979963
 70
   192
  0
VERTEX
  5
156
  8
0
 10
-0.0313853099942207
 20
0.0089366985484958
 30
-0.0098912762477994
 70
   192
  0
VERTEX
  5
157
  8
0
 10
-0.0313850976526737
 20
-0.0084367748349905
 30
-0.0093999998643994
 70
   192
  0
VERTEX
  5
158
  8
0
 10
-0.0313853099942207
 20
-0.0089366985484958
 30
-0.0098912762477994
 70
   192
  0
VERTEX
  5
159
  8
0
 10
-0.0313852466642857
 20
-0.0087908441200852
 30
-0.0095469634979963
 70
   192
  0
VERTEX
  5
15A
  8
0
 10
-0.0310334600508213
 20
0.0087903086096048
 30
-0.0098630534484982
 70
   192
  0
VERTEX
  5
15B
  8
0
 10
-0.031134158372879
 20
0.0086878389120102
 30
-0.0095478696748614
 70
   192
  0
VERTEX
  5
15C
  8
0
 10
-0.0310292281210423
 20
0.0084367748349905
 30
-0.0095487777143717
 70
   192
  0
VERTEX
  5
15D
  8
0
 10
-0.0308870002627373
 20
0.0084367748349905
 30
-0.009856422431767
 70
   192
  0
VERTEX
  5
15E
  8
0
 10
-0.0310334600508213
 20
-0.0087903086096048
 30
-0.0098630534484982
 70
   192
  0
VERTEX
  5
15F
  8
0
 10
-0.0310292281210423
 20
-0.0084367748349905
 30
-0.0095487777143717
 70
   192
  0
VERTEX
  5
160
  8
0
 10
-0.0308870002627373
 20
-0.0084367748349905
 30
-0.009856422431767
 70
   192
  0
VERTEX
  5
161
  8
0
 10
-0.031134158372879
 20
-0.0086878389120102
 30
-0.0095478696748614
 70
   192
  0
VERTEX
  5
162
  8
0
 10
-0.0308129508048296
 20
0.0088941818103194
 30
-0.0130306612700224
 70
   192
  0
VERTEX
  5
163
  8
0
 10
0.0335672199726105
 20
0.0088941818103194
 30
-0.0114793321117759
 70
   192
  0
VERTEX
  5
164
  8
0
 10
0.0338116362690926
 20
0.0099110277369618
 30
-0.011947832070291
 70
   192
  0
VERTEX
  5
165
  8
0
 10
0.0327499993145466
 20
0.0099999997764826
 30
-0.0093999998643994
 70
   192
  0
VERTEX
  5
166
  8
0
 10
0.0339006073772907
 20
0.0099999997764826
 30
-0.0093999998643994
 70
   192
  0
VERTEX
  5
167
  8
0
 10
0.034811869263649
 20
-0.0089124785736203
 30
-0.0119237303733826
 70
   192
  0
VERTEX
  5
168
  8
0
 10
0.0348999984562397
 20
0.0090006096288562
 30
-0.0093999998643994
 70
   192
  0
VERTEX
  5
169
  8
0
 10
0.0348999984562397
 20
-0.0090006096288562
 30
-0.0093999998643994
 70
   192
  0
VERTEX
  5
16A
  8
0
 10
0.034811869263649
 20
0.0089124785736203
 30
-0.0119237303733826
 70
   192
  0
VERTEX
  5
16B
  8
0
 10
-0.0327499993145466
 20
0.0099999997764826
 30
-0.0093999998643994
 70
   192
  0
VERTEX
  5
16C
  8
0
 10
-0.0337547808885574
 20
0.0098541732877493
 30
-0.0135759385302663
 70
   192
  0
VERTEX
  5
16D
  8
0
 10
-0.0339006073772907
 20
0.0099999997764826
 30
-0.0093999998643994
 70
   192
  0
VERTEX
  5
16E
  8
0
 10
0.0281177572906017
 20
0.0296168439090252
 30
-0.0120850335806608
 70
   192
  0
VERTEX
  5
16F
  8
0
 10
-0.0282127391546965
 20
0.0297118257731199
 30
-0.0093651004135609
 70
   192
  0
VERTEX
  5
170
  8
0
 10
-0.0280704777687788
 20
0.0295695625245571
 30
-0.0134389670565724
 70
   192
  0
VERTEX
  5
171
  8
0
 10
0.0282127391546965
 20
0.0297118257731199
 30
-0.0093651004135609
 70
   192
  0
VERTEX
  5
172
  8
0
 10
-0.0295683033764362
 20
0.0280692167580128
 30
-0.0134750595316291
 70
   192
  0
VERTEX
  5
173
  8
0
 10
-0.0297118257731199
 20
-0.0282127391546965
 30
-0.0093651004135609
 70
   192
  0
VERTEX
  5
174
  8
0
 10
-0.0295683033764362
 20
-0.0280692167580128
 30
-0.0134750595316291
 70
   192
  0
VERTEX
  5
175
  8
0
 10
-0.0297118257731199
 20
0.0282127391546965
 30
-0.0093651004135609
 70
   192
  0
VERTEX
  5
176
  8
0
 10
0.0296181067824364
 20
0.0281190201640129
 30
-0.0120488805696368
 70
   192
  0
VERTEX
  5
177
  8
0
 10
0.0297118257731199
 20
-0.0282127391546965
 30
-0.0093651004135609
 70
   192
  0
VERTEX
  5
178
  8
0
 10
0.0297118257731199
 20
0.0282127391546965
 30
-0.0093651004135609
 70
   192
  0
VERTEX
  5
179
  8
0
 10
0.0296181067824364
 20
-0.0281190201640129
 30
-0.0120488805696368
 70
   192
  0
VERTEX
  5
17A
  8
0
 10
-0.0291297100484371
 20
0.0291297100484371
 30
-0.0134644908830523
 70
   192
  0
VERTEX
  5
17B
  8
0
 10
-0.0292733684182167
 20
0.0292733684182167
 30
-0.0093506742268801
 70
   192
  0
VERTEX
  5
17C
  8
0
 10
0.029178773984313
 20
0.029178773984313
 30
-0.0120594669133425
 70
   192
  0
VERTEX
  5
17D
  8
0
 10
0.0292733684182167
 20
0.0292733684182167
 30
-0.0093506742268801
 70
   192
  0
VERTEX
  5
17E
  8
0
 10
-0.0311282128095627
 20
0.0292000006884336
 30
-0.0135126477107406
 70
   192
  0
VERTEX
  5
17F
  8
0
 10
-0.0311965700238943
 20
0.0292000006884336
 30
-0.0095965098589659
 70
   192
  0
VERTEX
  5
180
  8
0
 10
0.0311544090509415
 20
0.0292000006884336
 30
-0.0120118614286184
 70
   192
  0
VERTEX
  5
181
  8
0
 10
0.0311965700238943
 20
0.0292000006884336
 30
-0.0095965098589659
 70
   192
  0
VERTEX
  5
182
  8
0
 10
-0.0292000006884336
 20
0.0311290249228477
 30
-0.0134661849588156
 70
   192
  0
VERTEX
  5
183
  8
0
 10
-0.030611788854003
 20
0.030611788854003
 30
-0.0095965098589659
 70
   192
  0
VERTEX
  5
184
  8
0
 10
-0.0292000006884336
 20
0.0311965700238943
 30
-0.0095965098589659
 70
   192
  0
VERTEX
  5
185
  8
0
 10
-0.0305635016411543
 20
0.0305637400597334
 30
-0.0134990401566029
 70
   192
  0
VERTEX
  5
186
  8
0
 10
0.030611788854003
 20
0.030611788854003
 30
-0.0095965098589659
 70
   192
  0
VERTEX
  5
187
  8
0
 10
0.0292000006884336
 20
0.0311965700238943
 30
-0.0095965098589659
 70
   192
  0
VERTEX
  5
188
  8
0
 10
0.0305819269269705
 20
0.0305816866457462
 30
-0.0120256561785936
 70
   192
  0
VERTEX
  5
189
  8
0
 10
0.0292000006884336
 20
0.0311535876244307
 30
-0.012058955617249
 70
   192
  0
VERTEX
  5
18A
  8
0
 10
-0.0344609394669533
 20
0.0095609379932284
 30
-0.0135929547250271
 70
   192
  0
VERTEX
  5
18B
  8
0
 10
-0.0348999984562397
 20
0.0090006096288562
 30
-0.0093999998643994
 70
   192
  0
VERTEX
  5
18C
  8
0
 10
-0.0347533337771893
 20
0.008853942155838
 30
-0.0136000001803041
 70
   192
  0
VERTEX
  5
18D
  8
0
 10
-0.034607358276844
 20
0.0097073586657643
 30
-0.0093999998643994
 70
   192
  0
VERTEX
  5
18E
  8
0
 10
0.0345189832150936
 20
0.0096189817413688
 30
-0.011930787935853
 70
   192
  0
VERTEX
  5
18F
  8
0
 10
0.034607358276844
 20
0.0097073586657643
 30
-0.0093999998643994
 70
   192
  0
VERTEX
  5
190
  8
0
 10
-0.0344609394669533
 20
-0.0095609379932284
 30
-0.0135929547250271
 70
   192
  0
VERTEX
  5
191
  8
0
 10
-0.0337547808885574
 20
-0.0098541732877493
 30
-0.0135759385302663
 70
   192
  0
VERTEX
  5
192
  8
0
 10
0.0337569527328014
 20
0.0093708969652653
 30
-0.0119491498917341
 70
   192
  0
VERTEX
  5
193
  8
0
 10
-0.0347533337771893
 20
-0.008853942155838
 30
-0.0136000001803041
 70
   192
  0
VERTEX
  5
194
  8
0
 10
0.0345189832150936
 20
-0.0096189817413688
 30
-0.011930787935853
 70
   192
  0
VERTEX
  5
195
  8
0
 10
0.0338116362690926
 20
-0.0099110277369618
 30
-0.011947832070291
 70
   192
  0
VERTEX
  5
196
  8
0
 10
-0.0306232180446386
 20
0.0093708969652653
 30
-0.0135004790499806
 70
   192
  0
VERTEX
  5
197
  8
0
 10
0.0292000006884336
 20
-0.0311535876244307
 30
-0.012058955617249
 70
   192
  0
VERTEX
  5
198
  8
0
 10
0.0311544090509415
 20
-0.0292000006884336
 30
-0.0120118614286184
 70
   192
  0
VERTEX
  5
199
  8
0
 10
0.0305819269269705
 20
-0.0305816866457462
 30
-0.0120256561785936
 70
   192
  0
VERTEX
  5
19A
  8
0
 10
-0.0311282128095627
 20
-0.0292000006884336
 30
-0.0135126477107406
 70
   192
  0
VERTEX
  5
19B
  8
0
 10
-0.0292000006884336
 20
-0.0311290249228477
 30
-0.0134661849588156
 70
   192
  0
VERTEX
  5
19C
  8
0
 10
-0.0305635016411543
 20
-0.0305637400597334
 30
-0.0134990401566029
 70
   192
  0
VERTEX
  5
19D
  8
0
 10
0.029178773984313
 20
-0.029178773984313
 30
-0.0120594669133425
 70
   192
  0
VERTEX
  5
19E
  8
0
 10
0.0281177572906017
 20
-0.0296168439090252
 30
-0.0120850335806608
 70
   192
  0
VERTEX
  5
19F
  8
0
 10
-0.0280704777687788
 20
-0.0295695625245571
 30
-0.0134389670565724
 70
   192
  0
VERTEX
  5
1A0
  8
0
 10
-0.0291297100484371
 20
-0.0291297100484371
 30
-0.0134644908830523
 70
   192
  0
VERTEX
  5
1A1
  8
0
 10
-0.0348999984562397
 20
-0.0090006096288562
 30
-0.0093999998643994
 70
   192
  0
VERTEX
  5
1A2
  8
0
 10
-0.0339006073772907
 20
-0.0099999997764826
 30
-0.0093999998643994
 70
   192
  0
VERTEX
  5
1A3
  8
0
 10
-0.034607358276844
 20
-0.0097073586657643
 30
-0.0093999998643994
 70
   192
  0
VERTEX
  5
1A4
  8
0
 10
0.0339006073772907
 20
-0.0099999997764826
 30
-0.0093999998643994
 70
   192
  0
VERTEX
  5
1A5
  8
0
 10
0.034607358276844
 20
-0.0097073586657643
 30
-0.0093999998643994
 70
   192
  0
VERTEX
  5
1A6
  8
0
 10
-0.0327499993145466
 20
-0.0099999997764826
 30
-0.0093999998643994
 70
   192
  0
VERTEX
  5
1A7
  8
0
 10
0.0327499993145466
 20
0.0307500008493662
 30
-0.0093999998643994
 70
   192
  0
VERTEX
  5
1A8
  8
0
 10
0.0313965380191803
 20
0.0292000006884336
 30
-0.0093999998643994
 70
   192
  0
VERTEX
  5
1A9
  8
0
 10
0.0307531878352165
 20
0.0307531878352165
 30
-0.0093999998643994
 70
   192
  0
VERTEX
  5
1AA
  8
0
 10
0.0307500008493662
 20
0.0327499993145466
 30
-0.0093999998643994
 70
   192
  0
VERTEX
  5
1AB
  8
0
 10
0.0292000006884336
 20
0.0313965380191803
 30
-0.0093999998643994
 70
   192
  0
VERTEX
  5
1AC
  8
0
 10
-0.0307500008493662
 20
0.0327499993145466
 30
-0.0093999998643994
 70
   192
  0
VERTEX
  5
1AD
  8
0
 10
-0.0292000006884336
 20
0.0313965380191803
 30
-0.0093999998643994
 70
   192
  0
VERTEX
  5
1AE
  8
0
 10
-0.0307531878352165
 20
0.0307531878352165
 30
-0.0093999998643994
 70
   192
  0
VERTEX
  5
1AF
  8
0
 10
-0.0327499993145466
 20
0.0307500008493662
 30
-0.0093999998643994
 70
   192
  0
VERTEX
  5
1B0
  8
0
 10
-0.0313965380191803
 20
0.0292000006884336
 30
-0.0093999998643994
 70
   192
  0
VERTEX
  5
1B1
  8
0
 10
0.0327499993145466
 20
-0.0099999997764826
 30
-0.0093999998643994
 70
   192
  0
VERTEX
  5
1B2
  8
0
 10
0.0312549099326134
 20
0.0292000006884336
 30
-0.0094587849453092
 70
   192
  0
VERTEX
  5
1B3
  8
0
 10
-0.0299796145409346
 20
0.0299796145409346
 30
-0.0083999997004867
 70
   192
  0
VERTEX
  5
1B4
  8
0
 10
-0.0294919777661562
 20
0.029492225497961
 30
-0.0086756637319922
 70
   192
  0
VERTEX
  5
1B5
  8
0
 10
-0.0282127391546965
 20
0.0300165582448244
 30
-0.0086806602776051
 70
   192
  0
VERTEX
  5
1B6
  8
0
 10
-0.0300165582448244
 20
0.0282127391546965
 30
-0.0086806602776051
 70
   192
  0
VERTEX
  5
1B7
  8
0
 10
-0.0282127391546965
 20
0.0307112168520689
 30
-0.0083999997004867
 70
   192
  0
VERTEX
  5
1B8
  8
0
 10
-0.0307112168520689
 20
0.0282127391546965
 30
-0.0083999997004867
 70
   192
  0
VERTEX
  5
1B9
  8
0
 10
-0.0299796145409346
 20
-0.0299796145409346
 30
-0.0083999997004867
 70
   192
  0
VERTEX
  5
1BA
  8
0
 10
-0.029492225497961
 20
-0.0294919777661562
 30
-0.0086756637319922
 70
   192
  0
VERTEX
  5
1BB
  8
0
 10
-0.0300165582448244
 20
-0.0282127391546965
 30
-0.0086806602776051
 70
   192
  0
VERTEX
  5
1BC
  8
0
 10
-0.0292733684182167
 20
-0.0292733684182167
 30
-0.0093506742268801
 70
   192
  0
VERTEX
  5
1BD
  8
0
 10
-0.0282127391546965
 20
-0.0300165582448244
 30
-0.0086806602776051
 70
   192
  0
VERTEX
  5
1BE
  8
0
 10
-0.0282127391546965
 20
-0.0297118257731199
 30
-0.0093651004135609
 70
   192
  0
VERTEX
  5
1BF
  8
0
 10
-0.0307112168520689
 20
-0.0282127391546965
 30
-0.0083999997004867
 70
   192
  0
VERTEX
  5
1C0
  8
0
 10
-0.0282127391546965
 20
-0.0307112168520689
 30
-0.0083999997004867
 70
   192
  0
VERTEX
  5
1C1
  8
0
 10
0.0282127391546965
 20
-0.0297118257731199
 30
-0.0093651004135609
 70
   192
  0
VERTEX
  5
1C2
  8
0
 10
0.0292733684182167
 20
-0.0292733684182167
 30
-0.0093506742268801
 70
   192
  0
VERTEX
  5
1C3
  8
0
 10
0.0306542124599218
 20
0.0306542124599218
 30
-0.0094571448862553
 70
   192
  0
VERTEX
  5
1C4
  8
0
 10
0.0292000006884336
 20
0.0312549099326134
 30
-0.0094587849453092
 70
   192
  0
VERTEX
  5
1C5
  8
0
 10
-0.0312549099326134
 20
0.0292000006884336
 30
-0.0094587849453092
 70
   192
  0
VERTEX
  5
1C6
  8
0
 10
-0.0306542124599218
 20
0.0306542124599218
 30
-0.0094571448862553
 70
   192
  0
VERTEX
  5
1C7
  8
0
 10
-0.0292000006884336
 20
0.0312549099326134
 30
-0.0094587849453092
 70
   192
  0
VERTEX
  5
1C8
  8
0
 10
0.0312549099326134
 20
-0.0292000006884336
 30
-0.0094587849453092
 70
   192
  0
VERTEX
  5
1C9
  8
0
 10
0.0311965700238943
 20
-0.0292000006884336
 30
-0.0095965098589659
 70
   192
  0
VERTEX
  5
1CA
  8
0
 10
0.0313965380191803
 20
-0.0292000006884336
 30
-0.0093999998643994
 70
   192
  0
VERTEX
  5
1CB
  8
0
 10
0.0306542124599218
 20
-0.0306542124599218
 30
-0.0094571448862553
 70
   192
  0
VERTEX
  5
1CC
  8
0
 10
0.030611788854003
 20
-0.030611788854003
 30
-0.0095965098589659
 70
   192
  0
VERTEX
  5
1CD
  8
0
 10
0.0292000006884336
 20
-0.0312549099326134
 30
-0.0094587849453092
 70
   192
  0
VERTEX
  5
1CE
  8
0
 10
0.0292000006884336
 20
-0.0311965700238943
 30
-0.0095965098589659
 70
   192
  0
VERTEX
  5
1CF
  8
0
 10
0.0307531878352165
 20
-0.0307531878352165
 30
-0.0093999998643994
 70
   192
  0
VERTEX
  5
1D0
  8
0
 10
0.0292000006884336
 20
-0.0313965380191803
 30
-0.0093999998643994
 70
   192
  0
VERTEX
  5
1D1
  8
0
 10
-0.0292000006884336
 20
-0.0313965380191803
 30
-0.0093999998643994
 70
   192
  0
VERTEX
  5
1D2
  8
0
 10
-0.0292000006884336
 20
-0.0311965700238943
 30
-0.0095965098589659
 70
   192
  0
VERTEX
  5
1D3
  8
0
 10
-0.0292000006884336
 20
-0.0312549099326134
 30
-0.0094587849453092
 70
   192
  0
VERTEX
  5
1D4
  8
0
 10
-0.030611788854003
 20
-0.030611788854003
 30
-0.0095965098589659
 70
   192
  0
VERTEX
  5
1D5
  8
0
 10
-0.0311965700238943
 20
-0.0292000006884336
 30
-0.0095965098589659
 70
   192
  0
VERTEX
  5
1D6
  8
0
 10
-0.0327499993145466
 20
-0.0307500008493662
 30
-0.0093999998643994
 70
   192
  0
VERTEX
  5
1D7
  8
0
 10
-0.0313965380191803
 20
-0.0292000006884336
 30
-0.0093999998643994
 70
   192
  0
VERTEX
  5
1D8
  8
0
 10
-0.0307500008493662
 20
-0.0327499993145466
 30
-0.0093999998643994
 70
   192
  0
VERTEX
  5
1D9
  8
0
 10
0.0307500008493662
 20
-0.0327499993145466
 30
-0.0093999998643994
 70
   192
  0
VERTEX
  5
1DA
  8
0
 10
0.0327499993145466
 20
-0.0307500008493662
 30
-0.0093999998643994
 70
   192
  0
VERTEX
  5
1DB
  8
0
 10
0.0336744859814644
 20
0.0090114176273346
 30
-0.0118120303377509
 70
   192
  0
VERTEX
  5
1DC
  8
0
 10
-0.0307056847959757
 20
0.0090114176273346
 30
-0.0133633594959974
 70
   192
  0
VERTEX
  5
1DD
  8
0
 62
     7
 10
0.0
 20
0.0
 30
0.0
 70
   128
 71
     3
 72
     2
 73
     1
  0
VERTEX
  5
1DE
  8
0
 62
     7
 10
0.0
 20
0.0
 30
0.0
 70
   128
 71
     5
 72
     2
 73
     4
  0
VERTEX
  5
1DF
  8
0
 62
     7
 10
0.0
 20
0.0
 30
0.0
 70
   128
 71
     4
 72
     2
 73
     3
  0
VERTEX
  5
1E0
  8
0
 62
     7
 10
0.0
 20
0.0
 30
0.0
 70
   128
 71
     8
 72
     7
 73
     6
  0
VERTEX
  5
1E1
  8
0
 62
     7
 10
0.0
 20
0.0
 30
0.0
 70
   128
 71
     7
 72
     1
 73
     6
  0
VERTEX
  5
1E2
  8
0
 62
     7
 10
0.0
 20
0.0
 30
0.0
 70
   128
 71
     6
 72
     1
 73
     2
  0
VERTEX
  5
1E3
  8
0
 62
     7
 10
0.0
 20
0.0
 30
0.0
 70
   128
 71
     5
 72
     9
 73
     2
  0
VERTEX
  5
1E4
  8
0
 62
     7
 10
0.0
 20
0.0
 30
0.0
 70
   128
 71
    11
 72
     8
 73
    10
  0
VERTEX
  5
1E5
  8
0
 62
     7
 10
0.0
 20
0.0
 30
0.0
 70
   128
 71
     8
 72
     6
 73
    10
  0
VERTEX
  5
1E6
  8
0
 62
     7
 10
0.0
 20
0.0
 30
0.0
 70
   128
 71
     6
 72
     2
 73
    10
  0
VERTEX
  5
1E7
  8
0
 62
     7
 10
0.0
 20
0.0
 30
0.0
 70
   128
 71
    10
 72
     2
 73
     9
  0
VERTEX
  5
1E8
  8
0
 62
     7
 10
0.0
 20
0.0
 30
0.0
 70
   128
 71
    14
 72
    13
 73
    12
  0
VERTEX
  5
1E9
  8
0
 62
     7
 10
0.0
 20
0.0
 30
0.0
 70
   128
 71
    15
 72
    14
 73
    12
  0
VERTEX
  5
1EA
  8
0
 62
     7
 10
0.0
 20
0.0
 30
0.0
 70
   128
 71
    17
 72
    12
 73
    16
  0
VERTEX
  5
1EB
  8
0
 62
     7
 10
0.0
 20
0.0
 30
0.0
 70
   128
 71
    19
 72
    16
 73
    18
  0
VERTEX
  5
1EC
  8
0
 62
     7
 10
0.0
 20
0.0
 30
0.0
 70
   128
 71
    20
 72
    18
 73
    14
  0
VERTEX
  5
1ED
  8
0
 62
     7
 10
0.0
 20
0.0
 30
0.0
 70
   128
 71
    16
 72
    13
 73
    18
  0
VERTEX
  5
1EE
  8
0
 62
     7
 10
0.0
 20
0.0
 30
0.0
 70
   128
 71
    16
 72
    12
 73
    13
  0
VERTEX
  5
1EF
  8
0
 62
     7
 10
0.0
 20
0.0
 30
0.0
 70
   128
 71
    14
 72
    18
 73
    13
  0
VERTEX
  5
1F0
  8
0
 62
     7
 10
0.0
 20
0.0
 30
0.0
 70
   128
 71
    23
 72
    22
 73
    21
  0
VERTEX
  5
1F1
  8
0
 62
     7
 10
0.0
 20
0.0
 30
0.0
 70
   128
 71
    26
 72
    25
 73
    24
  0
VERTEX
  5
1F2
  8
0
 62
     7
 10
0.0
 20
0.0
 30
0.0
 70
   128
 71
    24
 72
    25
 73
    22
  0
VERTEX
  5
1F3
  8
0
 62
     7
 10
0.0
 20
0.0
 30
0.0
 70
   128
 71
    25
 72
    21
 73
    22
  0
VERTEX
  5
1F4
  8
0
 62
     7
 10
0.0
 20
0.0
 30
0.0
 70
   128
 71
    20
 72
    14
 73
    27
  0
VERTEX
  5
1F5
  8
0
 62
     7
 10
0.0
 20
0.0
 30
0.0
 70
   128
 71
    15
 72
    28
 73
    14
  0
VERTEX
  5
1F6
  8
0
 62
     7
 10
0.0
 20
0.0
 30
0.0
 70
   128
 71
    28
 72
    29
 73
    14
  0
VERTEX
  5
1F7
  8
0
 62
     7
 10
0.0
 20
0.0
 30
0.0
 70
   128
 71
    29
 72
    27
 73
    14
  0
VERTEX
  5
1F8
  8
0
 62
     7
 10
0.0
 20
0.0
 30
0.0
 70
   128
 71
    32
 72
    31
 73
    30
  0
VERTEX
  5
1F9
  8
0
 62
     7
 10
0.0
 20
0.0
 30
0.0
 70
   128
 71
    33
 72
    31
 73
    32
  0
VERTEX
  5
1FA
  8
0
 62
     7
 10
0.0
 20
0.0
 30
0.0
 70
   128
 71
    24
 72
    22
 73
    31
  0
VERTEX
  5
1FB
  8
0
 62
     7
 10
0.0
 20
0.0
 30
0.0
 70
   128
 71
    23
 72
    34
 73
    22
  0
VERTEX
  5
1FC
  8
0
 62
     7
 10
0.0
 20
0.0
 30
0.0
 70
   128
 71
    35
 72
    32
 73
    34
  0
VERTEX
  5
1FD
  8
0
 62
     7
 10
0.0
 20
0.0
 30
0.0
 70
   128
 71
    22
 72
    34
 73
    30
  0
VERTEX
  5
1FE
  8
0
 62
     7
 10
0.0
 20
0.0
 30
0.0
 70
   128
 71
    22
 72
    30
 73
    31
  0
VERTEX
  5
1FF
  8
0
 62
     7
 10
0.0
 20
0.0
 30
0.0
 70
   128
 71
    32
 72
    30
 73
    34
  0
VERTEX
  5
200
  8
0
 62
     7
 10
0.0
 20
0.0
 30
0.0
 70
   128
 71
    38
 72
    37
 73
    36
  0
VERTEX
  5
201
  8
0
 62
     7
 10
0.0
 20
0.0
 30
0.0
 70
   128
 71
    41
 72
    40
 73
    39
  0
VERTEX
  5
202
  8
0
 62
     7
 10
0.0
 20
0.0
 30
0.0
 70
   128
 71
    28
 72
    39
 73
    29
  0
VERTEX
  5
203
  8
0
 62
     7
 10
0.0
 20
0.0
 30
0.0
 70
   128
 71
    27
 72
    29
 73
    38
  0
VERTEX
  5
204
  8
0
 62
     7
 10
0.0
 20
0.0
 30
0.0
 70
   128
 71
    42
 72
    36
 73
    40
  0
VERTEX
  5
205
  8
0
 62
     7
 10
0.0
 20
0.0
 30
0.0
 70
   128
 71
    40
 72
    43
 73
    39
  0
VERTEX
  5
206
  8
0
 62
     7
 10
0.0
 20
0.0
 30
0.0
 70
   128
 71
    37
 72
    38
 73
    43
  0
VERTEX
  5
207
  8
0
 62
     7
 10
0.0
 20
0.0
 30
0.0
 70
   128
 71
    40
 72
    37
 73
    43
  0
VERTEX
  5
208
  8
0
 62
     7
 10
0.0
 20
0.0
 30
0.0
 70
   128
 71
    29
 72
    43
 73
    38
  0
VERTEX
  5
209
  8
0
 62
     7
 10
0.0
 20
0.0
 30
0.0
 70
   128
 71
    29
 72
    39
 73
    43
  0
VERTEX
  5
20A
  8
0
 62
     7
 10
0.0
 20
0.0
 30
0.0
 70
   128
 71
    40
 72
    36
 73
    37
  0
VERTEX
  5
20B
  8
0
 62
     7
 10
0.0
 20
0.0
 30
0.0
 70
   128
 71
    35
 72
    42
 73
    32
  0
VERTEX
  5
20C
  8
0
 62
     7
 10
0.0
 20
0.0
 30
0.0
 70
   128
 71
    41
 72
    33
 73
    40
  0
VERTEX
  5
20D
  8
0
 62
     7
 10
0.0
 20
0.0
 30
0.0
 70
   128
 71
    33
 72
    32
 73
    40
  0
VERTEX
  5
20E
  8
0
 62
     7
 10
0.0
 20
0.0
 30
0.0
 70
   128
 71
    40
 72
    32
 73
    42
  0
VERTEX
  5
20F
  8
0
 62
     7
 10
0.0
 20
0.0
 30
0.0
 70
   128
 71
    46
 72
    45
 73
    44
  0
VERTEX
  5
210
  8
0
 62
     7
 10
0.0
 20
0.0
 30
0.0
 70
   128
 71
    48
 72
    45
 73
    47
  0
VERTEX
  5
211
  8
0
 62
     7
 10
0.0
 20
0.0
 30
0.0
 70
   128
 71
    47
 72
    45
 73
    46
  0
VERTEX
  5
212
  8
0
 62
     7
 10
0.0
 20
0.0
 30
0.0
 70
   128
 71
    51
 72
    50
 73
    49
  0
VERTEX
  5
213
  8
0
 62
     7
 10
0.0
 20
0.0
 30
0.0
 70
   128
 71
    50
 72
    44
 73
    49
  0
VERTEX
  5
214
  8
0
 62
     7
 10
0.0
 20
0.0
 30
0.0
 70
   128
 71
    49
 72
    44
 73
    45
  0
VERTEX
  5
215
  8
0
 62
     7
 10
0.0
 20
0.0
 30
0.0
 70
   128
 71
    48
 72
    52
 73
    45
  0
VERTEX
  5
216
  8
0
 62
     7
 10
0.0
 20
0.0
 30
0.0
 70
   128
 71
    54
 72
    51
 73
    53
  0
VERTEX
  5
217
  8
0
 62
     7
 10
0.0
 20
0.0
 30
0.0
 70
   128
 71
    51
 72
    49
 73
    53
  0
VERTEX
  5
218
  8
0
 62
     7
 10
0.0
 20
0.0
 30
0.0
 70
   128
 71
    49
 72
    45
 73
    53
  0
VERTEX
  5
219
  8
0
 62
     7
 10
0.0
 20
0.0
 30
0.0
 70
   128
 71
    53
 72
    45
 73
    52
  0
VERTEX
  5
21A
  8
0
 62
     7
 10
0.0
 20
0.0
 30
0.0
 70
   128
 71
    57
 72
    56
 73
    55
  0
VERTEX
  5
21B
  8
0
 62
     7
 10
0.0
 20
0.0
 30
0.0
 70
   128
 71
    58
 72
    57
 73
    55
  0
VERTEX
  5
21C
  8
0
 62
     7
 10
0.0
 20
0.0
 30
0.0
 70
   128
 71
    60
 72
    55
 73
    59
  0
VERTEX
  5
21D
  8
0
 62
     7
 10
0.0
 20
0.0
 30
0.0
 70
   128
 71
    62
 72
    59
 73
    61
  0
VERTEX
  5
21E
  8
0
 62
     7
 10
0.0
 20
0.0
 30
0.0
 70
   128
 71
    63
 72
    61
 73
    57
  0
VERTEX
  5
21F
  8
0
 62
     7
 10
0.0
 20
0.0
 30
0.0
 70
   128
 71
    59
 72
    56
 73
    61
  0
VERTEX
  5
220
  8
0
 62
     7
 10
0.0
 20
0.0
 30
0.0
 70
   128
 71
    59
 72
    55
 73
    56
  0
VERTEX
  5
221
  8
0
 62
     7
 10
0.0
 20
0.0
 30
0.0
 70
   128
 71
    57
 72
    61
 73
    56
  0
VERTEX
  5
222
  8
0
 62
     7
 10
0.0
 20
0.0
 30
0.0
 70
   128
 71
    66
 72
    65
 73
    64
  0
VERTEX
  5
223
  8
0
 62
     7
 10
0.0
 20
0.0
 30
0.0
 70
   128
 71
    68
 72
    67
 73
    65
  0
VERTEX
  5
224
  8
0
 62
     7
 10
0.0
 20
0.0
 30
0.0
 70
   128
 71
    67
 72
    69
 73
    65
  0
VERTEX
  5
225
  8
0
 62
     7
 10
0.0
 20
0.0
 30
0.0
 70
   128
 71
    69
 72
    64
 73
    65
  0
VERTEX
  5
226
  8
0
 62
     7
 10
0.0
 20
0.0
 30
0.0
 70
   128
 71
    71
 72
    70
 73
    58
  0
VERTEX
  5
227
  8
0
 62
     7
 10
0.0
 20
0.0
 30
0.0
 70
   128
 71
    72
 72
    63
 73
    70
  0
VERTEX
  5
228
  8
0
 62
     7
 10
0.0
 20
0.0
 30
0.0
 70
   128
 71
    63
 72
    57
 73
    70
  0
VERTEX
  5
229
  8
0
 62
     7
 10
0.0
 20
0.0
 30
0.0
 70
   128
 71
    57
 72
    58
 73
    70
  0
VERTEX
  5
22A
  8
0
 62
     7
 10
0.0
 20
0.0
 30
0.0
 70
   128
 71
    75
 72
    74
 73
    73
  0
VERTEX
  5
22B
  8
0
 62
     7
 10
0.0
 20
0.0
 30
0.0
 70
   128
 71
    76
 72
    74
 73
    75
  0
VERTEX
  5
22C
  8
0
 62
     7
 10
0.0
 20
0.0
 30
0.0
 70
   128
 71
    68
 72
    65
 73
    74
  0
VERTEX
  5
22D
  8
0
 62
     7
 10
0.0
 20
0.0
 30
0.0
 70
   128
 71
    66
 72
    77
 73
    65
  0
VERTEX
  5
22E
  8
0
 62
     7
 10
0.0
 20
0.0
 30
0.0
 70
   128
 71
    78
 72
    75
 73
    77
  0
VERTEX
  5
22F
  8
0
 62
     7
 10
0.0
 20
0.0
 30
0.0
 70
   128
 71
    65
 72
    77
 73
    73
  0
VERTEX
  5
230
  8
0
 62
     7
 10
0.0
 20
0.0
 30
0.0
 70
   128
 71
    65
 72
    73
 73
    74
  0
VERTEX
  5
231
  8
0
 62
     7
 10
0.0
 20
0.0
 30
0.0
 70
   128
 71
    75
 72
    73
 73
    77
  0
VERTEX
  5
232
  8
0
 62
     7
 10
0.0
 20
0.0
 30
0.0
 70
   128
 71
    81
 72
    80
 73
    79
  0
VERTEX
  5
233
  8
0
 62
     7
 10
0.0
 20
0.0
 30
0.0
 70
   128
 71
    84
 72
    83
 73
    82
  0
VERTEX
  5
234
  8
0
 62
     7
 10
0.0
 20
0.0
 30
0.0
 70
   128
 71
    71
 72
    82
 73
    70
  0
VERTEX
  5
235
  8
0
 62
     7
 10
0.0
 20
0.0
 30
0.0
 70
   128
 71
    72
 72
    70
 73
    81
  0
VERTEX
  5
236
  8
0
 62
     7
 10
0.0
 20
0.0
 30
0.0
 70
   128
 71
    85
 72
    79
 73
    83
  0
VERTEX
  5
237
  8
0
 62
     7
 10
0.0
 20
0.0
 30
0.0
 70
   128
 71
    83
 72
    86
 73
    82
  0
VERTEX
  5
238
  8
0
 62
     7
 10
0.0
 20
0.0
 30
0.0
 70
   128
 71
    80
 72
    81
 73
    86
  0
VERTEX
  5
239
  8
0
 62
     7
 10
0.0
 20
0.0
 30
0.0
 70
   128
 71
    83
 72
    80
 73
    86
  0
VERTEX
  5
23A
  8
0
 62
     7
 10
0.0
 20
0.0
 30
0.0
 70
   128
 71
    70
 72
    86
 73
    81
  0
VERTEX
  5
23B
  8
0
 62
     7
 10
0.0
 20
0.0
 30
0.0
 70
   128
 71
    70
 72
    82
 73
    86
  0
VERTEX
  5
23C
  8
0
 62
     7
 10
0.0
 20
0.0
 30
0.0
 70
   128
 71
    83
 72
    79
 73
    80
  0
VERTEX
  5
23D
  8
0
 62
     7
 10
0.0
 20
0.0
 30
0.0
 70
   128
 71
    78
 72
    85
 73
    75
  0
VERTEX
  5
23E
  8
0
 62
     7
 10
0.0
 20
0.0
 30
0.0
 70
   128
 71
    84
 72
    76
 73
    83
  0
VERTEX
  5
23F
  8
0
 62
     7
 10
0.0
 20
0.0
 30
0.0
 70
   128
 71
    76
 72
    75
 73
    83
  0
VERTEX
  5
240
  8
0
 62
     7
 10
0.0
 20
0.0
 30
0.0
 70
   128
 71
    83
 72
    75
 73
    85
  0
VERTEX
  5
241
  8
0
 62
     7
 10
0.0
 20
0.0
 30
0.0
 70
   128
 71
    89
 72
    88
 73
    87
  0
VERTEX
  5
242
  8
0
 62
     7
 10
0.0
 20
0.0
 30
0.0
 70
   128
 71
    92
 72
    91
 73
    90
  0
VERTEX
  5
243
  8
0
 62
     7
 10
0.0
 20
0.0
 30
0.0
 70
   128
 71
    90
 72
    91
 73
    93
  0
VERTEX
  5
244
  8
0
 62
     7
 10
0.0
 20
0.0
 30
0.0
 70
   128
 71
    91
 72
    94
 73
    93
  0
VERTEX
  5
245
  8
0
 62
     7
 10
0.0
 20
0.0
 30
0.0
 70
   128
 71
    94
 72
    87
 73
    93
  0
VERTEX
  5
246
  8
0
 62
     7
 10
0.0
 20
0.0
 30
0.0
 70
   128
 71
    93
 72
    87
 73
    88
  0
VERTEX
  5
247
  8
0
 62
     7
 10
0.0
 20
0.0
 30
0.0
 70
   128
 71
    97
 72
    96
 73
    95
  0
VERTEX
  5
248
  8
0
 62
     7
 10
0.0
 20
0.0
 30
0.0
 70
   128
 71
   100
 72
    99
 73
    98
  0
VERTEX
  5
249
  8
0
 62
     7
 10
0.0
 20
0.0
 30
0.0
 70
   128
 71
    99
 72
   101
 73
    98
  0
VERTEX
  5
24A
  8
0
 62
     7
 10
0.0
 20
0.0
 30
0.0
 70
   128
 71
    98
 72
   101
 73
   102
  0
VERTEX
  5
24B
  8
0
 62
     7
 10
0.0
 20
0.0
 30
0.0
 70
   128
 71
   102
 72
   101
 73
    96
  0
VERTEX
  5
24C
  8
0
 62
     7
 10
0.0
 20
0.0
 30
0.0
 70
   128
 71
   101
 72
    95
 73
    96
  0
VERTEX
  5
24D
  8
0
 62
     7
 10
0.0
 20
0.0
 30
0.0
 70
   128
 71
   105
 72
   104
 73
   103
  0
VERTEX
  5
24E
  8
0
 62
     7
 10
0.0
 20
0.0
 30
0.0
 70
   128
 71
   108
 72
   107
 73
   106
  0
VERTEX
  5
24F
  8
0
 62
     7
 10
0.0
 20
0.0
 30
0.0
 70
   128
 71
   107
 72
   103
 73
   106
  0
VERTEX
  5
250
  8
0
 62
     7
 10
0.0
 20
0.0
 30
0.0
 70
   128
 71
   106
 72
   103
 73
   109
  0
VERTEX
  5
251
  8
0
 62
     7
 10
0.0
 20
0.0
 30
0.0
 70
   128
 71
   109
 72
   103
 73
   104
  0
VERTEX
  5
252
  8
0
 62
     7
 10
0.0
 20
0.0
 30
0.0
 70
   128
 71
   112
 72
   111
 73
   110
  0
VERTEX
  5
253
  8
0
 62
     7
 10
0.0
 20
0.0
 30
0.0
 70
   128
 71
   115
 72
   114
 73
   113
  0
VERTEX
  5
254
  8
0
 62
     7
 10
0.0
 20
0.0
 30
0.0
 70
   128
 71
   113
 72
   114
 73
   111
  0
VERTEX
  5
255
  8
0
 62
     7
 10
0.0
 20
0.0
 30
0.0
 70
   128
 71
   114
 72
   116
 73
   111
  0
VERTEX
  5
256
  8
0
 62
     7
 10
0.0
 20
0.0
 30
0.0
 70
   128
 71
   116
 72
   110
 73
   111
  0
VERTEX
  5
257
  8
0
 62
     7
 10
0.0
 20
0.0
 30
0.0
 70
   128
 71
   117
 72
   117
 73
   117
  0
VERTEX
  5
258
  8
0
 62
     7
 10
0.0
 20
0.0
 30
0.0
 70
   128
 71
   120
 72
   119
 73
   118
  0
VERTEX
  5
259
  8
0
 62
     7
 10
0.0
 20
0.0
 30
0.0
 70
   128
 71
   117
 72
   117
 73
   121
  0
VERTEX
  5
25A
  8
0
 62
     7
 10
0.0
 20
0.0
 30
0.0
 70
   128
 71
   122
 72
   121
 73
   119
  0
VERTEX
  5
25B
  8
0
 62
     7
 10
0.0
 20
0.0
 30
0.0
 70
   128
 71
   121
 72
   123
 73
   119
  0
VERTEX
  5
25C
  8
0
 62
     7
 10
0.0
 20
0.0
 30
0.0
 70
   128
 71
   121
 72
   117
 73
   123
  0
VERTEX
  5
25D
  8
0
 62
     7
 10
0.0
 20
0.0
 30
0.0
 70
   128
 71
   118
 72
   117
 73
   117
  0
VERTEX
  5
25E
  8
0
 62
     7
 10
0.0
 20
0.0
 30
0.0
 70
   128
 71
   118
 72
   123
 73
   117
  0
VERTEX
  5
25F
  8
0
 62
     7
 10
0.0
 20
0.0
 30
0.0
 70
   128
 71
   118
 72
   119
 73
   123
  0
VERTEX
  5
260
  8
0
 62
     7
 10
0.0
 20
0.0
 30
0.0
 70
   128
 71
   125
 72
   118
 73
   124
  0
VERTEX
  5
261
  8
0
 62
     7
 10
0.0
 20
0.0
 30
0.0
 70
   128
 71
   126
 72
   120
 73
   125
  0
VERTEX
  5
262
  8
0
 62
     7
 10
0.0
 20
0.0
 30
0.0
 70
   128
 71
   120
 72
   118
 73
   125
  0
VERTEX
  5
263
  8
0
 62
     7
 10
0.0
 20
0.0
 30
0.0
 70
   128
 71
   117
 72
   124
 73
   118
  0
VERTEX
  5
264
  8
0
 62
     7
 10
0.0
 20
0.0
 30
0.0
 70
   128
 71
   128
 72
   117
 73
   127
  0
VERTEX
  5
265
  8
0
 62
     7
 10
0.0
 20
0.0
 30
0.0
 70
   128
 71
   122
 72
   129
 73
   121
  0
VERTEX
  5
266
  8
0
 62
     7
 10
0.0
 20
0.0
 30
0.0
 70
   128
 71
   129
 72
   127
 73
   121
  0
VERTEX
  5
267
  8
0
 62
     7
 10
0.0
 20
0.0
 30
0.0
 70
   128
 71
   121
 72
   127
 73
   117
  0
VERTEX
  5
268
  8
0
 62
     7
 10
0.0
 20
0.0
 30
0.0
 70
   128
 71
   125
 72
   131
 73
   130
  0
VERTEX
  5
269
  8
0
 62
     7
 10
0.0
 20
0.0
 30
0.0
 70
   128
 71
   126
 72
   125
 73
   130
  0
VERTEX
  5
26A
  8
0
 62
     7
 10
0.0
 20
0.0
 30
0.0
 70
   128
 71
   124
 72
   124
 73
   125
  0
VERTEX
  5
26B
  8
0
 62
     7
 10
0.0
 20
0.0
 30
0.0
 70
   128
 71
   124
 72
   124
 73
   125
  0
VERTEX
  5
26C
  8
0
 62
     7
 10
0.0
 20
0.0
 30
0.0
 70
   128
 71
   124
 72
   132
 73
   124
  0
VERTEX
  5
26D
  8
0
 62
     7
 10
0.0
 20
0.0
 30
0.0
 70
   128
 71
   133
 72
   130
 73
   132
  0
VERTEX
  5
26E
  8
0
 62
     7
 10
0.0
 20
0.0
 30
0.0
 70
   128
 71
   132
 72
   131
 73
   124
  0
VERTEX
  5
26F
  8
0
 62
     7
 10
0.0
 20
0.0
 30
0.0
 70
   128
 71
   132
 72
   130
 73
   131
  0
VERTEX
  5
270
  8
0
 62
     7
 10
0.0
 20
0.0
 30
0.0
 70
   128
 71
   125
 72
   124
 73
   131
  0
VERTEX
  5
271
  8
0
 62
     7
 10
0.0
 20
0.0
 30
0.0
 70
   128
 71
   136
 72
   135
 73
   134
  0
VERTEX
  5
272
  8
0
 62
     7
 10
0.0
 20
0.0
 30
0.0
 70
   128
 71
   128
 72
   128
 73
   135
  0
VERTEX
  5
273
  8
0
 62
     7
 10
0.0
 20
0.0
 30
0.0
 70
   128
 71
   129
 72
   134
 73
   127
  0
VERTEX
  5
274
  8
0
 62
     7
 10
0.0
 20
0.0
 30
0.0
 70
   128
 71
   135
 72
   137
 73
   134
  0
VERTEX
  5
275
  8
0
 62
     7
 10
0.0
 20
0.0
 30
0.0
 70
   128
 71
   135
 72
   128
 73
   137
  0
VERTEX
  5
276
  8
0
 62
     7
 10
0.0
 20
0.0
 30
0.0
 70
   128
 71
   127
 72
   128
 73
   128
  0
VERTEX
  5
277
  8
0
 62
     7
 10
0.0
 20
0.0
 30
0.0
 70
   128
 71
   127
 72
   137
 73
   128
  0
VERTEX
  5
278
  8
0
 62
     7
 10
0.0
 20
0.0
 30
0.0
 70
   128
 71
   127
 72
   134
 73
   137
  0
VERTEX
  5
279
  8
0
 62
     7
 10
0.0
 20
0.0
 30
0.0
 70
   128
 71
   139
 72
   132
 73
   138
  0
VERTEX
  5
27A
  8
0
 62
     7
 10
0.0
 20
0.0
 30
0.0
 70
   128
 71
   133
 72
   132
 73
   140
  0
VERTEX
  5
27B
  8
0
 62
     7
 10
0.0
 20
0.0
 30
0.0
 70
   128
 71
   140
 72
   132
 73
   139
  0
VERTEX
  5
27C
  8
0
 62
     7
 10
0.0
 20
0.0
 30
0.0
 70
   128
 71
   124
 72
   138
 73
   132
  0
VERTEX
  5
27D
  8
0
 62
     7
 10
0.0
 20
0.0
 30
0.0
 70
   128
 71
   138
 72
   128
 73
   141
  0
VERTEX
  5
27E
  8
0
 62
     7
 10
0.0
 20
0.0
 30
0.0
 70
   128
 71
   142
 72
   141
 73
   136
  0
VERTEX
  5
27F
  8
0
 62
     7
 10
0.0
 20
0.0
 30
0.0
 70
   128
 71
   136
 72
   141
 73
   135
  0
VERTEX
  5
280
  8
0
 62
     7
 10
0.0
 20
0.0
 30
0.0
 70
   128
 71
   135
 72
   141
 73
   128
  0
VERTEX
  5
281
  8
0
 62
     7
 10
0.0
 20
0.0
 30
0.0
 70
   128
 71
   142
 72
   143
 73
   141
  0
VERTEX
  5
282
  8
0
 62
     7
 10
0.0
 20
0.0
 30
0.0
 70
   128
 71
   138
 72
   138
 73
   139
  0
VERTEX
  5
283
  8
0
 62
     7
 10
0.0
 20
0.0
 30
0.0
 70
   128
 71
   140
 72
   139
 73
   143
  0
VERTEX
  5
284
  8
0
 62
     7
 10
0.0
 20
0.0
 30
0.0
 70
   128
 71
   139
 72
   144
 73
   143
  0
VERTEX
  5
285
  8
0
 62
     7
 10
0.0
 20
0.0
 30
0.0
 70
   128
 71
   139
 72
   138
 73
   144
  0
VERTEX
  5
286
  8
0
 62
     7
 10
0.0
 20
0.0
 30
0.0
 70
   128
 71
   138
 72
   138
 73
   141
  0
VERTEX
  5
287
  8
0
 62
     7
 10
0.0
 20
0.0
 30
0.0
 70
   128
 71
   141
 72
   138
 73
   138
  0
VERTEX
  5
288
  8
0
 62
     7
 10
0.0
 20
0.0
 30
0.0
 70
   128
 71
   141
 72
   144
 73
   138
  0
VERTEX
  5
289
  8
0
 62
     7
 10
0.0
 20
0.0
 30
0.0
 70
   128
 71
   141
 72
   143
 73
   144
  0
VERTEX
  5
28A
  8
0
 62
     7
 10
0.0
 20
0.0
 30
0.0
 70
   128
 71
   147
 72
   146
 73
   145
  0
VERTEX
  5
28B
  8
0
 62
     7
 10
0.0
 20
0.0
 30
0.0
 70
   128
 71
   149
 72
   148
 73
   147
  0
VERTEX
  5
28C
  8
0
 62
     7
 10
0.0
 20
0.0
 30
0.0
 70
   128
 71
   148
 72
   146
 73
   147
  0
VERTEX
  5
28D
  8
0
 62
     7
 10
0.0
 20
0.0
 30
0.0
 70
   128
 71
   150
 72
   145
 73
   146
  0
VERTEX
  5
28E
  8
0
 62
     7
 10
0.0
 20
0.0
 30
0.0
 70
   128
 71
   145
 72
   145
 73
   145
  0
VERTEX
  5
28F
  8
0
 62
     7
 10
0.0
 20
0.0
 30
0.0
 70
   128
 71
   153
 72
   152
 73
   151
  0
VERTEX
  5
290
  8
0
 62
     7
 10
0.0
 20
0.0
 30
0.0
 70
   128
 71
   145
 72
   145
 73
   147
  0
VERTEX
  5
291
  8
0
 62
     7
 10
0.0
 20
0.0
 30
0.0
 70
   128
 71
   149
 72
   147
 73
   152
  0
VERTEX
  5
292
  8
0
 62
     7
 10
0.0
 20
0.0
 30
0.0
 70
   128
 71
   147
 72
   154
 73
   152
  0
VERTEX
  5
293
  8
0
 62
     7
 10
0.0
 20
0.0
 30
0.0
 70
   128
 71
   147
 72
   145
 73
   154
  0
VERTEX
  5
294
  8
0
 62
     7
 10
0.0
 20
0.0
 30
0.0
 70
   128
 71
   151
 72
   145
 73
   145
  0
VERTEX
  5
295
  8
0
 62
     7
 10
0.0
 20
0.0
 30
0.0
 70
   128
 71
   151
 72
   154
 73
   145
  0
VERTEX
  5
296
  8
0
 62
     7
 10
0.0
 20
0.0
 30
0.0
 70
   128
 71
   151
 72
   152
 73
   154
  0
VERTEX
  5
297
  8
0
 62
     7
 10
0.0
 20
0.0
 30
0.0
 70
   128
 71
   157
 72
   156
 73
   155
  0
VERTEX
  5
298
  8
0
 62
     7
 10
0.0
 20
0.0
 30
0.0
 70
   128
 71
   150
 72
   150
 73
   156
  0
VERTEX
  5
299
  8
0
 62
     7
 10
0.0
 20
0.0
 30
0.0
 70
   128
 71
   148
 72
   155
 73
   146
  0
VERTEX
  5
29A
  8
0
 62
     7
 10
0.0
 20
0.0
 30
0.0
 70
   128
 71
   156
 72
   158
 73
   155
  0
VERTEX
  5
29B
  8
0
 62
     7
 10
0.0
 20
0.0
 30
0.0
 70
   128
 71
   156
 72
   150
 73
   158
  0
VERTEX
  5
29C
  8
0
 62
     7
 10
0.0
 20
0.0
 30
0.0
 70
   128
 71
   146
 72
   150
 73
   150
  0
VERTEX
  5
29D
  8
0
 62
     7
 10
0.0
 20
0.0
 30
0.0
 70
   128
 71
   146
 72
   158
 73
   150
  0
VERTEX
  5
29E
  8
0
 62
     7
 10
0.0
 20
0.0
 30
0.0
 70
   128
 71
   146
 72
   155
 73
   158
  0
VERTEX
  5
29F
  8
0
 62
     7
 10
0.0
 20
0.0
 30
0.0
 70
   128
 71
   160
 72
   151
 73
   159
  0
VERTEX
  5
2A0
  8
0
 62
     7
 10
0.0
 20
0.0
 30
0.0
 70
   128
 71
   161
 72
   153
 73
   160
  0
VERTEX
  5
2A1
  8
0
 62
     7
 10
0.0
 20
0.0
 30
0.0
 70
   128
 71
   153
 72
   151
 73
   160
  0
VERTEX
  5
2A2
  8
0
 62
     7
 10
0.0
 20
0.0
 30
0.0
 70
   128
 71
   145
 72
   159
 73
   151
  0
VERTEX
  5
2A3
  8
0
 62
     7
 10
0.0
 20
0.0
 30
0.0
 70
   128
 71
   150
 72
   156
 73
   162
  0
VERTEX
  5
2A4
  8
0
 62
     7
 10
0.0
 20
0.0
 30
0.0
 70
   128
 71
   157
 72
   163
 73
   156
  0
VERTEX
  5
2A5
  8
0
 62
     7
 10
0.0
 20
0.0
 30
0.0
 70
   128
 71
   163
 72
   164
 73
   156
  0
VERTEX
  5
2A6
  8
0
 62
     7
 10
0.0
 20
0.0
 30
0.0
 70
   128
 71
   164
 72
   162
 73
   156
  0
VERTEX
  5
2A7
  8
0
 62
     7
 10
0.0
 20
0.0
 30
0.0
 70
   128
 71
   160
 72
   166
 73
   165
  0
VERTEX
  5
2A8
  8
0
 62
     7
 10
0.0
 20
0.0
 30
0.0
 70
   128
 71
   161
 72
   160
 73
   165
  0
VERTEX
  5
2A9
  8
0
 62
     7
 10
0.0
 20
0.0
 30
0.0
 70
   128
 71
   159
 72
   167
 73
   159
  0
VERTEX
  5
2AA
  8
0
 62
     7
 10
0.0
 20
0.0
 30
0.0
 70
   128
 71
   159
 72
   159
 73
   160
  0
VERTEX
  5
2AB
  8
0
 62
     7
 10
0.0
 20
0.0
 30
0.0
 70
   128
 71
   159
 72
   159
 73
   160
  0
VERTEX
  5
2AC
  8
0
 62
     7
 10
0.0
 20
0.0
 30
0.0
 70
   128
 71
   168
 72
   165
 73
   167
  0
VERTEX
  5
2AD
  8
0
 62
     7
 10
0.0
 20
0.0
 30
0.0
 70
   128
 71
   167
 72
   166
 73
   159
  0
VERTEX
  5
2AE
  8
0
 62
     7
 10
0.0
 20
0.0
 30
0.0
 70
   128
 71
   167
 72
   165
 73
   166
  0
VERTEX
  5
2AF
  8
0
 62
     7
 10
0.0
 20
0.0
 30
0.0
 70
   128
 71
   160
 72
   159
 73
   166
  0
VERTEX
  5
2B0
  8
0
 62
     7
 10
0.0
 20
0.0
 30
0.0
 70
   128
 71
   163
 72
   169
 73
   164
  0
VERTEX
  5
2B1
  8
0
 62
     7
 10
0.0
 20
0.0
 30
0.0
 70
   128
 71
   162
 72
   162
 73
   170
  0
VERTEX
  5
2B2
  8
0
 62
     7
 10
0.0
 20
0.0
 30
0.0
 70
   128
 71
   171
 72
   170
 73
   169
  0
VERTEX
  5
2B3
  8
0
 62
     7
 10
0.0
 20
0.0
 30
0.0
 70
   128
 71
   170
 72
   172
 73
   169
  0
VERTEX
  5
2B4
  8
0
 62
     7
 10
0.0
 20
0.0
 30
0.0
 70
   128
 71
   170
 72
   162
 73
   172
  0
VERTEX
  5
2B5
  8
0
 62
     7
 10
0.0
 20
0.0
 30
0.0
 70
   128
 71
   162
 72
   162
 73
   164
  0
VERTEX
  5
2B6
  8
0
 62
     7
 10
0.0
 20
0.0
 30
0.0
 70
   128
 71
   164
 72
   162
 73
   162
  0
VERTEX
  5
2B7
  8
0
 62
     7
 10
0.0
 20
0.0
 30
0.0
 70
   128
 71
   164
 72
   172
 73
   162
  0
VERTEX
  5
2B8
  8
0
 62
     7
 10
0.0
 20
0.0
 30
0.0
 70
   128
 71
   164
 72
   169
 73
   172
  0
VERTEX
  5
2B9
  8
0
 62
     7
 10
0.0
 20
0.0
 30
0.0
 70
   128
 71
   159
 72
   162
 73
   167
  0
VERTEX
  5
2BA
  8
0
 62
     7
 10
0.0
 20
0.0
 30
0.0
 70
   128
 71
   171
 72
   168
 73
   170
  0
VERTEX
  5
2BB
  8
0
 62
     7
 10
0.0
 20
0.0
 30
0.0
 70
   128
 71
   168
 72
   167
 73
   170
  0
VERTEX
  5
2BC
  8
0
 62
     7
 10
0.0
 20
0.0
 30
0.0
 70
   128
 71
   170
 72
   167
 73
   162
  0
VERTEX
  5
2BD
  8
0
 62
     7
 10
0.0
 20
0.0
 30
0.0
 70
   128
 71
    58
 72
    55
 73
   163
  0
VERTEX
  5
2BE
  8
0
 62
     7
 10
0.0
 20
0.0
 30
0.0
 70
   128
 71
    50
 72
   171
 73
    60
  0
VERTEX
  5
2BF
  8
0
 62
     7
 10
0.0
 20
0.0
 30
0.0
 70
   128
 71
   171
 72
   169
 73
    60
  0
VERTEX
  5
2C0
  8
0
 62
     7
 10
0.0
 20
0.0
 30
0.0
 70
   128
 71
    60
 72
   169
 73
    55
  0
VERTEX
  5
2C1
  8
0
 62
     7
 10
0.0
 20
0.0
 30
0.0
 70
   128
 71
   169
 72
   163
 73
    55
  0
VERTEX
  5
2C2
  8
0
 62
     7
 10
0.0
 20
0.0
 30
0.0
 70
   128
 71
   153
 72
    68
 73
   152
  0
VERTEX
  5
2C3
  8
0
 62
     7
 10
0.0
 20
0.0
 30
0.0
 70
   128
 71
    76
 72
   149
 73
    74
  0
VERTEX
  5
2C4
  8
0
 62
     7
 10
0.0
 20
0.0
 30
0.0
 70
   128
 71
   149
 72
   152
 73
    74
  0
VERTEX
  5
2C5
  8
0
 62
     7
 10
0.0
 20
0.0
 30
0.0
 70
   128
 71
    74
 72
   152
 73
    68
  0
VERTEX
  5
2C6
  8
0
 62
     7
 10
0.0
 20
0.0
 30
0.0
 70
   128
 71
    51
 72
    54
 73
   168
  0
VERTEX
  5
2C7
  8
0
 62
     7
 10
0.0
 20
0.0
 30
0.0
 70
   128
 71
   161
 72
   165
 73
    67
  0
VERTEX
  5
2C8
  8
0
 62
     7
 10
0.0
 20
0.0
 30
0.0
 70
   128
 71
    67
 72
   165
 73
   173
  0
VERTEX
  5
2C9
  8
0
 62
     7
 10
0.0
 20
0.0
 30
0.0
 70
   128
 71
   173
 72
   165
 73
    54
  0
VERTEX
  5
2CA
  8
0
 62
     7
 10
0.0
 20
0.0
 30
0.0
 70
   128
 71
   165
 72
   168
 73
    54
  0
VERTEX
  5
2CB
  8
0
 62
     7
 10
0.0
 20
0.0
 30
0.0
 70
   128
 71
   136
 72
   134
 73
    28
  0
VERTEX
  5
2CC
  8
0
 62
     7
 10
0.0
 20
0.0
 30
0.0
 70
   128
 71
    41
 72
    39
 73
   129
  0
VERTEX
  5
2CD
  8
0
 62
     7
 10
0.0
 20
0.0
 30
0.0
 70
   128
 71
   129
 72
    39
 73
   134
  0
VERTEX
  5
2CE
  8
0
 62
     7
 10
0.0
 20
0.0
 30
0.0
 70
   128
 71
    39
 72
    28
 73
   134
  0
VERTEX
  5
2CF
  8
0
 62
     7
 10
0.0
 20
0.0
 30
0.0
 70
   128
 71
     7
 72
   140
 73
    17
  0
VERTEX
  5
2D0
  8
0
 62
     7
 10
0.0
 20
0.0
 30
0.0
 70
   128
 71
   142
 72
    15
 73
   143
  0
VERTEX
  5
2D1
  8
0
 62
     7
 10
0.0
 20
0.0
 30
0.0
 70
   128
 71
    15
 72
    12
 73
   143
  0
VERTEX
  5
2D2
  8
0
 62
     7
 10
0.0
 20
0.0
 30
0.0
 70
   128
 71
    12
 72
    17
 73
   143
  0
VERTEX
  5
2D3
  8
0
 62
     7
 10
0.0
 20
0.0
 30
0.0
 70
   128
 71
   143
 72
    17
 73
   140
  0
VERTEX
  5
2D4
  8
0
 62
     7
 10
0.0
 20
0.0
 30
0.0
 70
   128
 71
   120
 72
    24
 73
   119
  0
VERTEX
  5
2D5
  8
0
 62
     7
 10
0.0
 20
0.0
 30
0.0
 70
   128
 71
    33
 72
   122
 73
    31
  0
VERTEX
  5
2D6
  8
0
 62
     7
 10
0.0
 20
0.0
 30
0.0
 70
   128
 71
   122
 72
   119
 73
    31
  0
VERTEX
  5
2D7
  8
0
 62
     7
 10
0.0
 20
0.0
 30
0.0
 70
   128
 71
    31
 72
   119
 73
    24
  0
VERTEX
  5
2D8
  8
0
 62
     7
 10
0.0
 20
0.0
 30
0.0
 70
   128
 71
     8
 72
    11
 73
   133
  0
VERTEX
  5
2D9
  8
0
 62
     7
 10
0.0
 20
0.0
 30
0.0
 70
   128
 71
   126
 72
   130
 73
    26
  0
VERTEX
  5
2DA
  8
0
 62
     7
 10
0.0
 20
0.0
 30
0.0
 70
   128
 71
    26
 72
   130
 73
   174
  0
VERTEX
  5
2DB
  8
0
 62
     7
 10
0.0
 20
0.0
 30
0.0
 70
   128
 71
   174
 72
   130
 73
    11
  0
VERTEX
  5
2DC
  8
0
 62
     7
 10
0.0
 20
0.0
 30
0.0
 70
   128
 71
   130
 72
   133
 73
    11
  0
VERTEX
  5
2DD
  8
0
 62
     7
 10
0.0
 20
0.0
 30
0.0
 70
   128
 71
   157
 72
   155
 73
    71
  0
VERTEX
  5
2DE
  8
0
 62
     7
 10
0.0
 20
0.0
 30
0.0
 70
   128
 71
    84
 72
    82
 73
   148
  0
VERTEX
  5
2DF
  8
0
 62
     7
 10
0.0
 20
0.0
 30
0.0
 70
   128
 71
   148
 72
    82
 73
   155
  0
VERTEX
  5
2E0
  8
0
 62
     7
 10
0.0
 20
0.0
 30
0.0
 70
   128
 71
    82
 72
    71
 73
   155
  0
VERTEX
  5
2E1
  8
0
 62
     7
 10
0.0
 20
0.0
 30
0.0
 70
   128
 71
   161
 72
    67
 73
   153
  0
VERTEX
  5
2E2
  8
0
 62
     7
 10
0.0
 20
0.0
 30
0.0
 70
   128
 71
    68
 72
   153
 73
    67
  0
VERTEX
  5
2E3
  8
0
 62
     7
 10
0.0
 20
0.0
 30
0.0
 70
   128
 71
   163
 72
   157
 73
    58
  0
VERTEX
  5
2E4
  8
0
 62
     7
 10
0.0
 20
0.0
 30
0.0
 70
   128
 71
    71
 72
    58
 73
   157
  0
VERTEX
  5
2E5
  8
0
 62
     7
 10
0.0
 20
0.0
 30
0.0
 70
   128
 71
   149
 72
    76
 73
   148
  0
VERTEX
  5
2E6
  8
0
 62
     7
 10
0.0
 20
0.0
 30
0.0
 70
   128
 71
    84
 72
   148
 73
    76
  0
VERTEX
  5
2E7
  8
0
 62
     7
 10
0.0
 20
0.0
 30
0.0
 70
   128
 71
   168
 72
   171
 73
    51
  0
VERTEX
  5
2E8
  8
0
 62
     7
 10
0.0
 20
0.0
 30
0.0
 70
   128
 71
    50
 72
    51
 73
   171
  0
VERTEX
  5
2E9
  8
0
 62
     7
 10
0.0
 20
0.0
 30
0.0
 70
   128
 71
   162
 72
   159
 73
   150
  0
VERTEX
  5
2EA
  8
0
 62
     7
 10
0.0
 20
0.0
 30
0.0
 70
   128
 71
   145
 72
   150
 73
   159
  0
VERTEX
  5
2EB
  8
0
 62
     7
 10
0.0
 20
0.0
 30
0.0
 70
   128
 71
   126
 72
    26
 73
   120
  0
VERTEX
  5
2EC
  8
0
 62
     7
 10
0.0
 20
0.0
 30
0.0
 70
   128
 71
    24
 72
   120
 73
    26
  0
VERTEX
  5
2ED
  8
0
 62
     7
 10
0.0
 20
0.0
 30
0.0
 70
   128
 71
   142
 72
   136
 73
    15
  0
VERTEX
  5
2EE
  8
0
 62
     7
 10
0.0
 20
0.0
 30
0.0
 70
   128
 71
    28
 72
    15
 73
   136
  0
VERTEX
  5
2EF
  8
0
 62
     7
 10
0.0
 20
0.0
 30
0.0
 70
   128
 71
   133
 72
   140
 73
     8
  0
VERTEX
  5
2F0
  8
0
 62
     7
 10
0.0
 20
0.0
 30
0.0
 70
   128
 71
     7
 72
     8
 73
   140
  0
VERTEX
  5
2F1
  8
0
 62
     7
 10
0.0
 20
0.0
 30
0.0
 70
   128
 71
   138
 72
   124
 73
   128
  0
VERTEX
  5
2F2
  8
0
 62
     7
 10
0.0
 20
0.0
 30
0.0
 70
   128
 71
   117
 72
   128
 73
   124
  0
VERTEX
  5
2F3
  8
0
 62
     7
 10
0.0
 20
0.0
 30
0.0
 70
   128
 71
   122
 72
    33
 73
   129
  0
VERTEX
  5
2F4
  8
0
 62
     7
 10
0.0
 20
0.0
 30
0.0
 70
   128
 71
    41
 72
   129
 73
    33
  0
VERTEX
  5
2F5
  8
0
 62
     7
 10
0.0
 20
0.0
 30
0.0
 70
   128
 71
   177
 72
   176
 73
   175
  0
VERTEX
  5
2F6
  8
0
 62
     7
 10
0.0
 20
0.0
 30
0.0
 70
   128
 71
    90
 72
   175
 73
    92
  0
VERTEX
  5
2F7
  8
0
 62
     7
 10
0.0
 20
0.0
 30
0.0
 70
   128
 71
    92
 72
   175
 73
   176
  0
VERTEX
  5
2F8
  8
0
 62
     7
 10
0.0
 20
0.0
 30
0.0
 70
   128
 71
   180
 72
   179
 73
   178
  0
VERTEX
  5
2F9
  8
0
 62
     7
 10
0.0
 20
0.0
 30
0.0
 70
   128
 71
   181
 72
   178
 73
   179
  0
VERTEX
  5
2FA
  8
0
 62
     7
 10
0.0
 20
0.0
 30
0.0
 70
   128
 71
   108
 72
   182
 73
   107
  0
VERTEX
  5
2FB
  8
0
 62
     7
 10
0.0
 20
0.0
 30
0.0
 70
   128
 71
   184
 72
   183
 73
   182
  0
VERTEX
  5
2FC
  8
0
 62
     7
 10
0.0
 20
0.0
 30
0.0
 70
   128
 71
   183
 72
   107
 73
   182
  0
VERTEX
  5
2FD
  8
0
 62
     7
 10
0.0
 20
0.0
 30
0.0
 70
   128
 71
   187
 72
   186
 73
   185
  0
VERTEX
  5
2FE
  8
0
 62
     7
 10
0.0
 20
0.0
 30
0.0
 70
   128
 71
   188
 72
   185
 73
   186
  0
VERTEX
  5
2FF
  8
0
 62
     7
 10
0.0
 20
0.0
 30
0.0
 70
   128
 71
   191
 72
   190
 73
   189
  0
VERTEX
  5
300
  8
0
 62
     7
 10
0.0
 20
0.0
 30
0.0
 70
   128
 71
   192
 72
   189
 73
   190
  0
VERTEX
  5
301
  8
0
 62
     7
 10
0.0
 20
0.0
 30
0.0
 70
   128
 71
   195
 72
   194
 73
   193
  0
VERTEX
  5
302
  8
0
 62
     7
 10
0.0
 20
0.0
 30
0.0
 70
   128
 71
   196
 72
   193
 73
   194
  0
VERTEX
  5
303
  8
0
 62
     7
 10
0.0
 20
0.0
 30
0.0
 70
   128
 71
   187
 72
   197
 73
   186
  0
VERTEX
  5
304
  8
0
 62
     7
 10
0.0
 20
0.0
 30
0.0
 70
   128
 71
   189
 72
   192
 73
   197
  0
VERTEX
  5
305
  8
0
 62
     7
 10
0.0
 20
0.0
 30
0.0
 70
   128
 71
   192
 72
   198
 73
   197
  0
VERTEX
  5
306
  8
0
 62
     7
 10
0.0
 20
0.0
 30
0.0
 70
   128
 71
   198
 72
   186
 73
   197
  0
VERTEX
  5
307
  8
0
 62
     7
 10
0.0
 20
0.0
 30
0.0
 70
   128
 71
   193
 72
   199
 73
   195
  0
VERTEX
  5
308
  8
0
 62
     7
 10
0.0
 20
0.0
 30
0.0
 70
   128
 71
   185
 72
   188
 73
   199
  0
VERTEX
  5
309
  8
0
 62
     7
 10
0.0
 20
0.0
 30
0.0
 70
   128
 71
   188
 72
   200
 73
   199
  0
VERTEX
  5
30A
  8
0
 62
     7
 10
0.0
 20
0.0
 30
0.0
 70
   128
 71
   200
 72
   195
 73
   199
  0
VERTEX
  5
30B
  8
0
 62
     7
 10
0.0
 20
0.0
 30
0.0
 70
   128
 71
   202
 72
   104
 73
   201
  0
VERTEX
  5
30C
  8
0
 62
     7
 10
0.0
 20
0.0
 30
0.0
 70
   128
 71
   105
 72
   201
 73
   104
  0
VERTEX
  5
30D
  8
0
 62
     7
 10
0.0
 20
0.0
 30
0.0
 70
   128
 71
   204
 72
   203
 73
    89
  0
VERTEX
  5
30E
  8
0
 62
     7
 10
0.0
 20
0.0
 30
0.0
 70
   128
 71
    88
 72
    89
 73
   203
  0
VERTEX
  5
30F
  8
0
 62
     7
 10
0.0
 20
0.0
 30
0.0
 70
   128
 71
   207
 72
   206
 73
   205
  0
VERTEX
  5
310
  8
0
 62
     7
 10
0.0
 20
0.0
 30
0.0
 70
   128
 71
   201
 72
   208
 73
   202
  0
VERTEX
  5
311
  8
0
 62
     7
 10
0.0
 20
0.0
 30
0.0
 70
   128
 71
   202
 72
   208
 73
   206
  0
VERTEX
  5
312
  8
0
 62
     7
 10
0.0
 20
0.0
 30
0.0
 70
   128
 71
   208
 72
   205
 73
   206
  0
VERTEX
  5
313
  8
0
 62
     7
 10
0.0
 20
0.0
 30
0.0
 70
   128
 71
   204
 72
   209
 73
   203
  0
VERTEX
  5
314
  8
0
 62
     7
 10
0.0
 20
0.0
 30
0.0
 70
   128
 71
   212
 72
   211
 73
   210
  0
VERTEX
  5
315
  8
0
 62
     7
 10
0.0
 20
0.0
 30
0.0
 70
   128
 71
   210
 72
   211
 73
   209
  0
VERTEX
  5
316
  8
0
 62
     7
 10
0.0
 20
0.0
 30
0.0
 70
   128
 71
   211
 72
   203
 73
   209
  0
VERTEX
  5
317
  8
0
 62
     7
 10
0.0
 20
0.0
 30
0.0
 70
   128
 71
   210
 72
   207
 73
   212
  0
VERTEX
  5
318
  8
0
 62
     7
 10
0.0
 20
0.0
 30
0.0
 70
   128
 71
   205
 72
   212
 73
   207
  0
VERTEX
  5
319
  8
0
 62
     7
 10
0.0
 20
0.0
 30
0.0
 70
   128
 71
   183
 72
   184
 73
   213
  0
VERTEX
  5
31A
  8
0
 62
     7
 10
0.0
 20
0.0
 30
0.0
 70
   128
 71
   215
 72
   213
 73
   214
  0
VERTEX
  5
31B
  8
0
 62
     7
 10
0.0
 20
0.0
 30
0.0
 70
   128
 71
   214
 72
   213
 73
   216
  0
VERTEX
  5
31C
  8
0
 62
     7
 10
0.0
 20
0.0
 30
0.0
 70
   128
 71
   216
 72
   213
 73
   184
  0
VERTEX
  5
31D
  8
0
 62
     7
 10
0.0
 20
0.0
 30
0.0
 70
   128
 71
   181
 72
   179
 73
   217
  0
VERTEX
  5
31E
  8
0
 62
     7
 10
0.0
 20
0.0
 30
0.0
 70
   128
 71
   175
 72
   217
 73
   177
  0
VERTEX
  5
31F
  8
0
 62
     7
 10
0.0
 20
0.0
 30
0.0
 70
   128
 71
   177
 72
   217
 73
   218
  0
VERTEX
  5
320
  8
0
 62
     7
 10
0.0
 20
0.0
 30
0.0
 70
   128
 71
   218
 72
   217
 73
   179
  0
VERTEX
  5
321
  8
0
 62
     7
 10
0.0
 20
0.0
 30
0.0
 70
   128
 71
    52
 72
    48
 73
   189
  0
VERTEX
  5
322
  8
0
 62
     7
 10
0.0
 20
0.0
 30
0.0
 70
   128
 71
   203
 72
   193
 73
    88
  0
VERTEX
  5
323
  8
0
 62
     7
 10
0.0
 20
0.0
 30
0.0
 70
   128
 71
   220
 72
    81
 73
   219
  0
VERTEX
  5
324
  8
0
 62
     7
 10
0.0
 20
0.0
 30
0.0
 70
   128
 71
    81
 72
   220
 73
    72
  0
VERTEX
  5
325
  8
0
 62
     7
 10
0.0
 20
0.0
 30
0.0
 70
   128
 71
   220
 72
   113
 73
    72
  0
VERTEX
  5
326
  8
0
 62
     7
 10
0.0
 20
0.0
 30
0.0
 70
   128
 71
    72
 72
   113
 73
    63
  0
VERTEX
  5
327
  8
0
 62
     7
 10
0.0
 20
0.0
 30
0.0
 70
   128
 71
   113
 72
   111
 73
    63
  0
VERTEX
  5
328
  8
0
 62
     7
 10
0.0
 20
0.0
 30
0.0
 70
   128
 71
   175
 72
   221
 73
   217
  0
VERTEX
  5
329
  8
0
 62
     7
 10
0.0
 20
0.0
 30
0.0
 70
   128
 71
   221
 72
     9
 73
   217
  0
VERTEX
  5
32A
  8
0
 62
     7
 10
0.0
 20
0.0
 30
0.0
 70
   128
 71
   217
 72
     9
 73
   181
  0
VERTEX
  5
32B
  8
0
 62
     7
 10
0.0
 20
0.0
 30
0.0
 70
   128
 71
   193
 72
   203
 73
   199
  0
VERTEX
  5
32C
  8
0
 62
     7
 10
0.0
 20
0.0
 30
0.0
 70
   128
 71
   203
 72
   211
 73
   199
  0
VERTEX
  5
32D
  8
0
 62
     7
 10
0.0
 20
0.0
 30
0.0
 70
   128
 71
   211
 72
   212
 73
   199
  0
VERTEX
  5
32E
  8
0
 62
     7
 10
0.0
 20
0.0
 30
0.0
 70
   128
 71
   199
 72
   212
 73
   185
  0
VERTEX
  5
32F
  8
0
 62
     7
 10
0.0
 20
0.0
 30
0.0
 70
   128
 71
   212
 72
   205
 73
   185
  0
VERTEX
  5
330
  8
0
 62
     7
 10
0.0
 20
0.0
 30
0.0
 70
   128
 71
   185
 72
   205
 73
   187
  0
VERTEX
  5
331
  8
0
 62
     7
 10
0.0
 20
0.0
 30
0.0
 70
   128
 71
   187
 72
   205
 73
   197
  0
VERTEX
  5
332
  8
0
 62
     7
 10
0.0
 20
0.0
 30
0.0
 70
   128
 71
   205
 72
   208
 73
   197
  0
VERTEX
  5
333
  8
0
 62
     7
 10
0.0
 20
0.0
 30
0.0
 70
   128
 71
   208
 72
   201
 73
   197
  0
VERTEX
  5
334
  8
0
 62
     7
 10
0.0
 20
0.0
 30
0.0
 70
   128
 71
   197
 72
   201
 73
   189
  0
VERTEX
  5
335
  8
0
 62
     7
 10
0.0
 20
0.0
 30
0.0
 70
   128
 71
   201
 72
   105
 73
   189
  0
VERTEX
  5
336
  8
0
 62
     7
 10
0.0
 20
0.0
 30
0.0
 70
   128
 71
    81
 72
    79
 73
   219
  0
VERTEX
  5
337
  8
0
 62
     7
 10
0.0
 20
0.0
 30
0.0
 70
   128
 71
   219
 72
    79
 73
   222
  0
VERTEX
  5
338
  8
0
 62
     7
 10
0.0
 20
0.0
 30
0.0
 70
   128
 71
   221
 72
   175
 73
    21
  0
VERTEX
  5
339
  8
0
 62
     7
 10
0.0
 20
0.0
 30
0.0
 70
   128
 71
   175
 72
    90
 73
    21
  0
VERTEX
  5
33A
  8
0
 62
     7
 10
0.0
 20
0.0
 30
0.0
 70
   128
 71
    21
 72
    90
 73
    23
  0
VERTEX
  5
33B
  8
0
 62
     7
 10
0.0
 20
0.0
 30
0.0
 70
   128
 71
    90
 72
    93
 73
    23
  0
VERTEX
  5
33C
  8
0
 62
     7
 10
0.0
 20
0.0
 30
0.0
 70
   128
 71
     9
 72
     5
 73
   181
  0
VERTEX
  5
33D
  8
0
 62
     7
 10
0.0
 20
0.0
 30
0.0
 70
   128
 71
   181
 72
     5
 73
   178
  0
VERTEX
  5
33E
  8
0
 62
     7
 10
0.0
 20
0.0
 30
0.0
 70
   128
 71
     5
 72
     4
 73
   178
  0
VERTEX
  5
33F
  8
0
 62
     7
 10
0.0
 20
0.0
 30
0.0
 70
   128
 71
     4
 72
    19
 73
   178
  0
VERTEX
  5
340
  8
0
 62
     7
 10
0.0
 20
0.0
 30
0.0
 70
   128
 71
   178
 72
    19
 73
   223
  0
VERTEX
  5
341
  8
0
 62
     7
 10
0.0
 20
0.0
 30
0.0
 70
   128
 71
    19
 72
    18
 73
   223
  0
VERTEX
  5
342
  8
0
 62
     7
 10
0.0
 20
0.0
 30
0.0
 70
   128
 71
   223
 72
    18
 73
   224
  0
VERTEX
  5
343
  8
0
 62
     7
 10
0.0
 20
0.0
 30
0.0
 70
   128
 71
    18
 72
    20
 73
   224
  0
VERTEX
  5
344
  8
0
 62
     7
 10
0.0
 20
0.0
 30
0.0
 70
   128
 71
   224
 72
    20
 73
    99
  0
VERTEX
  5
345
  8
0
 62
     7
 10
0.0
 20
0.0
 30
0.0
 70
   128
 71
    20
 72
    27
 73
    99
  0
VERTEX
  5
346
  8
0
 62
     7
 10
0.0
 20
0.0
 30
0.0
 70
   128
 71
    99
 72
    27
 73
   101
  0
VERTEX
  5
347
  8
0
 62
     7
 10
0.0
 20
0.0
 30
0.0
 70
   128
 71
    79
 72
    85
 73
   222
  0
VERTEX
  5
348
  8
0
 62
     7
 10
0.0
 20
0.0
 30
0.0
 70
   128
 71
   222
 72
    85
 73
   215
  0
VERTEX
  5
349
  8
0
 62
     7
 10
0.0
 20
0.0
 30
0.0
 70
   128
 71
    85
 72
    78
 73
   215
  0
VERTEX
  5
34A
  8
0
 62
     7
 10
0.0
 20
0.0
 30
0.0
 70
   128
 71
    78
 72
    77
 73
   215
  0
VERTEX
  5
34B
  8
0
 62
     7
 10
0.0
 20
0.0
 30
0.0
 70
   128
 71
   215
 72
    77
 73
   213
  0
VERTEX
  5
34C
  8
0
 62
     7
 10
0.0
 20
0.0
 30
0.0
 70
   128
 71
   213
 72
    77
 73
   183
  0
VERTEX
  5
34D
  8
0
 62
     7
 10
0.0
 20
0.0
 30
0.0
 70
   128
 71
    77
 72
    66
 73
   183
  0
VERTEX
  5
34E
  8
0
 62
     7
 10
0.0
 20
0.0
 30
0.0
 70
   128
 71
   183
 72
    66
 73
   107
  0
VERTEX
  5
34F
  8
0
 62
     7
 10
0.0
 20
0.0
 30
0.0
 70
   128
 71
    66
 72
    64
 73
   107
  0
VERTEX
  5
350
  8
0
 62
     7
 10
0.0
 20
0.0
 30
0.0
 70
   128
 71
   107
 72
    64
 73
   103
  0
VERTEX
  5
351
  8
0
 62
     7
 10
0.0
 20
0.0
 30
0.0
 70
   128
 71
    27
 72
    38
 73
   101
  0
VERTEX
  5
352
  8
0
 62
     7
 10
0.0
 20
0.0
 30
0.0
 70
   128
 71
   101
 72
    38
 73
    95
  0
VERTEX
  5
353
  8
0
 62
     7
 10
0.0
 20
0.0
 30
0.0
 70
   128
 71
    64
 72
   225
 73
   103
  0
VERTEX
  5
354
  8
0
 62
     7
 10
0.0
 20
0.0
 30
0.0
 70
   128
 71
   103
 72
   225
 73
   105
  0
VERTEX
  5
355
  8
0
 62
     7
 10
0.0
 20
0.0
 30
0.0
 70
   128
 71
   111
 72
   112
 73
    63
  0
VERTEX
  5
356
  8
0
 62
     7
 10
0.0
 20
0.0
 30
0.0
 70
   128
 71
    63
 72
   112
 73
    61
  0
VERTEX
  5
357
  8
0
 62
     7
 10
0.0
 20
0.0
 30
0.0
 70
   128
 71
    23
 72
    93
 73
    34
  0
VERTEX
  5
358
  8
0
 62
     7
 10
0.0
 20
0.0
 30
0.0
 70
   128
 71
    93
 72
    88
 73
    34
  0
VERTEX
  5
359
  8
0
 62
     7
 10
0.0
 20
0.0
 30
0.0
 70
   128
 71
   228
 72
   227
 73
   226
  0
VERTEX
  5
35A
  8
0
 62
     7
 10
0.0
 20
0.0
 30
0.0
 70
   128
 71
   231
 72
   230
 73
   229
  0
VERTEX
  5
35B
  8
0
 62
     7
 10
0.0
 20
0.0
 30
0.0
 70
   128
 71
    88
 72
   193
 73
    34
  0
VERTEX
  5
35C
  8
0
 62
     7
 10
0.0
 20
0.0
 30
0.0
 70
   128
 71
    34
 72
   193
 73
    35
  0
VERTEX
  5
35D
  8
0
 62
     7
 10
0.0
 20
0.0
 30
0.0
 70
   128
 71
   193
 72
   196
 73
    35
  0
VERTEX
  5
35E
  8
0
 62
     7
 10
0.0
 20
0.0
 30
0.0
 70
   128
 71
    35
 72
   196
 73
    42
  0
VERTEX
  5
35F
  8
0
 62
     7
 10
0.0
 20
0.0
 30
0.0
 70
   128
 71
    42
 72
   196
 73
    36
  0
VERTEX
  5
360
  8
0
 62
     7
 10
0.0
 20
0.0
 30
0.0
 70
   128
 71
    36
 72
   196
 73
    38
  0
VERTEX
  5
361
  8
0
 62
     7
 10
0.0
 20
0.0
 30
0.0
 70
   128
 71
    38
 72
   196
 73
    95
  0
VERTEX
  5
362
  8
0
 62
     7
 10
0.0
 20
0.0
 30
0.0
 70
   128
 71
    95
 72
   196
 73
   227
  0
VERTEX
  5
363
  8
0
 62
     7
 10
0.0
 20
0.0
 30
0.0
 70
   128
 71
   196
 72
   232
 73
   227
  0
VERTEX
  5
364
  8
0
 62
     7
 10
0.0
 20
0.0
 30
0.0
 70
   128
 71
   227
 72
   232
 73
   226
  0
VERTEX
  5
365
  8
0
 62
     7
 10
0.0
 20
0.0
 30
0.0
 70
   128
 71
   232
 72
   233
 73
   226
  0
VERTEX
  5
366
  8
0
 62
     7
 10
0.0
 20
0.0
 30
0.0
 70
   128
 71
   226
 72
   233
 73
   230
  0
VERTEX
  5
367
  8
0
 62
     7
 10
0.0
 20
0.0
 30
0.0
 70
   128
 71
   233
 72
   234
 73
   230
  0
VERTEX
  5
368
  8
0
 62
     7
 10
0.0
 20
0.0
 30
0.0
 70
   128
 71
   234
 72
   235
 73
   230
  0
VERTEX
  5
369
  8
0
 62
     7
 10
0.0
 20
0.0
 30
0.0
 70
   128
 71
   230
 72
   235
 73
   229
  0
VERTEX
  5
36A
  8
0
 62
     7
 10
0.0
 20
0.0
 30
0.0
 70
   128
 71
   235
 72
   191
 73
   229
  0
VERTEX
  5
36B
  8
0
 62
     7
 10
0.0
 20
0.0
 30
0.0
 70
   128
 71
   229
 72
   191
 73
   112
  0
VERTEX
  5
36C
  8
0
 62
     7
 10
0.0
 20
0.0
 30
0.0
 70
   128
 71
   112
 72
   191
 73
    61
  0
VERTEX
  5
36D
  8
0
 62
     7
 10
0.0
 20
0.0
 30
0.0
 70
   128
 71
    61
 72
   191
 73
    62
  0
VERTEX
  5
36E
  8
0
 62
     7
 10
0.0
 20
0.0
 30
0.0
 70
   128
 71
   105
 72
   225
 73
   189
  0
VERTEX
  5
36F
  8
0
 62
     7
 10
0.0
 20
0.0
 30
0.0
 70
   128
 71
   225
 72
    52
 73
   189
  0
VERTEX
  5
370
  8
0
 62
     7
 10
0.0
 20
0.0
 30
0.0
 70
   128
 71
    62
 72
   191
 73
    47
  0
VERTEX
  5
371
  8
0
 62
     7
 10
0.0
 20
0.0
 30
0.0
 70
   128
 71
   191
 72
   189
 73
    47
  0
VERTEX
  5
372
  8
0
 62
     7
 10
0.0
 20
0.0
 30
0.0
 70
   128
 71
    47
 72
   189
 73
    48
  0
VERTEX
  5
373
  8
0
 62
     7
 10
0.0
 20
0.0
 30
0.0
 70
   128
 71
   236
 72
   222
 73
   214
  0
VERTEX
  5
374
  8
0
 62
     7
 10
0.0
 20
0.0
 30
0.0
 70
   128
 71
   215
 72
   214
 73
   222
  0
VERTEX
  5
375
  8
0
 62
     7
 10
0.0
 20
0.0
 30
0.0
 70
   128
 71
   220
 72
   219
 73
   237
  0
VERTEX
  5
376
  8
0
 62
     7
 10
0.0
 20
0.0
 30
0.0
 70
   128
 71
   222
 72
   236
 73
   219
  0
VERTEX
  5
377
  8
0
 62
     7
 10
0.0
 20
0.0
 30
0.0
 70
   128
 71
   236
 72
   238
 73
   219
  0
VERTEX
  5
378
  8
0
 62
     7
 10
0.0
 20
0.0
 30
0.0
 70
   128
 71
   238
 72
   237
 73
   219
  0
VERTEX
  5
379
  8
0
 62
     7
 10
0.0
 20
0.0
 30
0.0
 70
   128
 71
   178
 72
   223
 73
   180
  0
VERTEX
  5
37A
  8
0
 62
     7
 10
0.0
 20
0.0
 30
0.0
 70
   128
 71
   224
 72
   239
 73
   223
  0
VERTEX
  5
37B
  8
0
 62
     7
 10
0.0
 20
0.0
 30
0.0
 70
   128
 71
   239
 72
   240
 73
   223
  0
VERTEX
  5
37C
  8
0
 62
     7
 10
0.0
 20
0.0
 30
0.0
 70
   128
 71
   240
 72
   180
 73
   223
  0
VERTEX
  5
37D
  8
0
 62
     7
 10
0.0
 20
0.0
 30
0.0
 70
   128
 71
   115
 72
   113
 73
   241
  0
VERTEX
  5
37E
  8
0
 62
     7
 10
0.0
 20
0.0
 30
0.0
 70
   128
 71
   237
 72
   241
 73
   220
  0
VERTEX
  5
37F
  8
0
 62
     7
 10
0.0
 20
0.0
 30
0.0
 70
   128
 71
   220
 72
   241
 73
   113
  0
VERTEX
  5
380
  8
0
 62
     7
 10
0.0
 20
0.0
 30
0.0
 70
   128
 71
   106
 72
   109
 73
   108
  0
VERTEX
  5
381
  8
0
 62
     7
 10
0.0
 20
0.0
 30
0.0
 70
   128
 71
   176
 72
   242
 73
    92
  0
VERTEX
  5
382
  8
0
 62
     7
 10
0.0
 20
0.0
 30
0.0
 70
   128
 71
    92
 72
   242
 73
    91
  0
VERTEX
  5
383
  8
0
 62
     7
 10
0.0
 20
0.0
 30
0.0
 70
   128
 71
    91
 72
   242
 73
    94
  0
VERTEX
  5
384
  8
0
 62
     7
 10
0.0
 20
0.0
 30
0.0
 70
   128
 71
    94
 72
   242
 73
   243
  0
VERTEX
  5
385
  8
0
 62
     7
 10
0.0
 20
0.0
 30
0.0
 70
   128
 71
   243
 72
   242
 73
   244
  0
VERTEX
  5
386
  8
0
 62
     7
 10
0.0
 20
0.0
 30
0.0
 70
   128
 71
   242
 72
   245
 73
   244
  0
VERTEX
  5
387
  8
0
 62
     7
 10
0.0
 20
0.0
 30
0.0
 70
   128
 71
   244
 72
   245
 73
   246
  0
VERTEX
  5
388
  8
0
 62
     7
 10
0.0
 20
0.0
 30
0.0
 70
   128
 71
   245
 72
   247
 73
   246
  0
VERTEX
  5
389
  8
0
 62
     7
 10
0.0
 20
0.0
 30
0.0
 70
   128
 71
   246
 72
   247
 73
   248
  0
VERTEX
  5
38A
  8
0
 62
     7
 10
0.0
 20
0.0
 30
0.0
 70
   128
 71
   248
 72
   247
 73
   249
  0
VERTEX
  5
38B
  8
0
 62
     7
 10
0.0
 20
0.0
 30
0.0
 70
   128
 71
   247
 72
   250
 73
   249
  0
VERTEX
  5
38C
  8
0
 62
     7
 10
0.0
 20
0.0
 30
0.0
 70
   128
 71
   249
 72
   250
 73
   251
  0
VERTEX
  5
38D
  8
0
 62
     7
 10
0.0
 20
0.0
 30
0.0
 70
   128
 71
   250
 72
   182
 73
   251
  0
VERTEX
  5
38E
  8
0
 62
     7
 10
0.0
 20
0.0
 30
0.0
 70
   128
 71
   251
 72
   182
 73
   109
  0
VERTEX
  5
38F
  8
0
 62
     7
 10
0.0
 20
0.0
 30
0.0
 70
   128
 71
   182
 72
   108
 73
   109
  0
VERTEX
  5
390
  8
0
 62
     7
 10
0.0
 20
0.0
 30
0.0
 70
   128
 71
   239
 72
   224
 73
   252
  0
VERTEX
  5
391
  8
0
 62
     7
 10
0.0
 20
0.0
 30
0.0
 70
   128
 71
    99
 72
   100
 73
   224
  0
VERTEX
  5
392
  8
0
 62
     7
 10
0.0
 20
0.0
 30
0.0
 70
   128
 71
   100
 72
   252
 73
   224
  0
VERTEX
  5
393
  8
0
 62
     7
 10
0.0
 20
0.0
 30
0.0
 70
   128
 71
   204
 72
    89
 73
   253
  0
VERTEX
  5
394
  8
0
 62
     7
 10
0.0
 20
0.0
 30
0.0
 70
   128
 71
    94
 72
   243
 73
    87
  0
VERTEX
  5
395
  8
0
 62
     7
 10
0.0
 20
0.0
 30
0.0
 70
   128
 71
   243
 72
   253
 73
    87
  0
VERTEX
  5
396
  8
0
 62
     7
 10
0.0
 20
0.0
 30
0.0
 70
   128
 71
    87
 72
   253
 73
    89
  0
VERTEX
  5
397
  8
0
 62
     7
 10
0.0
 20
0.0
 30
0.0
 70
   128
 71
   256
 72
   255
 73
   254
  0
VERTEX
  5
398
  8
0
 62
     7
 10
0.0
 20
0.0
 30
0.0
 70
   128
 71
   192
 72
   257
 73
   198
  0
VERTEX
  5
399
  8
0
 62
     7
 10
0.0
 20
0.0
 30
0.0
 70
   128
 71
   258
 72
   256
 73
   254
  0
VERTEX
  5
39A
  8
0
 62
     7
 10
0.0
 20
0.0
 30
0.0
 70
   128
 71
   259
 72
   254
 73
   257
  0
VERTEX
  5
39B
  8
0
 62
     7
 10
0.0
 20
0.0
 30
0.0
 70
   128
 71
   186
 72
   198
 73
   256
  0
VERTEX
  5
39C
  8
0
 62
     7
 10
0.0
 20
0.0
 30
0.0
 70
   128
 71
   257
 72
   255
 73
   198
  0
VERTEX
  5
39D
  8
0
 62
     7
 10
0.0
 20
0.0
 30
0.0
 70
   128
 71
   257
 72
   254
 73
   255
  0
VERTEX
  5
39E
  8
0
 62
     7
 10
0.0
 20
0.0
 30
0.0
 70
   128
 71
   256
 72
   198
 73
   255
  0
VERTEX
  5
39F
  8
0
 62
     7
 10
0.0
 20
0.0
 30
0.0
 70
   128
 71
   262
 72
   261
 73
   260
  0
VERTEX
  5
3A0
  8
0
 62
     7
 10
0.0
 20
0.0
 30
0.0
 70
   128
 71
   265
 72
   264
 73
   263
  0
VERTEX
  5
3A1
  8
0
 62
     7
 10
0.0
 20
0.0
 30
0.0
 70
   128
 71
   266
 72
   262
 73
   260
  0
VERTEX
  5
3A2
  8
0
 62
     7
 10
0.0
 20
0.0
 30
0.0
 70
   128
 71
   267
 72
   260
 73
   264
  0
VERTEX
  5
3A3
  8
0
 62
     7
 10
0.0
 20
0.0
 30
0.0
 70
   128
 71
   190
 72
   263
 73
   262
  0
VERTEX
  5
3A4
  8
0
 62
     7
 10
0.0
 20
0.0
 30
0.0
 70
   128
 71
   264
 72
   261
 73
   263
  0
VERTEX
  5
3A5
  8
0
 62
     7
 10
0.0
 20
0.0
 30
0.0
 70
   128
 71
   264
 72
   260
 73
   261
  0
VERTEX
  5
3A6
  8
0
 62
     7
 10
0.0
 20
0.0
 30
0.0
 70
   128
 71
   262
 72
   263
 73
   261
  0
VERTEX
  5
3A7
  8
0
 62
     7
 10
0.0
 20
0.0
 30
0.0
 70
   128
 71
   196
 72
   194
 73
   232
  0
VERTEX
  5
3A8
  8
0
 62
     7
 10
0.0
 20
0.0
 30
0.0
 70
   128
 71
   233
 72
   232
 73
   268
  0
VERTEX
  5
3A9
  8
0
 62
     7
 10
0.0
 20
0.0
 30
0.0
 70
   128
 71
   268
 72
   232
 73
   269
  0
VERTEX
  5
3AA
  8
0
 62
     7
 10
0.0
 20
0.0
 30
0.0
 70
   128
 71
   269
 72
   232
 73
   194
  0
VERTEX
  5
3AB
  8
0
 62
     7
 10
0.0
 20
0.0
 30
0.0
 70
   128
 71
   234
 72
   265
 73
   235
  0
VERTEX
  5
3AC
  8
0
 62
     7
 10
0.0
 20
0.0
 30
0.0
 70
   128
 71
   191
 72
   235
 73
   190
  0
VERTEX
  5
3AD
  8
0
 62
     7
 10
0.0
 20
0.0
 30
0.0
 70
   128
 71
   190
 72
   235
 73
   263
  0
VERTEX
  5
3AE
  8
0
 62
     7
 10
0.0
 20
0.0
 30
0.0
 70
   128
 71
   263
 72
   235
 73
   265
  0
VERTEX
  5
3AF
  8
0
 62
     7
 10
0.0
 20
0.0
 30
0.0
 70
   128
 71
   209
 72
   253
 73
   270
  0
VERTEX
  5
3B0
  8
0
 62
     7
 10
0.0
 20
0.0
 30
0.0
 70
   128
 71
   204
 72
   253
 73
   209
  0
VERTEX
  5
3B1
  8
0
 62
     7
 10
0.0
 20
0.0
 30
0.0
 70
   128
 71
   210
 72
   209
 73
   271
  0
VERTEX
  5
3B2
  8
0
 62
     7
 10
0.0
 20
0.0
 30
0.0
 70
   128
 71
   243
 72
   244
 73
   253
  0
VERTEX
  5
3B3
  8
0
 62
     7
 10
0.0
 20
0.0
 30
0.0
 70
   128
 71
   246
 72
   271
 73
   244
  0
VERTEX
  5
3B4
  8
0
 62
     7
 10
0.0
 20
0.0
 30
0.0
 70
   128
 71
   209
 72
   270
 73
   271
  0
VERTEX
  5
3B5
  8
0
 62
     7
 10
0.0
 20
0.0
 30
0.0
 70
   128
 71
   244
 72
   270
 73
   253
  0
VERTEX
  5
3B6
  8
0
 62
     7
 10
0.0
 20
0.0
 30
0.0
 70
   128
 71
   244
 72
   271
 73
   270
  0
VERTEX
  5
3B7
  8
0
 62
     7
 10
0.0
 20
0.0
 30
0.0
 70
   128
 71
   206
 72
   273
 73
   272
  0
VERTEX
  5
3B8
  8
0
 62
     7
 10
0.0
 20
0.0
 30
0.0
 70
   128
 71
   207
 72
   274
 73
   206
  0
VERTEX
  5
3B9
  8
0
 62
     7
 10
0.0
 20
0.0
 30
0.0
 70
   128
 71
   251
 72
   272
 73
   249
  0
VERTEX
  5
3BA
  8
0
 62
     7
 10
0.0
 20
0.0
 30
0.0
 70
   128
 71
   202
 72
   206
 73
   272
  0
VERTEX
  5
3BB
  8
0
 62
     7
 10
0.0
 20
0.0
 30
0.0
 70
   128
 71
   248
 72
   249
 73
   274
  0
VERTEX
  5
3BC
  8
0
 62
     7
 10
0.0
 20
0.0
 30
0.0
 70
   128
 71
   206
 72
   274
 73
   273
  0
VERTEX
  5
3BD
  8
0
 62
     7
 10
0.0
 20
0.0
 30
0.0
 70
   128
 71
   249
 72
   272
 73
   273
  0
VERTEX
  5
3BE
  8
0
 62
     7
 10
0.0
 20
0.0
 30
0.0
 70
   128
 71
   249
 72
   273
 73
   274
  0
VERTEX
  5
3BF
  8
0
 62
     7
 10
0.0
 20
0.0
 30
0.0
 70
   128
 71
   276
 72
   275
 73
    97
  0
VERTEX
  5
3C0
  8
0
 62
     7
 10
0.0
 20
0.0
 30
0.0
 70
   128
 71
   102
 72
    96
 73
   277
  0
VERTEX
  5
3C1
  8
0
 62
     7
 10
0.0
 20
0.0
 30
0.0
 70
   128
 71
   277
 72
    96
 73
   275
  0
VERTEX
  5
3C2
  8
0
 62
     7
 10
0.0
 20
0.0
 30
0.0
 70
   128
 71
    96
 72
    97
 73
   275
  0
VERTEX
  5
3C3
  8
0
 62
     7
 10
0.0
 20
0.0
 30
0.0
 70
   128
 71
   279
 72
   278
 73
   275
  0
VERTEX
  5
3C4
  8
0
 62
     7
 10
0.0
 20
0.0
 30
0.0
 70
   128
 71
   281
 72
   280
 73
   279
  0
VERTEX
  5
3C5
  8
0
 62
     7
 10
0.0
 20
0.0
 30
0.0
 70
   128
 71
   276
 72
   279
 73
   275
  0
VERTEX
  5
3C6
  8
0
 62
     7
 10
0.0
 20
0.0
 30
0.0
 70
   128
 71
   277
 72
   275
 73
   282
  0
VERTEX
  5
3C7
  8
0
 62
     7
 10
0.0
 20
0.0
 30
0.0
 70
   128
 71
   283
 72
   282
 73
   280
  0
VERTEX
  5
3C8
  8
0
 62
     7
 10
0.0
 20
0.0
 30
0.0
 70
   128
 71
   279
 72
   280
 73
   278
  0
VERTEX
  5
3C9
  8
0
 62
     7
 10
0.0
 20
0.0
 30
0.0
 70
   128
 71
   282
 72
   275
 73
   278
  0
VERTEX
  5
3CA
  8
0
 62
     7
 10
0.0
 20
0.0
 30
0.0
 70
   128
 71
   282
 72
   278
 73
   280
  0
VERTEX
  5
3CB
  8
0
 62
     7
 10
0.0
 20
0.0
 30
0.0
 70
   128
 71
   283
 72
   280
 73
   284
  0
VERTEX
  5
3CC
  8
0
 62
     7
 10
0.0
 20
0.0
 30
0.0
 70
   128
 71
   281
 72
   285
 73
   280
  0
VERTEX
  5
3CD
  8
0
 62
     7
 10
0.0
 20
0.0
 30
0.0
 70
   128
 71
   285
 72
   286
 73
   280
  0
VERTEX
  5
3CE
  8
0
 62
     7
 10
0.0
 20
0.0
 30
0.0
 70
   128
 71
   286
 72
   284
 73
   280
  0
VERTEX
  5
3CF
  8
0
 62
     7
 10
0.0
 20
0.0
 30
0.0
 70
   128
 71
   268
 72
   265
 73
   233
  0
VERTEX
  5
3D0
  8
0
 62
     7
 10
0.0
 20
0.0
 30
0.0
 70
   128
 71
   234
 72
   233
 73
   265
  0
VERTEX
  5
3D1
  8
0
 62
     7
 10
0.0
 20
0.0
 30
0.0
 70
   128
 71
   276
 72
   227
 73
   279
  0
VERTEX
  5
3D2
  8
0
 62
     7
 10
0.0
 20
0.0
 30
0.0
 70
   128
 71
   226
 72
   281
 73
   228
  0
VERTEX
  5
3D3
  8
0
 62
     7
 10
0.0
 20
0.0
 30
0.0
 70
   128
 71
   281
 72
   279
 73
   228
  0
VERTEX
  5
3D4
  8
0
 62
     7
 10
0.0
 20
0.0
 30
0.0
 70
   128
 71
   228
 72
   279
 73
   227
  0
VERTEX
  5
3D5
  8
0
 62
     7
 10
0.0
 20
0.0
 30
0.0
 70
   128
 71
   285
 72
   230
 73
   287
  0
VERTEX
  5
3D6
  8
0
 62
     7
 10
0.0
 20
0.0
 30
0.0
 70
   128
 71
   229
 72
   288
 73
   231
  0
VERTEX
  5
3D7
  8
0
 62
     7
 10
0.0
 20
0.0
 30
0.0
 70
   128
 71
   288
 72
   287
 73
   231
  0
VERTEX
  5
3D8
  8
0
 62
     7
 10
0.0
 20
0.0
 30
0.0
 70
   128
 71
   231
 72
   287
 73
   230
  0
VERTEX
  5
3D9
  8
0
 62
     7
 10
0.0
 20
0.0
 30
0.0
 70
   128
 71
   276
 72
    97
 73
   227
  0
VERTEX
  5
3DA
  8
0
 62
     7
 10
0.0
 20
0.0
 30
0.0
 70
   128
 71
    95
 72
   227
 73
    97
  0
VERTEX
  5
3DB
  8
0
 62
     7
 10
0.0
 20
0.0
 30
0.0
 70
   128
 71
   230
 72
   285
 73
   226
  0
VERTEX
  5
3DC
  8
0
 62
     7
 10
0.0
 20
0.0
 30
0.0
 70
   128
 71
   281
 72
   226
 73
   285
  0
VERTEX
  5
3DD
  8
0
 62
     7
 10
0.0
 20
0.0
 30
0.0
 70
   128
 71
   288
 72
   229
 73
   110
  0
VERTEX
  5
3DE
  8
0
 62
     7
 10
0.0
 20
0.0
 30
0.0
 70
   128
 71
   112
 72
   110
 73
   229
  0
VERTEX
  5
3DF
  8
0
 62
     7
 10
0.0
 20
0.0
 30
0.0
 70
   128
 71
    98
 72
   102
 73
   100
  0
VERTEX
  5
3E0
  8
0
 62
     7
 10
0.0
 20
0.0
 30
0.0
 70
   128
 71
   241
 72
   289
 73
   115
  0
VERTEX
  5
3E1
  8
0
 62
     7
 10
0.0
 20
0.0
 30
0.0
 70
   128
 71
   115
 72
   289
 73
   114
  0
VERTEX
  5
3E2
  8
0
 62
     7
 10
0.0
 20
0.0
 30
0.0
 70
   128
 71
   114
 72
   289
 73
   116
  0
VERTEX
  5
3E3
  8
0
 62
     7
 10
0.0
 20
0.0
 30
0.0
 70
   128
 71
   116
 72
   289
 73
   290
  0
VERTEX
  5
3E4
  8
0
 62
     7
 10
0.0
 20
0.0
 30
0.0
 70
   128
 71
   290
 72
   289
 73
   284
  0
VERTEX
  5
3E5
  8
0
 62
     7
 10
0.0
 20
0.0
 30
0.0
 70
   128
 71
   289
 72
   291
 73
   284
  0
VERTEX
  5
3E6
  8
0
 62
     7
 10
0.0
 20
0.0
 30
0.0
 70
   128
 71
   291
 72
   292
 73
   284
  0
VERTEX
  5
3E7
  8
0
 62
     7
 10
0.0
 20
0.0
 30
0.0
 70
   128
 71
   284
 72
   292
 73
   283
  0
VERTEX
  5
3E8
  8
0
 62
     7
 10
0.0
 20
0.0
 30
0.0
 70
   128
 71
   283
 72
   292
 73
   282
  0
VERTEX
  5
3E9
  8
0
 62
     7
 10
0.0
 20
0.0
 30
0.0
 70
   128
 71
   292
 72
   293
 73
   282
  0
VERTEX
  5
3EA
  8
0
 62
     7
 10
0.0
 20
0.0
 30
0.0
 70
   128
 71
   282
 72
   293
 73
   277
  0
VERTEX
  5
3EB
  8
0
 62
     7
 10
0.0
 20
0.0
 30
0.0
 70
   128
 71
   293
 72
   252
 73
   277
  0
VERTEX
  5
3EC
  8
0
 62
     7
 10
0.0
 20
0.0
 30
0.0
 70
   128
 71
   277
 72
   252
 73
   102
  0
VERTEX
  5
3ED
  8
0
 62
     7
 10
0.0
 20
0.0
 30
0.0
 70
   128
 71
   252
 72
   100
 73
   102
  0
VERTEX
  5
3EE
  8
0
 62
     7
 10
0.0
 20
0.0
 30
0.0
 70
   128
 71
    25
 72
   174
 73
   294
  0
VERTEX
  5
3EF
  8
0
 62
     7
 10
0.0
 20
0.0
 30
0.0
 70
   128
 71
    26
 72
   174
 73
    25
  0
VERTEX
  5
3F0
  8
0
 62
     7
 10
0.0
 20
0.0
 30
0.0
 70
   128
 71
    11
 72
    10
 73
   174
  0
VERTEX
  5
3F1
  8
0
 62
     7
 10
0.0
 20
0.0
 30
0.0
 70
   128
 71
    21
 72
    25
 73
   221
  0
VERTEX
  5
3F2
  8
0
 62
     7
 10
0.0
 20
0.0
 30
0.0
 70
   128
 71
     9
 72
   221
 73
    10
  0
VERTEX
  5
3F3
  8
0
 62
     7
 10
0.0
 20
0.0
 30
0.0
 70
   128
 71
    25
 72
   294
 73
   221
  0
VERTEX
  5
3F4
  8
0
 62
     7
 10
0.0
 20
0.0
 30
0.0
 70
   128
 71
    10
 72
   294
 73
   174
  0
VERTEX
  5
3F5
  8
0
 62
     7
 10
0.0
 20
0.0
 30
0.0
 70
   128
 71
    10
 72
   221
 73
   294
  0
VERTEX
  5
3F6
  8
0
 62
     7
 10
0.0
 20
0.0
 30
0.0
 70
   128
 71
     4
 72
     3
 73
    19
  0
VERTEX
  5
3F7
  8
0
 62
     7
 10
0.0
 20
0.0
 30
0.0
 70
   128
 71
    17
 72
    16
 73
     7
  0
VERTEX
  5
3F8
  8
0
 62
     7
 10
0.0
 20
0.0
 30
0.0
 70
   128
 71
     7
 72
    16
 73
     1
  0
VERTEX
  5
3F9
  8
0
 62
     7
 10
0.0
 20
0.0
 30
0.0
 70
   128
 71
     1
 72
    16
 73
     3
  0
VERTEX
  5
3FA
  8
0
 62
     7
 10
0.0
 20
0.0
 30
0.0
 70
   128
 71
    16
 72
    19
 73
     3
  0
VERTEX
  5
3FB
  8
0
 62
     7
 10
0.0
 20
0.0
 30
0.0
 70
   128
 71
    69
 72
   173
 73
   295
  0
VERTEX
  5
3FC
  8
0
 62
     7
 10
0.0
 20
0.0
 30
0.0
 70
   128
 71
    67
 72
   173
 73
    69
  0
VERTEX
  5
3FD
  8
0
 62
     7
 10
0.0
 20
0.0
 30
0.0
 70
   128
 71
    54
 72
    53
 73
   173
  0
VERTEX
  5
3FE
  8
0
 62
     7
 10
0.0
 20
0.0
 30
0.0
 70
   128
 71
    64
 72
    69
 73
   225
  0
VERTEX
  5
3FF
  8
0
 62
     7
 10
0.0
 20
0.0
 30
0.0
 70
   128
 71
    52
 72
   225
 73
    53
  0
VERTEX
  5
400
  8
0
 62
     7
 10
0.0
 20
0.0
 30
0.0
 70
   128
 71
    69
 72
   295
 73
   225
  0
VERTEX
  5
401
  8
0
 62
     7
 10
0.0
 20
0.0
 30
0.0
 70
   128
 71
    53
 72
   295
 73
   173
  0
VERTEX
  5
402
  8
0
 62
     7
 10
0.0
 20
0.0
 30
0.0
 70
   128
 71
    53
 72
   225
 73
   295
  0
VERTEX
  5
403
  8
0
 62
     7
 10
0.0
 20
0.0
 30
0.0
 70
   128
 71
    47
 72
    46
 73
    62
  0
VERTEX
  5
404
  8
0
 62
     7
 10
0.0
 20
0.0
 30
0.0
 70
   128
 71
    60
 72
    59
 73
    50
  0
VERTEX
  5
405
  8
0
 62
     7
 10
0.0
 20
0.0
 30
0.0
 70
   128
 71
    50
 72
    59
 73
    44
  0
VERTEX
  5
406
  8
0
 62
     7
 10
0.0
 20
0.0
 30
0.0
 70
   128
 71
    44
 72
    59
 73
    46
  0
VERTEX
  5
407
  8
0
 62
     7
 10
0.0
 20
0.0
 30
0.0
 70
   128
 71
    59
 72
    62
 73
    46
  0
SEQEND
  5
408
  8
0
  0
ENDBLK
  5
40B
  8
0
  0
BLOCK
  8
0
  2
SEIFENSCHALE_E-0000048637
 70
     0
 10
0.0
 20
0.0
 30
0.0
  3
SEIFENSCHALE_E-0000048637
  1

  0
POLYLINE
  5
40D
  8
0
 66
     1
 10
0.0
 20
0.0
 30
0.0
 70
    64
 71
   288
 72
   600
  0
VERTEX
  5
40E
  8
0
 10
0.0201694797724485
 20
0.0254830159246922
 30
-0.0131642259657383
 70
   192
  0
VERTEX
  5
40F
  8
0
 10
-0.0201316569000483
 20
0.0247472207993269
 30
-0.0122696496546268
 70
   192
  0
VERTEX
  5
410
  8
0
 10
0.0201316569000483
 20
0.0247472207993269
 30
-0.0122696496546268
 70
   192
  0
VERTEX
  5
411
  8
0
 10
-0.0201694797724485
 20
0.0254830159246922
 30
-0.0131642259657383
 70
   192
  0
VERTEX
  5
412
  8
0
 10
0.0202264208346605
 20
0.0265907663851976
 30
-0.0135000003501773
 70
   192
  0
VERTEX
  5
413
  8
0
 10
-0.0202264208346605
 20
0.0265907663851976
 30
-0.0135000003501773
 70
   192
  0
VERTEX
  5
414
  8
0
 10
-0.0246373880654573
 20
0.0246358476579189
 30
-0.0135000003501773
 70
   192
  0
VERTEX
  5
415
  8
0
 10
-0.0238675810396671
 20
0.023867579177022
 30
-0.0131784398108721
 70
   192
  0
VERTEX
  5
416
  8
0
 10
-0.0254830159246922
 20
0.0201694797724485
 30
-0.0131642259657383
 70
   192
  0
VERTEX
  5
417
  8
0
 10
-0.0218732859939337
 20
0.0243488252162933
 30
-0.0123058184981346
 70
   192
  0
VERTEX
  5
418
  8
0
 10
-0.0243492610752583
 20
0.0218722522258759
 30
-0.012305798009038
 70
   192
  0
VERTEX
  5
419
  8
0
 10
-0.0247472207993269
 20
0.0201316569000483
 30
-0.0122696496546268
 70
   192
  0
VERTEX
  5
41A
  8
0
 10
-0.0265907663851976
 20
0.0202264208346605
 30
-0.0135000003501773
 70
   192
  0
VERTEX
  5
41B
  8
0
 10
-0.023346308618784
 20
0.0233453437685966
 30
-0.0123171387240291
 70
   192
  0
VERTEX
  5
41C
  8
0
 10
0.0246358476579189
 20
0.0246373880654573
 30
-0.0135000003501773
 70
   192
  0
VERTEX
  5
41D
  8
0
 10
0.0238675773143768
 20
0.0238675810396671
 30
-0.0131784398108721
 70
   192
  0
VERTEX
  5
41E
  8
0
 10
0.0243488270789385
 20
0.0218732859939337
 30
-0.0123058184981346
 70
   192
  0
VERTEX
  5
41F
  8
0
 10
0.0254830159246922
 20
0.0201694797724485
 30
-0.0131642259657383
 70
   192
  0
VERTEX
  5
420
  8
0
 10
0.0247472207993269
 20
0.0201316569000483
 30
-0.0122696496546268
 70
   192
  0
VERTEX
  5
421
  8
0
 10
0.0218722503632307
 20
0.0243492629379034
 30
-0.012305798009038
 70
   192
  0
VERTEX
  5
422
  8
0
 10
0.0265907663851976
 20
0.0202264208346605
 30
-0.0135000003501773
 70
   192
  0
VERTEX
  5
423
  8
0
 10
0.0233453437685966
 20
0.023346308618784
 30
-0.0123171387240291
 70
   192
  0
VERTEX
  5
424
  8
0
 10
-0.0254830159246922
 20
-0.0201694797724485
 30
-0.0131642259657383
 70
   192
  0
VERTEX
  5
425
  8
0
 10
-0.0247723907232285
 20
-0.0000000029727063
 30
-0.0122130187228322
 70
   192
  0
VERTEX
  5
426
  8
0
 10
-0.0247472207993269
 20
-0.0201316569000483
 30
-0.0122696496546268
 70
   192
  0
VERTEX
  5
427
  8
0
 10
-0.0265907663851976
 20
-0.0202264208346605
 30
-0.0135000003501773
 70
   192
  0
VERTEX
  5
428
  8
0
 10
0.0254830159246922
 20
-0.0201694797724485
 30
-0.0131642259657383
 70
   192
  0
VERTEX
  5
429
  8
0
 10
0.0265907663851976
 20
-0.0202264208346605
 30
-0.0135000003501773
 70
   192
  0
VERTEX
  5
42A
  8
0
 10
0.0247472207993269
 20
-0.0201316569000483
 30
-0.0122696496546268
 70
   192
  0
VERTEX
  5
42B
  8
0
 10
-0.0246359948068857
 20
-0.0246354509145021
 30
-0.0135000003501773
 70
   192
  0
VERTEX
  5
42C
  8
0
 10
-0.0238670036196709
 20
-0.0238668639212847
 30
-0.0131786689162254
 70
   192
  0
VERTEX
  5
42D
  8
0
 10
-0.0201694797724485
 20
-0.0254830159246922
 30
-0.0131642259657383
 70
   192
  0
VERTEX
  5
42E
  8
0
 10
-0.0202264208346605
 20
-0.0265907663851976
 30
-0.0135000003501773
 70
   192
  0
VERTEX
  5
42F
  8
0
 10
-0.0243467539548874
 20
-0.0218751411885023
 30
-0.0123057374730706
 70
   192
  0
VERTEX
  5
430
  8
0
 10
-0.0218699239194393
 20
-0.0243490673601627
 30
-0.012305268086493
 70
   192
  0
VERTEX
  5
431
  8
0
 10
-0.0201316569000483
 20
-0.0247472207993269
 30
-0.0122696496546268
 70
   192
  0
VERTEX
  5
432
  8
0
 10
-0.0233439989387989
 20
-0.0233457833528519
 30
-0.0123170064762235
 70
   192
  0
VERTEX
  5
433
  8
0
 10
0.0246356576681137
 20
-0.0246355049312115
 30
-0.0135000003501773
 70
   192
  0
VERTEX
  5
434
  8
0
 10
0.0238665677607059
 20
-0.0238668713718653
 30
-0.0131786027923226
 70
   192
  0
VERTEX
  5
435
  8
0
 10
0.0201694797724485
 20
-0.0254830159246922
 30
-0.0131642259657383
 70
   192
  0
VERTEX
  5
436
  8
0
 10
0.0202264208346605
 20
-0.0265907663851976
 30
-0.0135000003501773
 70
   192
  0
VERTEX
  5
437
  8
0
 10
0.0218728948384523
 20
-0.0243477448821068
 30
-0.0123056787997484
 70
   192
  0
VERTEX
  5
438
  8
0
 10
0.0201316569000483
 20
-0.0247472207993269
 30
-0.0122696496546268
 70
   192
  0
VERTEX
  5
439
  8
0
 10
0.0243487898260355
 20
-0.0218705479055643
 30
-0.0123052755370736
 70
   192
  0
VERTEX
  5
43A
  8
0
 10
0.0233437083661556
 20
-0.0233457647264004
 30
-0.0123169729486108
 70
   192
  0
VERTEX
  5
43B
  8
0
 10
0.000000010954877
 20
-0.0247723907232285
 30
-0.0122130187228322
 70
   192
  0
VERTEX
  5
43C
  8
0
 10
-0.0202954411506653
 20
-0.0240563377737999
 30
-0.011278634890914
 70
   192
  0
VERTEX
  5
43D
  8
0
 10
-0.0194383151829243
 20
-0.0241116154938936
 30
-0.0112355053424835
 70
   192
  0
VERTEX
  5
43E
  8
0
 10
-0.0185804609209299
 20
-0.0233272649347782
 30
-0.0106245139613748
 70
   192
  0
VERTEX
  5
43F
  8
0
 10
0.0185804609209299
 20
-0.0233272649347782
 30
-0.0106245139613748
 70
   192
  0
VERTEX
  5
440
  8
0
 10
0.0202954411506653
 20
-0.0240563377737999
 30
-0.011278634890914
 70
   192
  0
VERTEX
  5
441
  8
0
 10
0.0204087048768997
 20
-0.0230228845030069
 30
-0.0106419241055846
 70
   192
  0
VERTEX
  5
442
  8
0
 10
-0.0204087048768997
 20
-0.0230228845030069
 30
-0.0106419241055846
 70
   192
  0
VERTEX
  5
443
  8
0
 10
-0.0000002033459623
 20
-0.0233329907059669
 30
-0.0106102880090475
 70
   192
  0
VERTEX
  5
444
  8
0
 10
0.0092887673527002
 20
-0.0233111120760441
 30
-0.0106218727305532
 70
   192
  0
VERTEX
  5
445
  8
0
 10
-0.0092891752719879
 20
-0.0233110915869474
 30
-0.0106218634173274
 70
   192
  0
VERTEX
  5
446
  8
0
 10
0.0194387212395668
 20
-0.0241207238286734
 30
-0.0112448977306485
 70
   192
  0
VERTEX
  5
447
  8
0
 10
0.009700870141387
 20
-0.0245281346142292
 30
-0.0117374900728464
 70
   192
  0
VERTEX
  5
448
  8
0
 10
0.0173918008804321
 20
-0.0245980285108089
 30
-0.0118568204343319
 70
   192
  0
VERTEX
  5
449
  8
0
 10
0.0145513573661447
 20
-0.0243730954825878
 30
-0.0115147866308689
 70
   192
  0
VERTEX
  5
44A
  8
0
 10
-0.0173913463950157
 20
-0.0245957914739847
 30
-0.0118527673184872
 70
   192
  0
VERTEX
  5
44B
  8
0
 10
-0.0097002750262618
 20
-0.0245248787105083
 30
-0.0117321694269776
 70
   192
  0
VERTEX
  5
44C
  8
0
 10
-0.0145504465326667
 20
-0.0243674740195274
 30
-0.0115072317421436
 70
   192
  0
VERTEX
  5
44D
  8
0
 10
0.0048495656810701
 20
-0.0246626902371645
 30
-0.0119683844968677
 70
   192
  0
VERTEX
  5
44E
  8
0
 10
-0.0048492685891688
 20
-0.0246613267809153
 30
-0.011965598911047
 70
   192
  0
VERTEX
  5
44F
  8
0
 10
0.0213418733328581
 20
-0.0227444060146809
 30
-0.0107141165062785
 70
   192
  0
VERTEX
  5
450
  8
0
 10
0.0215333867818117
 20
-0.0232406239956617
 30
-0.0109775792807341
 70
   192
  0
VERTEX
  5
451
  8
0
 10
0.0221596974879503
 20
-0.022160055115819
 30
-0.0107367234304547
 70
   192
  0
VERTEX
  5
452
  8
0
 10
0.022744569927454
 20
-0.0213421545922756
 30
-0.0107142273336649
 70
   192
  0
VERTEX
  5
453
  8
0
 10
0.0240563377737999
 20
-0.0202954411506653
 30
-0.011278634890914
 70
   192
  0
VERTEX
  5
454
  8
0
 10
0.0230228845030069
 20
-0.0204087048768997
 30
-0.0106419241055846
 70
   192
  0
VERTEX
  5
455
  8
0
 10
0.0232440568506718
 20
-0.0215267185121775
 30
-0.0109774162992835
 70
   192
  0
VERTEX
  5
456
  8
0
 10
0.0233285892754793
 20
-0.0223060008138418
 30
-0.0113533074036241
 70
   192
  0
VERTEX
  5
457
  8
0
 10
0.0228633750230074
 20
-0.0228641666471958
 30
-0.0113597279414535
 70
   192
  0
VERTEX
  5
458
  8
0
 10
0.0223109256476164
 20
-0.0233287140727043
 30
-0.0113549884408712
 70
   192
  0
VERTEX
  5
459
  8
0
 10
0.0241895355284214
 20
-0.010116565041244
 30
-0.0112882135435939
 70
   192
  0
VERTEX
  5
45A
  8
0
 10
0.0237802565097809
 20
-0.0101176016032696
 30
-0.0109148835763335
 70
   192
  0
VERTEX
  5
45B
  8
0
 10
0.0240563377737999
 20
0.0202954411506653
 30
-0.011278634890914
 70
   192
  0
VERTEX
  5
45C
  8
0
 10
0.0233272649347782
 20
0.0185804609209299
 30
-0.0106245139613748
 70
   192
  0
VERTEX
  5
45D
  8
0
 10
0.0230228845030069
 20
0.0204087048768997
 30
-0.0106419241055846
 70
   192
  0
VERTEX
  5
45E
  8
0
 10
0.0233272649347782
 20
-0.0185804609209299
 30
-0.0106245139613748
 70
   192
  0
VERTEX
  5
45F
  8
0
 10
0.0233110878616571
 20
0.0092908423393965
 30
-0.0106218662112951
 70
   192
  0
VERTEX
  5
460
  8
0
 10
0.0233329907059669
 20
-0.0000000075825968
 30
-0.0106102880090475
 70
   192
  0
VERTEX
  5
461
  8
0
 10
0.0233111083507538
 20
-0.0092908553779125
 30
-0.0106218755245209
 70
   192
  0
VERTEX
  5
462
  8
0
 10
0.024189529940486
 20
0.0101165296509862
 30
-0.0112881809473038
 70
   192
  0
VERTEX
  5
463
  8
0
 10
0.0245259627699852
 20
0.0050575733184814
 30
-0.0117210289463401
 70
   192
  0
VERTEX
  5
464
  8
0
 10
0.0215326156467199
 20
0.0232425983995199
 30
-0.0109781268984079
 70
   192
  0
VERTEX
  5
465
  8
0
 10
0.0213424786925316
 20
0.0227456763386726
 30
-0.0107146538794041
 70
   192
  0
VERTEX
  5
466
  8
0
 10
0.02216119132936
 20
0.0221608746796846
 30
-0.0107373427599669
 70
   192
  0
VERTEX
  5
467
  8
0
 10
0.022745780646801
 20
0.0213422905653715
 30
-0.010714647360146
 70
   192
  0
VERTEX
  5
468
  8
0
 10
0.0202954411506653
 20
0.0240563377737999
 30
-0.011278634890914
 70
   192
  0
VERTEX
  5
469
  8
0
 10
0.0204087048768997
 20
0.0230228845030069
 30
-0.0106419241055846
 70
   192
  0
VERTEX
  5
46A
  8
0
 10
0.0232426486909389
 20
0.0215325430035591
 30
-0.0109781278297305
 70
   192
  0
VERTEX
  5
46B
  8
0
 10
0.0233289618045092
 20
0.0223098024725914
 30
-0.0113548692315817
 70
   192
  0
VERTEX
  5
46C
  8
0
 10
0.0228647813200951
 20
0.0228649862110615
 30
-0.0113600678741932
 70
   192
  0
VERTEX
  5
46D
  8
0
 10
0.0223095510154963
 20
0.0233291033655405
 30
-0.0113548496738076
 70
   192
  0
VERTEX
  5
46E
  8
0
 10
0.010116565041244
 20
0.0241895355284214
 30
-0.0112882135435939
 70
   192
  0
VERTEX
  5
46F
  8
0
 10
0.0101176016032696
 20
0.0237802565097809
 30
-0.0109148835763335
 70
   192
  0
VERTEX
  5
470
  8
0
 10
-0.0202954411506653
 20
0.0240563377737999
 30
-0.011278634890914
 70
   192
  0
VERTEX
  5
471
  8
0
 10
-0.0185804609209299
 20
0.0233272649347782
 30
-0.0106245139613748
 70
   192
  0
VERTEX
  5
472
  8
0
 10
-0.0204087048768997
 20
0.0230228845030069
 30
-0.0106419241055846
 70
   192
  0
VERTEX
  5
473
  8
0
 10
0.0185804609209299
 20
0.0233272649347782
 30
-0.0106245139613748
 70
   192
  0
VERTEX
  5
474
  8
0
 10
-0.0092908423393965
 20
0.0233110878616571
 30
-0.0106218662112951
 70
   192
  0
VERTEX
  5
475
  8
0
 10
0.0000000075825879
 20
0.0233329907059669
 30
-0.0106102880090475
 70
   192
  0
VERTEX
  5
476
  8
0
 10
0.0092908553779125
 20
0.0233111083507538
 30
-0.0106218755245209
 70
   192
  0
VERTEX
  5
477
  8
0
 10
-0.0101165296509862
 20
0.024189529940486
 30
-0.0112881809473038
 70
   192
  0
VERTEX
  5
478
  8
0
 10
-0.0050575733184814
 20
0.0245259627699852
 30
-0.0117210289463401
 70
   192
  0
VERTEX
  5
479
  8
0
 10
-0.0232425983995199
 20
0.0215326175093651
 30
-0.0109781268984079
 70
   192
  0
VERTEX
  5
47A
  8
0
 10
-0.0227456763386726
 20
0.0213424824178219
 30
-0.0107146538794041
 70
   192
  0
VERTEX
  5
47B
  8
0
 10
-0.0221608728170395
 20
0.0221611931920052
 30
-0.0107373427599669
 70
   192
  0
VERTEX
  5
47C
  8
0
 10
-0.0213422905653715
 20
0.022745780646801
 30
-0.010714647360146
 70
   192
  0
VERTEX
  5
47D
  8
0
 10
-0.0240563377737999
 20
0.0202954411506653
 30
-0.011278634890914
 70
   192
  0
VERTEX
  5
47E
  8
0
 10
-0.0230228845030069
 20
0.0204087048768997
 30
-0.0106419241055846
 70
   192
  0
VERTEX
  5
47F
  8
0
 10
-0.021532541140914
 20
0.0232426505535841
 30
-0.0109781278297305
 70
   192
  0
VERTEX
  5
480
  8
0
 10
-0.0223098006099463
 20
0.0233289618045092
 30
-0.0113548692315817
 70
   192
  0
VERTEX
  5
481
  8
0
 10
-0.0228649862110615
 20
0.0228647831827402
 30
-0.0113600678741932
 70
   192
  0
VERTEX
  5
482
  8
0
 10
-0.0233291015028954
 20
0.0223095528781414
 30
-0.0113548496738076
 70
   192
  0
VERTEX
  5
483
  8
0
 10
-0.0240563377737999
 20
-0.0202954411506653
 30
-0.011278634890914
 70
   192
  0
VERTEX
  5
484
  8
0
 10
-0.0241206400096416
 20
-0.0194387529045343
 30
-0.0112447775900364
 70
   192
  0
VERTEX
  5
485
  8
0
 10
-0.0233272649347782
 20
-0.0185804609209299
 30
-0.0106245139613748
 70
   192
  0
VERTEX
  5
486
  8
0
 10
-0.0233272649347782
 20
0.0185804609209299
 30
-0.0106245139613748
 70
   192
  0
VERTEX
  5
487
  8
0
 10
-0.0230228845030069
 20
-0.0204087048768997
 30
-0.0106419241055846
 70
   192
  0
VERTEX
  5
488
  8
0
 10
-0.0233329907059669
 20
-0.0000002033459339
 30
-0.0106102880090475
 70
   192
  0
VERTEX
  5
489
  8
0
 10
-0.0233110915869474
 20
-0.0092891752719879
 30
-0.0106218634173274
 70
   192
  0
VERTEX
  5
48A
  8
0
 10
-0.0233111120760441
 20
0.0092887673527002
 30
-0.0106218727305532
 70
   192
  0
VERTEX
  5
48B
  8
0
 10
-0.0233554020524025
 20
-0.0000001033193371
 30
-0.0106218475848436
 70
   192
  0
VERTEX
  5
48C
  8
0
 10
-0.0241207238286734
 20
0.0194387212395668
 30
-0.0112448977306485
 70
   192
  0
VERTEX
  5
48D
  8
0
 10
-0.0245281346142292
 20
0.009700863622129
 30
-0.0117374900728464
 70
   192
  0
VERTEX
  5
48E
  8
0
 10
-0.0245980285108089
 20
0.017391799017787
 30
-0.0118568204343319
 70
   192
  0
VERTEX
  5
48F
  8
0
 10
-0.0243730954825878
 20
0.0145513536408544
 30
-0.0115147866308689
 70
   192
  0
VERTEX
  5
490
  8
0
 10
-0.0245980191975832
 20
-0.0173918586224318
 30
-0.0118567915633321
 70
   192
  0
VERTEX
  5
491
  8
0
 10
-0.0245281010866165
 20
-0.0097009241580963
 30
-0.0117374071851373
 70
   192
  0
VERTEX
  5
492
  8
0
 10
-0.0243730209767818
 20
-0.0145514421164989
 30
-0.0115146106109023
 70
   192
  0
VERTEX
  5
493
  8
0
 10
-0.0246626902371645
 20
0.0048495549708605
 30
-0.0119683844968677
 70
   192
  0
VERTEX
  5
494
  8
0
 10
-0.0246626771986485
 20
-0.0048495987430215
 30
-0.0119683425873518
 70
   192
  0
VERTEX
  5
495
  8
0
 10
-0.0215280298143625
 20
-0.0232434328645468
 30
-0.0109774693846703
 70
   192
  0
VERTEX
  5
496
  8
0
 10
-0.0213420577347279
 20
-0.0227446220815182
 30
-0.0107142245396972
 70
   192
  0
VERTEX
  5
497
  8
0
 10
-0.0221600495278835
 20
-0.0221600495278835
 30
-0.0107368156313896
 70
   192
  0
VERTEX
  5
498
  8
0
 10
-0.0227443054318428
 20
-0.021342046558857
 30
-0.0107141193002462
 70
   192
  0
VERTEX
  5
499
  8
0
 10
-0.0232408419251442
 20
-0.0215322729200125
 30
-0.0109773883596063
 70
   192
  0
VERTEX
  5
49A
  8
0
 10
-0.0233290940523148
 20
-0.0223104134202003
 30
-0.011354997754097
 70
   192
  0
VERTEX
  5
49B
  8
0
 10
-0.022863982245326
 20
-0.0228638704866171
 30
-0.0113597987219691
 70
   192
  0
VERTEX
  5
49C
  8
0
 10
-0.0223071165382862
 20
-0.023327823728323
 30
-0.0113533390685916
 70
   192
  0
VERTEX
  5
49D
  8
0
 10
-0.0439999997615814
 20
0.1122071072459221
 30
0.0012928931973875
 70
   192
  0
VERTEX
  5
49E
  8
0
 10
0.0370000004768372
 20
0.1124999970197678
 30
0.0020000000949949
 70
   192
  0
VERTEX
  5
49F
  8
0
 10
0.0370000004768372
 20
0.1122071072459221
 30
0.0012928931973875
 70
   192
  0
VERTEX
  5
4A0
  8
0
 10
0.0370000004768372
 20
0.1115000024437904
 30
0.0010000000474975
 70
   192
  0
VERTEX
  5
4A1
  8
0
 10
-0.0439999997615814
 20
0.1115000024437904
 30
0.0010000000474975
 70
   192
  0
VERTEX
  5
4A2
  8
0
 10
-0.0439999997615814
 20
0.1124999970197678
 30
0.0020000000949949
 70
   192
  0
VERTEX
  5
4A3
  8
0
 10
0.0375000014901161
 20
0.1120000034570694
 30
0.0012928931973875
 70
   192
  0
VERTEX
  5
4A4
  8
0
 10
0.0377071052789688
 20
0.1115000024437904
 30
0.0012928931973875
 70
   192
  0
VERTEX
  5
4A5
  8
0
 10
0.0377071052789688
 20
0.1122071072459221
 30
0.0020000000949949
 70
   192
  0
VERTEX
  5
4A6
  8
0
 10
0.0379999987781048
 20
0.1115000024437904
 30
0.0020000000949949
 70
   192
  0
VERTEX
  5
4A7
  8
0
 10
-0.0447071082890034
 20
0.1122071072459221
 30
0.0020000000949949
 70
   192
  0
VERTEX
  5
4A8
  8
0
 10
-0.0447071082890034
 20
0.1115000024437904
 30
0.0012928931973875
 70
   192
  0
VERTEX
  5
4A9
  8
0
 10
-0.0450000017881393
 20
0.1115000024437904
 30
0.0020000000949949
 70
   192
  0
VERTEX
  5
4AA
  8
0
 10
-0.0445000007748604
 20
0.1120000034570694
 30
0.0012928931973875
 70
   192
  0
VERTEX
  5
4AB
  8
0
 10
0.0377071052789688
 20
-0.0364999994635582
 30
0.0012928931973875
 70
   192
  0
VERTEX
  5
4AC
  8
0
 10
0.0370000004768372
 20
-0.0364999994635582
 30
0.0010000000474975
 70
   192
  0
VERTEX
  5
4AD
  8
0
 10
0.0379999987781048
 20
-0.0364999994635582
 30
0.0020000000949949
 70
   192
  0
VERTEX
  5
4AE
  8
0
 10
-0.0439999997615814
 20
-0.0364999994635582
 30
0.0010000000474975
 70
   192
  0
VERTEX
  5
4AF
  8
0
 10
-0.0450000017881393
 20
-0.0364999994635582
 30
0.0020000000949949
 70
   192
  0
VERTEX
  5
4B0
  8
0
 10
-0.0447071082890034
 20
-0.0364999994635582
 30
0.0012928931973875
 70
   192
  0
VERTEX
  5
4B1
  8
0
 10
0.0370000004768372
 20
-0.0372071079909801
 30
0.0012928931973875
 70
   192
  0
VERTEX
  5
4B2
  8
0
 10
0.0377071052789688
 20
-0.0372071079909801
 30
0.0020000000949949
 70
   192
  0
VERTEX
  5
4B3
  8
0
 10
0.0370000004768372
 20
-0.0375000014901161
 30
0.0020000000949949
 70
   192
  0
VERTEX
  5
4B4
  8
0
 10
0.0375000014901161
 20
-0.0370000004768372
 30
0.0012928931973875
 70
   192
  0
VERTEX
  5
4B5
  8
0
 10
-0.0447071082890034
 20
-0.0372071079909801
 30
0.0020000000949949
 70
   192
  0
VERTEX
  5
4B6
  8
0
 10
-0.0439999997615814
 20
-0.0372071079909801
 30
0.0012928931973875
 70
   192
  0
VERTEX
  5
4B7
  8
0
 10
-0.0439999997615814
 20
-0.0375000014901161
 30
0.0020000000949949
 70
   192
  0
VERTEX
  5
4B8
  8
0
 10
-0.0445000007748604
 20
-0.0370000004768372
 30
0.0012928931973875
 70
   192
  0
VERTEX
  5
4B9
  8
0
 10
0.0282188672572374
 20
0.0271863359957933
 30
-0.0129507491365075
 70
   192
  0
VERTEX
  5
4BA
  8
0
 10
0.0268421582877636
 20
-0.0268421582877636
 30
-0.0135000003501773
 70
   192
  0
VERTEX
  5
4BB
  8
0
 10
0.0268421582877636
 20
0.0268421582877636
 30
-0.0135000003501773
 70
   192
  0
VERTEX
  5
4BC
  8
0
 10
0.0282188672572374
 20
-0.0271863359957933
 30
-0.0129507491365075
 70
   192
  0
VERTEX
  5
4BD
  8
0
 10
0.0288394168019295
 20
0.0273414719849825
 30
-0.0116046722978354
 70
   192
  0
VERTEX
  5
4BE
  8
0
 10
0.0288394168019295
 20
-0.0273414719849825
 30
-0.0116046722978354
 70
   192
  0
VERTEX
  5
4BF
  8
0
 10
0.0271863359957933
 20
-0.0282188672572374
 30
-0.0129507491365075
 70
   192
  0
VERTEX
  5
4C0
  8
0
 10
0.028400931507349
 20
-0.0283975303173065
 30
-0.0116370376199484
 70
   192
  0
VERTEX
  5
4C1
  8
0
 10
0.0273414719849825
 20
-0.0288394168019295
 30
-0.0116046722978354
 70
   192
  0
VERTEX
  5
4C2
  8
0
 10
0.0268421582877636
 20
-0.0268421582877636
 30
-0.0134999994188547
 70
   192
  0
VERTEX
  5
4C3
  8
0
 10
0.0271863359957933
 20
0.0282188672572374
 30
-0.0129507491365075
 70
   192
  0
VERTEX
  5
4C4
  8
0
 10
0.028400931507349
 20
0.0283975303173065
 30
-0.0116370376199484
 70
   192
  0
VERTEX
  5
4C5
  8
0
 10
0.0273414719849825
 20
0.0288394168019295
 30
-0.0116046722978354
 70
   192
  0
VERTEX
  5
4C6
  8
0
 10
0.0268421582877636
 20
0.0268421582877636
 30
-0.0134999994188547
 70
   192
  0
VERTEX
  5
4C7
  8
0
 10
-0.0268421582877636
 20
-0.0268421582877636
 30
-0.0135000003501773
 70
   192
  0
VERTEX
  5
4C8
  8
0
 10
-0.0273414719849825
 20
-0.0288394168019295
 30
-0.0116046722978354
 70
   192
  0
VERTEX
  5
4C9
  8
0
 10
-0.0271863359957933
 20
-0.0282188672572374
 30
-0.0129507491365075
 70
   192
  0
VERTEX
  5
4CA
  8
0
 10
-0.0271863359957933
 20
0.0282188672572374
 30
-0.0129507491365075
 70
   192
  0
VERTEX
  5
4CB
  8
0
 10
-0.0268421582877636
 20
0.0268421582877636
 30
-0.0135000003501773
 70
   192
  0
VERTEX
  5
4CC
  8
0
 10
-0.0273414719849825
 20
0.0288394168019295
 30
-0.0116046722978354
 70
   192
  0
VERTEX
  5
4CD
  8
0
 10
-0.0282188672572374
 20
-0.0271863359957933
 30
-0.0129507491365075
 70
   192
  0
VERTEX
  5
4CE
  8
0
 10
-0.0283975303173065
 20
-0.028400931507349
 30
-0.0116370376199484
 70
   192
  0
VERTEX
  5
4CF
  8
0
 10
-0.0288394168019295
 20
-0.0273414719849825
 30
-0.0116046722978354
 70
   192
  0
VERTEX
  5
4D0
  8
0
 10
-0.0268421582877636
 20
-0.0268421582877636
 30
-0.0134999994188547
 70
   192
  0
VERTEX
  5
4D1
  8
0
 10
-0.0282188672572374
 20
0.0271863359957933
 30
-0.0129507491365075
 70
   192
  0
VERTEX
  5
4D2
  8
0
 10
-0.028400931507349
 20
0.0283975303173065
 30
-0.0116370376199484
 70
   192
  0
VERTEX
  5
4D3
  8
0
 10
-0.0288394168019295
 20
0.0273414719849825
 30
-0.0116046722978354
 70
   192
  0
VERTEX
  5
4D4
  8
0
 10
-0.0268421582877636
 20
0.0268421582877636
 30
-0.0134999994188547
 70
   192
  0
VERTEX
  5
4D5
  8
0
 10
0.0335387662053108
 20
-0.0330387651920319
 30
0.0065000001341105
 70
   192
  0
VERTEX
  5
4D6
  8
0
 10
0.0346017181873322
 20
0.1080387681722641
 30
0.0069416365586221
 70
   192
  0
VERTEX
  5
4D7
  8
0
 10
0.0335387662053108
 20
0.1080387681722641
 30
0.0065000001341105
 70
   192
  0
VERTEX
  5
4D8
  8
0
 10
0.0350382514297962
 20
0.1080387681722641
 30
0.0079607348889112
 70
   192
  0
VERTEX
  5
4D9
  8
0
 10
0.0346017181873322
 20
-0.0330387651920319
 30
0.0069416365586221
 70
   192
  0
VERTEX
  5
4DA
  8
0
 10
0.0350382514297962
 20
-0.0330387651920319
 30
0.0079607348889112
 70
   192
  0
VERTEX
  5
4DB
  8
0
 10
0.0345991253852844
 20
-0.0340982712805271
 30
0.0079444888979197
 70
   192
  0
VERTEX
  5
4DC
  8
0
 10
0.0335387662053108
 20
-0.0341017171740532
 30
0.0069416365586221
 70
   192
  0
VERTEX
  5
4DD
  8
0
 10
0.0335387662053108
 20
-0.0345382504165173
 30
0.0079607348889112
 70
   192
  0
VERTEX
  5
4DE
  8
0
 10
0.0342903845012188
 20
-0.0337903834879398
 30
0.0069416365586221
 70
   192
  0
VERTEX
  5
4DF
  8
0
 10
0.0345991253852844
 20
0.1090982705354691
 30
0.0079444888979197
 70
   192
  0
VERTEX
  5
4E0
  8
0
 10
0.0335387662053108
 20
0.1091017201542854
 30
0.0069416365586221
 70
   192
  0
VERTEX
  5
4E1
  8
0
 10
0.0335387662053108
 20
0.1095382496714592
 30
0.0079607348889112
 70
   192
  0
VERTEX
  5
4E2
  8
0
 10
0.0342903845012188
 20
0.1087903827428818
 30
0.0069416365586221
 70
   192
  0
VERTEX
  5
4E3
  8
0
 10
-0.0405387654900551
 20
-0.0341017171740532
 30
0.0069416365586221
 70
   192
  0
VERTEX
  5
4E4
  8
0
 10
-0.0405387654900551
 20
-0.0330387651920319
 30
0.0065000001341105
 70
   192
  0
VERTEX
  5
4E5
  8
0
 10
-0.0405387654900551
 20
-0.0345382504165173
 30
0.0079607348889112
 70
   192
  0
VERTEX
  5
4E6
  8
0
 10
-0.0405387654900551
 20
0.1080387681722641
 30
0.0065000001341105
 70
   192
  0
VERTEX
  5
4E7
  8
0
 10
-0.0405387654900551
 20
0.1091017201542854
 30
0.0069416365586221
 70
   192
  0
VERTEX
  5
4E8
  8
0
 10
-0.0405387654900551
 20
0.1095382496714592
 30
0.0079607348889112
 70
   192
  0
VERTEX
  5
4E9
  8
0
 10
-0.0415991246700287
 20
-0.0340982712805271
 30
0.0079444888979197
 70
   192
  0
VERTEX
  5
4EA
  8
0
 10
-0.0416017174720764
 20
-0.0330387651920319
 30
0.0069416365586221
 70
   192
  0
VERTEX
  5
4EB
  8
0
 10
-0.0420382507145405
 20
-0.0330387651920319
 30
0.0079607348889112
 70
   192
  0
VERTEX
  5
4EC
  8
0
 10
-0.0412903837859631
 20
-0.0337903834879398
 30
0.0069416365586221
 70
   192
  0
VERTEX
  5
4ED
  8
0
 10
-0.0415991246700287
 20
0.1090982705354691
 30
0.0079444888979197
 70
   192
  0
VERTEX
  5
4EE
  8
0
 10
-0.0412903837859631
 20
0.1087903827428818
 30
0.0069416365586221
 70
   192
  0
VERTEX
  5
4EF
  8
0
 10
-0.0416017174720764
 20
0.1080387681722641
 30
0.0069416365586221
 70
   192
  0
VERTEX
  5
4F0
  8
0
 10
-0.0420382507145405
 20
0.1080387681722641
 30
0.0079607348889112
 70
   192
  0
VERTEX
  5
4F1
  8
0
 10
-0.0439999997615814
 20
0.1124999970197678
 30
0.010499999858439
 70
   192
  0
VERTEX
  5
4F2
  8
0
 10
-0.0447071082890034
 20
0.1122071072459221
 30
0.010499999858439
 70
   192
  0
VERTEX
  5
4F3
  8
0
 10
-0.0450000017881393
 20
0.1115000024437904
 30
0.010499999858439
 70
   192
  0
VERTEX
  5
4F4
  8
0
 10
0.0377071052789688
 20
0.1122071072459221
 30
0.010499999858439
 70
   192
  0
VERTEX
  5
4F5
  8
0
 10
0.0379999987781048
 20
0.1115000024437904
 30
0.010499999858439
 70
   192
  0
VERTEX
  5
4F6
  8
0
 10
0.0370000004768372
 20
0.1124999970197678
 30
0.010499999858439
 70
   192
  0
VERTEX
  5
4F7
  8
0
 10
0.0370000004768372
 20
-0.0375000014901161
 30
0.010499999858439
 70
   192
  0
VERTEX
  5
4F8
  8
0
 10
0.0377071052789688
 20
-0.0372071079909801
 30
0.010499999858439
 70
   192
  0
VERTEX
  5
4F9
  8
0
 10
0.0379999987781048
 20
-0.0364999994635582
 30
0.010499999858439
 70
   192
  0
VERTEX
  5
4FA
  8
0
 10
-0.0447071082890034
 20
-0.0372071079909801
 30
0.010499999858439
 70
   192
  0
VERTEX
  5
4FB
  8
0
 10
-0.0450000017881393
 20
-0.0364999994635582
 30
0.010499999858439
 70
   192
  0
VERTEX
  5
4FC
  8
0
 10
-0.0439999997615814
 20
-0.0375000014901161
 30
0.010499999858439
 70
   192
  0
VERTEX
  5
4FD
  8
0
 10
0.0336052589118481
 20
-0.0346047431230545
 30
0.010499999858439
 70
   192
  0
VERTEX
  5
4FE
  8
0
 10
0.0351047441363335
 20
-0.0331052578985691
 30
0.010499999858439
 70
   192
  0
VERTEX
  5
4FF
  8
0
 10
0.0346656180918217
 20
-0.0341656170785427
 30
0.010499999858439
 70
   192
  0
VERTEX
  5
500
  8
0
 10
0.0336052589118481
 20
0.1096047461032867
 30
0.010499999858439
 70
   192
  0
VERTEX
  5
501
  8
0
 10
0.0351047441363335
 20
0.108105257153511
 30
0.010499999858439
 70
   192
  0
VERTEX
  5
502
  8
0
 10
0.0346656180918217
 20
0.1091656163334846
 30
0.010499999858439
 70
   192
  0
VERTEX
  5
503
  8
0
 10
-0.0406052581965923
 20
0.1096047461032867
 30
0.010499999858439
 70
   192
  0
VERTEX
  5
504
  8
0
 10
-0.0421047434210777
 20
0.108105257153511
 30
0.010499999858439
 70
   192
  0
VERTEX
  5
505
  8
0
 10
-0.0416656173765659
 20
0.1091656163334846
 30
0.010499999858439
 70
   192
  0
VERTEX
  5
506
  8
0
 10
-0.0406052581965923
 20
-0.0346047431230545
 30
0.010499999858439
 70
   192
  0
VERTEX
  5
507
  8
0
 10
-0.0421047434210777
 20
-0.0331052578985691
 30
0.010499999858439
 70
   192
  0
VERTEX
  5
508
  8
0
 10
-0.0416656173765659
 20
-0.0341656170785427
 30
0.010499999858439
 70
   192
  0
VERTEX
  5
509
  8
0
 10
0.0278530605137348
 20
0.0323468931019306
 30
0.0010000000474975
 70
   192
  0
VERTEX
  5
50A
  8
0
 10
-0.0278530605137348
 20
0.0302167646586895
 30
0.0001124746922869
 70
   192
  0
VERTEX
  5
50B
  8
0
 10
-0.0278530605137348
 20
0.0323468931019306
 30
0.0010000000474975
 70
   192
  0
VERTEX
  5
50C
  8
0
 10
0.0278530605137348
 20
0.0293510053306818
 30
-0.0018429921474308
 70
   192
  0
VERTEX
  5
50D
  8
0
 10
-0.0278530605137348
 20
0.0293510053306818
 30
-0.0018429921474308
 70
   192
  0
VERTEX
  5
50E
  8
0
 10
0.0278530605137348
 20
0.0302167646586895
 30
0.0001124746922869
 70
   192
  0
VERTEX
  5
50F
  8
0
 10
0.0323468931019306
 20
0.0278530605137348
 30
0.0010000000474975
 70
   192
  0
VERTEX
  5
510
  8
0
 10
0.0295879244804382
 20
0.0295879244804382
 30
0.000198319539777
 70
   192
  0
VERTEX
  5
511
  8
0
 10
0.0310314260423183
 20
0.0310314260423183
 30
0.0010000000474975
 70
   192
  0
VERTEX
  5
512
  8
0
 10
0.0293510053306818
 20
0.0278530605137348
 30
-0.0018429921474308
 70
   192
  0
VERTEX
  5
513
  8
0
 10
0.0289159081876278
 20
0.0289159081876278
 30
-0.0017782608047128
 70
   192
  0
VERTEX
  5
514
  8
0
 10
0.0302167646586895
 20
0.0278530605137348
 30
0.0001124746922869
 70
   192
  0
VERTEX
  5
515
  8
0
 10
-0.0295879244804382
 20
0.0295879244804382
 30
0.000198319539777
 70
   192
  0
VERTEX
  5
516
  8
0
 10
-0.0310314260423183
 20
0.0310314260423183
 30
0.0010000000474975
 70
   192
  0
VERTEX
  5
517
  8
0
 10
-0.0289159081876278
 20
0.0289159081876278
 30
-0.0017782608047128
 70
   192
  0
VERTEX
  5
518
  8
0
 10
0.0323468931019306
 20
-0.0278530605137348
 30
0.0010000000474975
 70
   192
  0
VERTEX
  5
519
  8
0
 10
0.0293510053306818
 20
-0.0278530605137348
 30
-0.0018429921474308
 70
   192
  0
VERTEX
  5
51A
  8
0
 10
0.0302167646586895
 20
-0.0278530605137348
 30
0.0001124746922869
 70
   192
  0
VERTEX
  5
51B
  8
0
 10
-0.0323468931019306
 20
-0.0278530605137348
 30
0.0010000000474975
 70
   192
  0
VERTEX
  5
51C
  8
0
 10
-0.0302167646586895
 20
0.0278530605137348
 30
0.0001124746922869
 70
   192
  0
VERTEX
  5
51D
  8
0
 10
-0.0302167646586895
 20
-0.0278530605137348
 30
0.0001124746922869
 70
   192
  0
VERTEX
  5
51E
  8
0
 10
-0.0293510053306818
 20
-0.0278530605137348
 30
-0.0018429921474308
 70
   192
  0
VERTEX
  5
51F
  8
0
 10
-0.0293510053306818
 20
0.0278530605137348
 30
-0.0018429921474308
 70
   192
  0
VERTEX
  5
520
  8
0
 10
-0.0323468931019306
 20
0.0278530605137348
 30
0.0010000000474975
 70
   192
  0
VERTEX
  5
521
  8
0
 10
0.0278530605137348
 20
-0.0323468931019306
 30
0.0010000000474975
 70
   192
  0
VERTEX
  5
522
  8
0
 10
0.0295879244804382
 20
-0.0295879244804382
 30
0.000198319539777
 70
   192
  0
VERTEX
  5
523
  8
0
 10
0.0310314260423183
 20
-0.0310314260423183
 30
0.0010000000474975
 70
   192
  0
VERTEX
  5
524
  8
0
 10
0.0278530605137348
 20
-0.0293510053306818
 30
-0.0018429921474308
 70
   192
  0
VERTEX
  5
525
  8
0
 10
0.0289159081876278
 20
-0.0289159081876278
 30
-0.0017782608047128
 70
   192
  0
VERTEX
  5
526
  8
0
 10
0.0278530605137348
 20
-0.0302167646586895
 30
0.0001124746922869
 70
   192
  0
VERTEX
  5
527
  8
0
 10
-0.0295879244804382
 20
-0.0295879244804382
 30
0.000198319539777
 70
   192
  0
VERTEX
  5
528
  8
0
 10
-0.0310314260423183
 20
-0.0310314260423183
 30
0.0010000000474975
 70
   192
  0
VERTEX
  5
529
  8
0
 10
-0.0289159081876278
 20
-0.0289159081876278
 30
-0.0017782608047128
 70
   192
  0
VERTEX
  5
52A
  8
0
 10
-0.0278530605137348
 20
-0.0302167646586895
 30
0.0001124746922869
 70
   192
  0
VERTEX
  5
52B
  8
0
 10
-0.0278530605137348
 20
-0.0323468931019306
 30
0.0010000000474975
 70
   192
  0
VERTEX
  5
52C
  8
0
 10
-0.0278530605137348
 20
-0.0293510053306818
 30
-0.0018429921474308
 70
   192
  0
VERTEX
  5
52D
  8
0
 10
0.0
 20
0.0
 30
-0.0049999998882413
 70
   192
  0
VERTEX
  5
52E
  8
0
 62
   254
 10
0.0
 20
0.0
 30
0.0
 70
   128
 71
     3
 72
     2
 73
     1
  0
VERTEX
  5
52F
  8
0
 62
   254
 10
0.0
 20
0.0
 30
0.0
 70
   128
 71
     6
 72
     5
 73
     4
  0
VERTEX
  5
530
  8
0
 62
   254
 10
0.0
 20
0.0
 30
0.0
 70
   128
 71
     5
 72
     1
 73
     4
  0
VERTEX
  5
531
  8
0
 62
   254
 10
0.0
 20
0.0
 30
0.0
 70
   128
 71
     4
 72
     1
 73
     2
  0
VERTEX
  5
532
  8
0
 62
   254
 10
0.0
 20
0.0
 30
0.0
 70
   128
 71
     9
 72
     8
 73
     7
  0
VERTEX
  5
533
  8
0
 62
   254
 10
0.0
 20
0.0
 30
0.0
 70
   128
 71
     2
 72
     4
 73
    10
  0
VERTEX
  5
534
  8
0
 62
   254
 10
0.0
 20
0.0
 30
0.0
 70
   128
 71
    12
 72
    11
 73
     9
  0
VERTEX
  5
535
  8
0
 62
   254
 10
0.0
 20
0.0
 30
0.0
 70
   128
 71
    13
 72
     9
 73
     7
  0
VERTEX
  5
536
  8
0
 62
   254
 10
0.0
 20
0.0
 30
0.0
 70
   128
 71
     6
 72
     7
 73
     4
  0
VERTEX
  5
537
  8
0
 62
   254
 10
0.0
 20
0.0
 30
0.0
 70
   128
 71
    11
 72
    14
 73
     9
  0
VERTEX
  5
538
  8
0
 62
   254
 10
0.0
 20
0.0
 30
0.0
 70
   128
 71
    10
 72
     4
 73
    14
  0
VERTEX
  5
539
  8
0
 62
   254
 10
0.0
 20
0.0
 30
0.0
 70
   128
 71
     4
 72
     8
 73
    14
  0
VERTEX
  5
53A
  8
0
 62
   254
 10
0.0
 20
0.0
 30
0.0
 70
   128
 71
     4
 72
     7
 73
     8
  0
VERTEX
  5
53B
  8
0
 62
   254
 10
0.0
 20
0.0
 30
0.0
 70
   128
 71
     9
 72
    14
 73
     8
  0
VERTEX
  5
53C
  8
0
 62
   254
 10
0.0
 20
0.0
 30
0.0
 70
   128
 71
     1
 72
    16
 73
    15
  0
VERTEX
  5
53D
  8
0
 62
   254
 10
0.0
 20
0.0
 30
0.0
 70
   128
 71
    19
 72
    18
 73
    17
  0
VERTEX
  5
53E
  8
0
 62
   254
 10
0.0
 20
0.0
 30
0.0
 70
   128
 71
     3
 72
    20
 73
     1
  0
VERTEX
  5
53F
  8
0
 62
   254
 10
0.0
 20
0.0
 30
0.0
 70
   128
 71
     5
 72
     1
 73
    15
  0
VERTEX
  5
540
  8
0
 62
   254
 10
0.0
 20
0.0
 30
0.0
 70
   128
 71
    21
 72
    15
 73
    18
  0
VERTEX
  5
541
  8
0
 62
   254
 10
0.0
 20
0.0
 30
0.0
 70
   128
 71
    20
 72
    22
 73
     1
  0
VERTEX
  5
542
  8
0
 62
   254
 10
0.0
 20
0.0
 30
0.0
 70
   128
 71
    17
 72
    18
 73
    22
  0
VERTEX
  5
543
  8
0
 62
   254
 10
0.0
 20
0.0
 30
0.0
 70
   128
 71
    18
 72
    16
 73
    22
  0
VERTEX
  5
544
  8
0
 62
   254
 10
0.0
 20
0.0
 30
0.0
 70
   128
 71
    18
 72
    15
 73
    16
  0
VERTEX
  5
545
  8
0
 62
   254
 10
0.0
 20
0.0
 30
0.0
 70
   128
 71
     1
 72
    22
 73
    16
  0
VERTEX
  5
546
  8
0
 62
   254
 10
0.0
 20
0.0
 30
0.0
 70
   128
 71
     9
 72
    23
 73
    13
  0
VERTEX
  5
547
  8
0
 62
   254
 10
0.0
 20
0.0
 30
0.0
 70
   128
 71
    12
 72
    24
 73
     9
  0
VERTEX
  5
548
  8
0
 62
   254
 10
0.0
 20
0.0
 30
0.0
 70
   128
 71
    25
 72
    23
 73
    24
  0
VERTEX
  5
549
  8
0
 62
   254
 10
0.0
 20
0.0
 30
0.0
 70
   128
 71
    24
 72
    23
 73
     9
  0
VERTEX
  5
54A
  8
0
 62
   254
 10
0.0
 20
0.0
 30
0.0
 70
   128
 71
    26
 72
    13
 73
    23
  0
VERTEX
  5
54B
  8
0
 62
   254
 10
0.0
 20
0.0
 30
0.0
 70
   128
 71
    18
 72
    27
 73
    19
  0
VERTEX
  5
54C
  8
0
 62
   254
 10
0.0
 20
0.0
 30
0.0
 70
   128
 71
    21
 72
    28
 73
    18
  0
VERTEX
  5
54D
  8
0
 62
   254
 10
0.0
 20
0.0
 30
0.0
 70
   128
 71
    28
 72
    27
 73
    18
  0
VERTEX
  5
54E
  8
0
 62
   254
 10
0.0
 20
0.0
 30
0.0
 70
   128
 71
    29
 72
    19
 73
    27
  0
VERTEX
  5
54F
  8
0
 62
   254
 10
0.0
 20
0.0
 30
0.0
 70
   128
 71
    32
 72
    31
 73
    30
  0
VERTEX
  5
550
  8
0
 62
   254
 10
0.0
 20
0.0
 30
0.0
 70
   128
 71
    33
 72
    32
 73
    30
  0
VERTEX
  5
551
  8
0
 62
   254
 10
0.0
 20
0.0
 30
0.0
 70
   128
 71
    26
 72
    30
 73
    23
  0
VERTEX
  5
552
  8
0
 62
   254
 10
0.0
 20
0.0
 30
0.0
 70
   128
 71
    25
 72
    23
 73
    34
  0
VERTEX
  5
553
  8
0
 62
   254
 10
0.0
 20
0.0
 30
0.0
 70
   128
 71
    36
 72
    35
 73
    32
  0
VERTEX
  5
554
  8
0
 62
   254
 10
0.0
 20
0.0
 30
0.0
 70
   128
 71
    34
 72
    23
 73
    37
  0
VERTEX
  5
555
  8
0
 62
   254
 10
0.0
 20
0.0
 30
0.0
 70
   128
 71
    35
 72
    37
 73
    32
  0
VERTEX
  5
556
  8
0
 62
   254
 10
0.0
 20
0.0
 30
0.0
 70
   128
 71
    23
 72
    31
 73
    37
  0
VERTEX
  5
557
  8
0
 62
   254
 10
0.0
 20
0.0
 30
0.0
 70
   128
 71
    23
 72
    30
 73
    31
  0
VERTEX
  5
558
  8
0
 62
   254
 10
0.0
 20
0.0
 30
0.0
 70
   128
 71
    32
 72
    37
 73
    31
  0
VERTEX
  5
559
  8
0
 62
   254
 10
0.0
 20
0.0
 30
0.0
 70
   128
 71
    27
 72
    39
 73
    38
  0
VERTEX
  5
55A
  8
0
 62
   254
 10
0.0
 20
0.0
 30
0.0
 70
   128
 71
    28
 72
    27
 73
    38
  0
VERTEX
  5
55B
  8
0
 62
   254
 10
0.0
 20
0.0
 30
0.0
 70
   128
 71
    41
 72
    38
 73
    40
  0
VERTEX
  5
55C
  8
0
 62
   254
 10
0.0
 20
0.0
 30
0.0
 70
   128
 71
    43
 72
    40
 73
    42
  0
VERTEX
  5
55D
  8
0
 62
   254
 10
0.0
 20
0.0
 30
0.0
 70
   128
 71
    29
 72
    44
 73
    27
  0
VERTEX
  5
55E
  8
0
 62
   254
 10
0.0
 20
0.0
 30
0.0
 70
   128
 71
    42
 72
    40
 73
    45
  0
VERTEX
  5
55F
  8
0
 62
   254
 10
0.0
 20
0.0
 30
0.0
 70
   128
 71
    44
 72
    45
 73
    27
  0
VERTEX
  5
560
  8
0
 62
   254
 10
0.0
 20
0.0
 30
0.0
 70
   128
 71
    40
 72
    39
 73
    45
  0
VERTEX
  5
561
  8
0
 62
   254
 10
0.0
 20
0.0
 30
0.0
 70
   128
 71
    40
 72
    38
 73
    39
  0
VERTEX
  5
562
  8
0
 62
   254
 10
0.0
 20
0.0
 30
0.0
 70
   128
 71
    27
 72
    45
 73
    39
  0
VERTEX
  5
563
  8
0
 62
   254
 10
0.0
 20
0.0
 30
0.0
 70
   128
 71
    33
 72
    32
 73
    41
  0
VERTEX
  5
564
  8
0
 62
   254
 10
0.0
 20
0.0
 30
0.0
 70
   128
 71
    43
 72
    40
 73
    46
  0
VERTEX
  5
565
  8
0
 62
   254
 10
0.0
 20
0.0
 30
0.0
 70
   128
 71
    36
 72
    46
 73
    32
  0
VERTEX
  5
566
  8
0
 62
   254
 10
0.0
 20
0.0
 30
0.0
 70
   128
 71
    46
 72
    40
 73
    32
  0
VERTEX
  5
567
  8
0
 62
   254
 10
0.0
 20
0.0
 30
0.0
 70
   128
 71
    40
 72
    41
 73
    32
  0
VERTEX
  5
568
  8
0
 62
   254
 10
0.0
 20
0.0
 30
0.0
 70
   128
 71
    49
 72
    48
 73
    47
  0
VERTEX
  5
569
  8
0
 62
   254
 10
0.0
 20
0.0
 30
0.0
 70
   128
 71
    52
 72
    51
 73
    50
  0
VERTEX
  5
56A
  8
0
 62
   254
 10
0.0
 20
0.0
 30
0.0
 70
   128
 71
    53
 72
    49
 73
    47
  0
VERTEX
  5
56B
  8
0
 62
   254
 10
0.0
 20
0.0
 30
0.0
 70
   128
 71
    55
 72
    50
 73
    54
  0
VERTEX
  5
56C
  8
0
 62
   254
 10
0.0
 20
0.0
 30
0.0
 70
   128
 71
    56
 72
    54
 73
    49
  0
VERTEX
  5
56D
  8
0
 62
   254
 10
0.0
 20
0.0
 30
0.0
 70
   128
 71
    43
 72
    57
 73
    51
  0
VERTEX
  5
56E
  8
0
 62
   254
 10
0.0
 20
0.0
 30
0.0
 70
   128
 71
    60
 72
    59
 73
    58
  0
VERTEX
  5
56F
  8
0
 62
   254
 10
0.0
 20
0.0
 30
0.0
 70
   128
 71
    50
 72
    46
 73
    54
  0
VERTEX
  5
570
  8
0
 62
   254
 10
0.0
 20
0.0
 30
0.0
 70
   128
 71
    54
 72
    46
 73
    49
  0
VERTEX
  5
571
  8
0
 62
   254
 10
0.0
 20
0.0
 30
0.0
 70
   128
 71
    63
 72
    62
 73
    61
  0
VERTEX
  5
572
  8
0
 62
   254
 10
0.0
 20
0.0
 30
0.0
 70
   128
 71
    57
 72
    60
 73
    50
  0
VERTEX
  5
573
  8
0
 62
   254
 10
0.0
 20
0.0
 30
0.0
 70
   128
 71
    46
 72
    64
 73
    43
  0
VERTEX
  5
574
  8
0
 62
   254
 10
0.0
 20
0.0
 30
0.0
 70
   128
 71
    64
 72
    58
 73
    43
  0
VERTEX
  5
575
  8
0
 62
   254
 10
0.0
 20
0.0
 30
0.0
 70
   128
 71
    60
 72
    57
 73
    59
  0
VERTEX
  5
576
  8
0
 62
   254
 10
0.0
 20
0.0
 30
0.0
 70
   128
 71
    43
 72
    58
 73
    59
  0
VERTEX
  5
577
  8
0
 62
   254
 10
0.0
 20
0.0
 30
0.0
 70
   128
 71
    43
 72
    59
 73
    57
  0
VERTEX
  5
578
  8
0
 62
   254
 10
0.0
 20
0.0
 30
0.0
 70
   128
 71
    46
 72
    50
 73
    64
  0
VERTEX
  5
579
  8
0
 62
   254
 10
0.0
 20
0.0
 30
0.0
 70
   128
 71
    64
 72
    50
 73
    58
  0
VERTEX
  5
57A
  8
0
 62
   254
 10
0.0
 20
0.0
 30
0.0
 70
   128
 71
    58
 72
    50
 73
    60
  0
VERTEX
  5
57B
  8
0
 62
   254
 10
0.0
 20
0.0
 30
0.0
 70
   128
 71
    50
 72
    51
 73
    57
  0
VERTEX
  5
57C
  8
0
 62
   254
 10
0.0
 20
0.0
 30
0.0
 70
   128
 71
    36
 72
    47
 73
    48
  0
VERTEX
  5
57D
  8
0
 62
   254
 10
0.0
 20
0.0
 30
0.0
 70
   128
 71
    48
 72
    49
 73
    63
  0
VERTEX
  5
57E
  8
0
 62
   254
 10
0.0
 20
0.0
 30
0.0
 70
   128
 71
    46
 72
    36
 73
    65
  0
VERTEX
  5
57F
  8
0
 62
   254
 10
0.0
 20
0.0
 30
0.0
 70
   128
 71
    65
 72
    36
 73
    62
  0
VERTEX
  5
580
  8
0
 62
   254
 10
0.0
 20
0.0
 30
0.0
 70
   128
 71
    63
 72
    61
 73
    48
  0
VERTEX
  5
581
  8
0
 62
   254
 10
0.0
 20
0.0
 30
0.0
 70
   128
 71
    36
 72
    61
 73
    62
  0
VERTEX
  5
582
  8
0
 62
   254
 10
0.0
 20
0.0
 30
0.0
 70
   128
 71
    36
 72
    48
 73
    61
  0
VERTEX
  5
583
  8
0
 62
   254
 10
0.0
 20
0.0
 30
0.0
 70
   128
 71
    46
 72
    65
 73
    49
  0
VERTEX
  5
584
  8
0
 62
   254
 10
0.0
 20
0.0
 30
0.0
 70
   128
 71
    65
 72
    62
 73
    49
  0
VERTEX
  5
585
  8
0
 62
   254
 10
0.0
 20
0.0
 30
0.0
 70
   128
 71
    62
 72
    63
 73
    49
  0
VERTEX
  5
586
  8
0
 62
   254
 10
0.0
 20
0.0
 30
0.0
 70
   128
 71
    68
 72
    67
 73
    66
  0
VERTEX
  5
587
  8
0
 62
   254
 10
0.0
 20
0.0
 30
0.0
 70
   128
 71
    52
 72
    66
 73
    51
  0
VERTEX
  5
588
  8
0
 62
   254
 10
0.0
 20
0.0
 30
0.0
 70
   128
 71
    71
 72
    70
 73
    69
  0
VERTEX
  5
589
  8
0
 62
   254
 10
0.0
 20
0.0
 30
0.0
 70
   128
 71
    29
 72
    44
 73
    70
  0
VERTEX
  5
58A
  8
0
 62
   254
 10
0.0
 20
0.0
 30
0.0
 70
   128
 71
    43
 72
    51
 73
    42
  0
VERTEX
  5
58B
  8
0
 62
   254
 10
0.0
 20
0.0
 30
0.0
 70
   128
 71
    68
 72
    69
 73
    72
  0
VERTEX
  5
58C
  8
0
 62
   254
 10
0.0
 20
0.0
 30
0.0
 70
   128
 71
    72
 72
    70
 73
    73
  0
VERTEX
  5
58D
  8
0
 62
   254
 10
0.0
 20
0.0
 30
0.0
 70
   128
 71
    74
 72
    73
 73
    45
  0
VERTEX
  5
58E
  8
0
 62
   254
 10
0.0
 20
0.0
 30
0.0
 70
   128
 71
    74
 72
    45
 73
    75
  0
VERTEX
  5
58F
  8
0
 62
   254
 10
0.0
 20
0.0
 30
0.0
 70
   128
 71
    67
 72
    75
 73
    51
  0
VERTEX
  5
590
  8
0
 62
   254
 10
0.0
 20
0.0
 30
0.0
 70
   128
 71
    68
 72
    72
 73
    73
  0
VERTEX
  5
591
  8
0
 62
   254
 10
0.0
 20
0.0
 30
0.0
 70
   128
 71
    44
 72
    73
 73
    70
  0
VERTEX
  5
592
  8
0
 62
   254
 10
0.0
 20
0.0
 30
0.0
 70
   128
 71
    70
 72
    72
 73
    69
  0
VERTEX
  5
593
  8
0
 62
   254
 10
0.0
 20
0.0
 30
0.0
 70
   128
 71
    68
 72
    73
 73
    74
  0
VERTEX
  5
594
  8
0
 62
   254
 10
0.0
 20
0.0
 30
0.0
 70
   128
 71
    44
 72
    45
 73
    73
  0
VERTEX
  5
595
  8
0
 62
   254
 10
0.0
 20
0.0
 30
0.0
 70
   128
 71
    68
 72
    74
 73
    75
  0
VERTEX
  5
596
  8
0
 62
   254
 10
0.0
 20
0.0
 30
0.0
 70
   128
 71
    42
 72
    75
 73
    45
  0
VERTEX
  5
597
  8
0
 62
   254
 10
0.0
 20
0.0
 30
0.0
 70
   128
 71
    68
 72
    75
 73
    67
  0
VERTEX
  5
598
  8
0
 62
   254
 10
0.0
 20
0.0
 30
0.0
 70
   128
 71
    42
 72
    51
 73
    75
  0
VERTEX
  5
599
  8
0
 62
   254
 10
0.0
 20
0.0
 30
0.0
 70
   128
 71
    51
 72
    66
 73
    67
  0
VERTEX
  5
59A
  8
0
 62
   254
 10
0.0
 20
0.0
 30
0.0
 70
   128
 71
    77
 72
    70
 73
    76
  0
VERTEX
  5
59B
  8
0
 62
   254
 10
0.0
 20
0.0
 30
0.0
 70
   128
 71
    80
 72
    79
 73
    78
  0
VERTEX
  5
59C
  8
0
 62
   254
 10
0.0
 20
0.0
 30
0.0
 70
   128
 71
    71
 72
    70
 73
    81
  0
VERTEX
  5
59D
  8
0
 62
   254
 10
0.0
 20
0.0
 30
0.0
 70
   128
 71
    79
 72
    82
 73
    78
  0
VERTEX
  5
59E
  8
0
 62
   254
 10
0.0
 20
0.0
 30
0.0
 70
   128
 71
    82
 72
    83
 73
    78
  0
VERTEX
  5
59F
  8
0
 62
   254
 10
0.0
 20
0.0
 30
0.0
 70
   128
 71
    84
 72
    81
 73
    83
  0
VERTEX
  5
5A0
  8
0
 62
   254
 10
0.0
 20
0.0
 30
0.0
 70
   128
 71
    83
 72
    81
 73
    77
  0
VERTEX
  5
5A1
  8
0
 62
   254
 10
0.0
 20
0.0
 30
0.0
 70
   128
 71
    19
 72
    78
 73
    85
  0
VERTEX
  5
5A2
  8
0
 62
   254
 10
0.0
 20
0.0
 30
0.0
 70
   128
 71
    76
 72
    86
 73
    85
  0
VERTEX
  5
5A3
  8
0
 62
   254
 10
0.0
 20
0.0
 30
0.0
 70
   128
 71
    83
 72
    77
 73
    76
  0
VERTEX
  5
5A4
  8
0
 62
   254
 10
0.0
 20
0.0
 30
0.0
 70
   128
 71
    29
 72
    76
 73
    70
  0
VERTEX
  5
5A5
  8
0
 62
   254
 10
0.0
 20
0.0
 30
0.0
 70
   128
 71
    70
 72
    77
 73
    81
  0
VERTEX
  5
5A6
  8
0
 62
   254
 10
0.0
 20
0.0
 30
0.0
 70
   128
 71
    83
 72
    76
 73
    85
  0
VERTEX
  5
5A7
  8
0
 62
   254
 10
0.0
 20
0.0
 30
0.0
 70
   128
 71
    76
 72
    29
 73
    86
  0
VERTEX
  5
5A8
  8
0
 62
   254
 10
0.0
 20
0.0
 30
0.0
 70
   128
 71
    19
 72
    85
 73
    86
  0
VERTEX
  5
5A9
  8
0
 62
   254
 10
0.0
 20
0.0
 30
0.0
 70
   128
 71
    19
 72
    86
 73
    29
  0
VERTEX
  5
5AA
  8
0
 62
   254
 10
0.0
 20
0.0
 30
0.0
 70
   128
 71
    83
 72
    85
 73
    78
  0
VERTEX
  5
5AB
  8
0
 62
   254
 10
0.0
 20
0.0
 30
0.0
 70
   128
 71
    89
 72
    88
 73
    87
  0
VERTEX
  5
5AC
  8
0
 62
   254
 10
0.0
 20
0.0
 30
0.0
 70
   128
 71
    80
 72
    90
 73
    78
  0
VERTEX
  5
5AD
  8
0
 62
   254
 10
0.0
 20
0.0
 30
0.0
 70
   128
 71
    92
 72
    91
 73
    88
  0
VERTEX
  5
5AE
  8
0
 62
   254
 10
0.0
 20
0.0
 30
0.0
 70
   128
 71
     3
 72
    20
 73
    91
  0
VERTEX
  5
5AF
  8
0
 62
   254
 10
0.0
 20
0.0
 30
0.0
 70
   128
 71
    19
 72
    78
 73
    17
  0
VERTEX
  5
5B0
  8
0
 62
   254
 10
0.0
 20
0.0
 30
0.0
 70
   128
 71
    89
 72
    93
 73
    90
  0
VERTEX
  5
5B1
  8
0
 62
   254
 10
0.0
 20
0.0
 30
0.0
 70
   128
 71
    93
 72
    94
 73
    78
  0
VERTEX
  5
5B2
  8
0
 62
   254
 10
0.0
 20
0.0
 30
0.0
 70
   128
 71
    95
 72
    22
 73
    94
  0
VERTEX
  5
5B3
  8
0
 62
   254
 10
0.0
 20
0.0
 30
0.0
 70
   128
 71
    95
 72
    96
 73
    22
  0
VERTEX
  5
5B4
  8
0
 62
   254
 10
0.0
 20
0.0
 30
0.0
 70
   128
 71
    87
 72
    91
 73
    96
  0
VERTEX
  5
5B5
  8
0
 62
   254
 10
0.0
 20
0.0
 30
0.0
 70
   128
 71
    89
 72
    94
 73
    93
  0
VERTEX
  5
5B6
  8
0
 62
   254
 10
0.0
 20
0.0
 30
0.0
 70
   128
 71
    17
 72
    78
 73
    94
  0
VERTEX
  5
5B7
  8
0
 62
   254
 10
0.0
 20
0.0
 30
0.0
 70
   128
 71
    78
 72
    90
 73
    93
  0
VERTEX
  5
5B8
  8
0
 62
   254
 10
0.0
 20
0.0
 30
0.0
 70
   128
 71
    89
 72
    95
 73
    94
  0
VERTEX
  5
5B9
  8
0
 62
   254
 10
0.0
 20
0.0
 30
0.0
 70
   128
 71
    17
 72
    94
 73
    22
  0
VERTEX
  5
5BA
  8
0
 62
   254
 10
0.0
 20
0.0
 30
0.0
 70
   128
 71
    89
 72
    96
 73
    95
  0
VERTEX
  5
5BB
  8
0
 62
   254
 10
0.0
 20
0.0
 30
0.0
 70
   128
 71
    20
 72
    22
 73
    96
  0
VERTEX
  5
5BC
  8
0
 62
   254
 10
0.0
 20
0.0
 30
0.0
 70
   128
 71
    89
 72
    87
 73
    96
  0
VERTEX
  5
5BD
  8
0
 62
   254
 10
0.0
 20
0.0
 30
0.0
 70
   128
 71
    20
 72
    96
 73
    91
  0
VERTEX
  5
5BE
  8
0
 62
   254
 10
0.0
 20
0.0
 30
0.0
 70
   128
 71
    91
 72
    87
 73
    88
  0
VERTEX
  5
5BF
  8
0
 62
   254
 10
0.0
 20
0.0
 30
0.0
 70
   128
 71
    98
 72
    91
 73
    97
  0
VERTEX
  5
5C0
  8
0
 62
   254
 10
0.0
 20
0.0
 30
0.0
 70
   128
 71
   101
 72
   100
 73
    99
  0
VERTEX
  5
5C1
  8
0
 62
   254
 10
0.0
 20
0.0
 30
0.0
 70
   128
 71
    92
 72
    91
 73
   102
  0
VERTEX
  5
5C2
  8
0
 62
   254
 10
0.0
 20
0.0
 30
0.0
 70
   128
 71
   100
 72
   103
 73
    99
  0
VERTEX
  5
5C3
  8
0
 62
   254
 10
0.0
 20
0.0
 30
0.0
 70
   128
 71
   103
 72
   104
 73
    99
  0
VERTEX
  5
5C4
  8
0
 62
   254
 10
0.0
 20
0.0
 30
0.0
 70
   128
 71
   105
 72
   102
 73
   104
  0
VERTEX
  5
5C5
  8
0
 62
   254
 10
0.0
 20
0.0
 30
0.0
 70
   128
 71
   104
 72
   102
 73
    98
  0
VERTEX
  5
5C6
  8
0
 62
   254
 10
0.0
 20
0.0
 30
0.0
 70
   128
 71
     2
 72
    99
 73
   106
  0
VERTEX
  5
5C7
  8
0
 62
   254
 10
0.0
 20
0.0
 30
0.0
 70
   128
 71
    97
 72
   107
 73
   106
  0
VERTEX
  5
5C8
  8
0
 62
   254
 10
0.0
 20
0.0
 30
0.0
 70
   128
 71
   104
 72
    98
 73
    97
  0
VERTEX
  5
5C9
  8
0
 62
   254
 10
0.0
 20
0.0
 30
0.0
 70
   128
 71
     3
 72
    97
 73
    91
  0
VERTEX
  5
5CA
  8
0
 62
   254
 10
0.0
 20
0.0
 30
0.0
 70
   128
 71
    91
 72
    98
 73
   102
  0
VERTEX
  5
5CB
  8
0
 62
   254
 10
0.0
 20
0.0
 30
0.0
 70
   128
 71
   104
 72
    97
 73
   106
  0
VERTEX
  5
5CC
  8
0
 62
   254
 10
0.0
 20
0.0
 30
0.0
 70
   128
 71
    97
 72
     3
 73
   107
  0
VERTEX
  5
5CD
  8
0
 62
   254
 10
0.0
 20
0.0
 30
0.0
 70
   128
 71
     2
 72
   106
 73
   107
  0
VERTEX
  5
5CE
  8
0
 62
   254
 10
0.0
 20
0.0
 30
0.0
 70
   128
 71
     2
 72
   107
 73
     3
  0
VERTEX
  5
5CF
  8
0
 62
   254
 10
0.0
 20
0.0
 30
0.0
 70
   128
 71
   104
 72
   106
 73
    99
  0
VERTEX
  5
5D0
  8
0
 62
   254
 10
0.0
 20
0.0
 30
0.0
 70
   128
 71
   110
 72
   109
 73
   108
  0
VERTEX
  5
5D1
  8
0
 62
   254
 10
0.0
 20
0.0
 30
0.0
 70
   128
 71
   101
 72
   111
 73
    99
  0
VERTEX
  5
5D2
  8
0
 62
   254
 10
0.0
 20
0.0
 30
0.0
 70
   128
 71
   113
 72
   112
 73
   109
  0
VERTEX
  5
5D3
  8
0
 62
   254
 10
0.0
 20
0.0
 30
0.0
 70
   128
 71
    12
 72
    11
 73
   112
  0
VERTEX
  5
5D4
  8
0
 62
   254
 10
0.0
 20
0.0
 30
0.0
 70
   128
 71
     2
 72
    99
 73
    10
  0
VERTEX
  5
5D5
  8
0
 62
   254
 10
0.0
 20
0.0
 30
0.0
 70
   128
 71
   110
 72
   114
 73
   111
  0
VERTEX
  5
5D6
  8
0
 62
   254
 10
0.0
 20
0.0
 30
0.0
 70
   128
 71
   114
 72
   115
 73
    99
  0
VERTEX
  5
5D7
  8
0
 62
   254
 10
0.0
 20
0.0
 30
0.0
 70
   128
 71
   116
 72
    14
 73
   115
  0
VERTEX
  5
5D8
  8
0
 62
   254
 10
0.0
 20
0.0
 30
0.0
 70
   128
 71
   116
 72
   117
 73
    14
  0
VERTEX
  5
5D9
  8
0
 62
   254
 10
0.0
 20
0.0
 30
0.0
 70
   128
 71
   108
 72
   112
 73
   117
  0
VERTEX
  5
5DA
  8
0
 62
   254
 10
0.0
 20
0.0
 30
0.0
 70
   128
 71
   110
 72
   115
 73
   114
  0
VERTEX
  5
5DB
  8
0
 62
   254
 10
0.0
 20
0.0
 30
0.0
 70
   128
 71
    10
 72
    99
 73
   115
  0
VERTEX
  5
5DC
  8
0
 62
   254
 10
0.0
 20
0.0
 30
0.0
 70
   128
 71
    99
 72
   111
 73
   114
  0
VERTEX
  5
5DD
  8
0
 62
   254
 10
0.0
 20
0.0
 30
0.0
 70
   128
 71
   110
 72
   116
 73
   115
  0
VERTEX
  5
5DE
  8
0
 62
   254
 10
0.0
 20
0.0
 30
0.0
 70
   128
 71
    10
 72
   115
 73
    14
  0
VERTEX
  5
5DF
  8
0
 62
   254
 10
0.0
 20
0.0
 30
0.0
 70
   128
 71
   110
 72
   117
 73
   116
  0
VERTEX
  5
5E0
  8
0
 62
   254
 10
0.0
 20
0.0
 30
0.0
 70
   128
 71
    11
 72
    14
 73
   117
  0
VERTEX
  5
5E1
  8
0
 62
   254
 10
0.0
 20
0.0
 30
0.0
 70
   128
 71
   110
 72
   108
 73
   117
  0
VERTEX
  5
5E2
  8
0
 62
   254
 10
0.0
 20
0.0
 30
0.0
 70
   128
 71
    11
 72
   117
 73
   112
  0
VERTEX
  5
5E3
  8
0
 62
   254
 10
0.0
 20
0.0
 30
0.0
 70
   128
 71
   112
 72
   108
 73
   109
  0
VERTEX
  5
5E4
  8
0
 62
   254
 10
0.0
 20
0.0
 30
0.0
 70
   128
 71
   120
 72
   119
 73
   118
  0
VERTEX
  5
5E5
  8
0
 62
   254
 10
0.0
 20
0.0
 30
0.0
 70
   128
 71
   113
 72
   112
 73
   121
  0
VERTEX
  5
5E6
  8
0
 62
   254
 10
0.0
 20
0.0
 30
0.0
 70
   128
 71
   122
 72
   120
 73
   118
  0
VERTEX
  5
5E7
  8
0
 62
   254
 10
0.0
 20
0.0
 30
0.0
 70
   128
 71
   124
 72
   123
 73
   120
  0
VERTEX
  5
5E8
  8
0
 62
   254
 10
0.0
 20
0.0
 30
0.0
 70
   128
 71
   125
 72
   121
 73
   123
  0
VERTEX
  5
5E9
  8
0
 62
   254
 10
0.0
 20
0.0
 30
0.0
 70
   128
 71
   121
 72
   126
 73
   123
  0
VERTEX
  5
5EA
  8
0
 62
   254
 10
0.0
 20
0.0
 30
0.0
 70
   128
 71
    12
 72
   127
 73
   112
  0
VERTEX
  5
5EB
  8
0
 62
   254
 10
0.0
 20
0.0
 30
0.0
 70
   128
 71
   130
 72
   129
 73
   128
  0
VERTEX
  5
5EC
  8
0
 62
   254
 10
0.0
 20
0.0
 30
0.0
 70
   128
 71
   120
 72
   126
 73
    24
  0
VERTEX
  5
5ED
  8
0
 62
   254
 10
0.0
 20
0.0
 30
0.0
 70
   128
 71
   133
 72
   132
 73
   131
  0
VERTEX
  5
5EE
  8
0
 62
   254
 10
0.0
 20
0.0
 30
0.0
 70
   128
 71
   121
 72
    24
 73
   126
  0
VERTEX
  5
5EF
  8
0
 62
   254
 10
0.0
 20
0.0
 30
0.0
 70
   128
 71
   120
 72
   123
 73
   126
  0
VERTEX
  5
5F0
  8
0
 62
   254
 10
0.0
 20
0.0
 30
0.0
 70
   128
 71
   127
 72
   130
 73
   121
  0
VERTEX
  5
5F1
  8
0
 62
   254
 10
0.0
 20
0.0
 30
0.0
 70
   128
 71
    24
 72
   134
 73
    12
  0
VERTEX
  5
5F2
  8
0
 62
   254
 10
0.0
 20
0.0
 30
0.0
 70
   128
 71
   134
 72
   128
 73
    12
  0
VERTEX
  5
5F3
  8
0
 62
   254
 10
0.0
 20
0.0
 30
0.0
 70
   128
 71
   130
 72
   127
 73
   129
  0
VERTEX
  5
5F4
  8
0
 62
   254
 10
0.0
 20
0.0
 30
0.0
 70
   128
 71
    12
 72
   128
 73
   129
  0
VERTEX
  5
5F5
  8
0
 62
   254
 10
0.0
 20
0.0
 30
0.0
 70
   128
 71
    12
 72
   129
 73
   127
  0
VERTEX
  5
5F6
  8
0
 62
   254
 10
0.0
 20
0.0
 30
0.0
 70
   128
 71
    24
 72
   121
 73
   134
  0
VERTEX
  5
5F7
  8
0
 62
   254
 10
0.0
 20
0.0
 30
0.0
 70
   128
 71
   134
 72
   121
 73
   128
  0
VERTEX
  5
5F8
  8
0
 62
   254
 10
0.0
 20
0.0
 30
0.0
 70
   128
 71
   128
 72
   121
 73
   130
  0
VERTEX
  5
5F9
  8
0
 62
   254
 10
0.0
 20
0.0
 30
0.0
 70
   128
 71
   121
 72
   112
 73
   127
  0
VERTEX
  5
5FA
  8
0
 62
   254
 10
0.0
 20
0.0
 30
0.0
 70
   128
 71
    25
 72
   118
 73
   119
  0
VERTEX
  5
5FB
  8
0
 62
   254
 10
0.0
 20
0.0
 30
0.0
 70
   128
 71
   119
 72
   120
 73
   133
  0
VERTEX
  5
5FC
  8
0
 62
   254
 10
0.0
 20
0.0
 30
0.0
 70
   128
 71
    24
 72
    25
 73
   135
  0
VERTEX
  5
5FD
  8
0
 62
   254
 10
0.0
 20
0.0
 30
0.0
 70
   128
 71
   135
 72
    25
 73
   132
  0
VERTEX
  5
5FE
  8
0
 62
   254
 10
0.0
 20
0.0
 30
0.0
 70
   128
 71
   133
 72
   131
 73
   119
  0
VERTEX
  5
5FF
  8
0
 62
   254
 10
0.0
 20
0.0
 30
0.0
 70
   128
 71
    25
 72
   131
 73
   132
  0
VERTEX
  5
600
  8
0
 62
   254
 10
0.0
 20
0.0
 30
0.0
 70
   128
 71
    25
 72
   119
 73
   131
  0
VERTEX
  5
601
  8
0
 62
   254
 10
0.0
 20
0.0
 30
0.0
 70
   128
 71
    24
 72
   135
 73
   120
  0
VERTEX
  5
602
  8
0
 62
   254
 10
0.0
 20
0.0
 30
0.0
 70
   128
 71
   135
 72
   132
 73
   120
  0
VERTEX
  5
603
  8
0
 62
   254
 10
0.0
 20
0.0
 30
0.0
 70
   128
 71
   132
 72
   133
 73
   120
  0
VERTEX
  5
604
  8
0
 62
   254
 10
0.0
 20
0.0
 30
0.0
 70
   128
 71
   138
 72
   137
 73
   136
  0
VERTEX
  5
605
  8
0
 62
   254
 10
0.0
 20
0.0
 30
0.0
 70
   128
 71
   122
 72
   139
 73
   118
  0
VERTEX
  5
606
  8
0
 62
   254
 10
0.0
 20
0.0
 30
0.0
 70
   128
 71
    53
 72
    47
 73
   137
  0
VERTEX
  5
607
  8
0
 62
   254
 10
0.0
 20
0.0
 30
0.0
 70
   128
 71
    36
 72
    35
 73
    47
  0
VERTEX
  5
608
  8
0
 62
   254
 10
0.0
 20
0.0
 30
0.0
 70
   128
 71
    25
 72
   118
 73
    34
  0
VERTEX
  5
609
  8
0
 62
   254
 10
0.0
 20
0.0
 30
0.0
 70
   128
 71
   138
 72
   140
 73
   139
  0
VERTEX
  5
60A
  8
0
 62
   254
 10
0.0
 20
0.0
 30
0.0
 70
   128
 71
   140
 72
   141
 73
   118
  0
VERTEX
  5
60B
  8
0
 62
   254
 10
0.0
 20
0.0
 30
0.0
 70
   128
 71
   142
 72
    37
 73
   141
  0
VERTEX
  5
60C
  8
0
 62
   254
 10
0.0
 20
0.0
 30
0.0
 70
   128
 71
   142
 72
   143
 73
    37
  0
VERTEX
  5
60D
  8
0
 62
   254
 10
0.0
 20
0.0
 30
0.0
 70
   128
 71
   136
 72
    47
 73
   143
  0
VERTEX
  5
60E
  8
0
 62
   254
 10
0.0
 20
0.0
 30
0.0
 70
   128
 71
   138
 72
   141
 73
   140
  0
VERTEX
  5
60F
  8
0
 62
   254
 10
0.0
 20
0.0
 30
0.0
 70
   128
 71
    34
 72
   118
 73
   141
  0
VERTEX
  5
610
  8
0
 62
   254
 10
0.0
 20
0.0
 30
0.0
 70
   128
 71
   118
 72
   139
 73
   140
  0
VERTEX
  5
611
  8
0
 62
   254
 10
0.0
 20
0.0
 30
0.0
 70
   128
 71
   138
 72
   142
 73
   141
  0
VERTEX
  5
612
  8
0
 62
   254
 10
0.0
 20
0.0
 30
0.0
 70
   128
 71
    34
 72
   141
 73
    37
  0
VERTEX
  5
613
  8
0
 62
   254
 10
0.0
 20
0.0
 30
0.0
 70
   128
 71
   138
 72
   143
 73
   142
  0
VERTEX
  5
614
  8
0
 62
   254
 10
0.0
 20
0.0
 30
0.0
 70
   128
 71
    35
 72
    37
 73
   143
  0
VERTEX
  5
615
  8
0
 62
   254
 10
0.0
 20
0.0
 30
0.0
 70
   128
 71
   138
 72
   136
 73
   143
  0
VERTEX
  5
616
  8
0
 62
   254
 10
0.0
 20
0.0
 30
0.0
 70
   128
 71
    35
 72
   143
 73
    47
  0
VERTEX
  5
617
  8
0
 62
   254
 10
0.0
 20
0.0
 30
0.0
 70
   128
 71
    47
 72
   136
 73
   137
  0
VERTEX
  5
618
  8
0
 62
   254
 10
0.0
 20
0.0
 30
0.0
 70
   128
 71
   146
 72
   145
 73
   144
  0
VERTEX
  5
619
  8
0
 62
   254
 10
0.0
 20
0.0
 30
0.0
 70
   128
 71
   148
 72
   147
 73
   144
  0
VERTEX
  5
61A
  8
0
 62
   254
 10
0.0
 20
0.0
 30
0.0
 70
   128
 71
   147
 72
   146
 73
   144
  0
VERTEX
  5
61B
  8
0
 62
   254
 10
0.0
 20
0.0
 30
0.0
 70
   128
 71
   149
 72
   144
 73
   145
  0
VERTEX
  5
61C
  8
0
 62
   254
 10
0.0
 20
0.0
 30
0.0
 70
   128
 71
   151
 72
   150
 73
   147
  0
VERTEX
  5
61D
  8
0
 62
   254
 10
0.0
 20
0.0
 30
0.0
 70
   128
 71
   147
 72
   151
 73
   147
  0
VERTEX
  5
61E
  8
0
 62
   254
 10
0.0
 20
0.0
 30
0.0
 70
   128
 71
   147
 72
   147
 73
   146
  0
VERTEX
  5
61F
  8
0
 62
   254
 10
0.0
 20
0.0
 30
0.0
 70
   128
 71
   145
 72
   146
 73
   152
  0
VERTEX
  5
620
  8
0
 62
   254
 10
0.0
 20
0.0
 30
0.0
 70
   128
 71
   153
 72
   152
 73
   151
  0
VERTEX
  5
621
  8
0
 62
   254
 10
0.0
 20
0.0
 30
0.0
 70
   128
 71
   146
 72
   150
 73
   152
  0
VERTEX
  5
622
  8
0
 62
   254
 10
0.0
 20
0.0
 30
0.0
 70
   128
 71
   146
 72
   147
 73
   150
  0
VERTEX
  5
623
  8
0
 62
   254
 10
0.0
 20
0.0
 30
0.0
 70
   128
 71
   151
 72
   152
 73
   150
  0
VERTEX
  5
624
  8
0
 62
   254
 10
0.0
 20
0.0
 30
0.0
 70
   128
 71
   156
 72
   155
 73
   154
  0
VERTEX
  5
625
  8
0
 62
   254
 10
0.0
 20
0.0
 30
0.0
 70
   128
 71
   148
 72
   144
 73
   148
  0
VERTEX
  5
626
  8
0
 62
   254
 10
0.0
 20
0.0
 30
0.0
 70
   128
 71
   149
 72
   154
 73
   144
  0
VERTEX
  5
627
  8
0
 62
   254
 10
0.0
 20
0.0
 30
0.0
 70
   128
 71
   155
 72
   157
 73
   154
  0
VERTEX
  5
628
  8
0
 62
   254
 10
0.0
 20
0.0
 30
0.0
 70
   128
 71
   144
 72
   157
 73
   148
  0
VERTEX
  5
629
  8
0
 62
   254
 10
0.0
 20
0.0
 30
0.0
 70
   128
 71
   155
 72
   148
 73
   148
  0
VERTEX
  5
62A
  8
0
 62
   254
 10
0.0
 20
0.0
 30
0.0
 70
   128
 71
   155
 72
   148
 73
   157
  0
VERTEX
  5
62B
  8
0
 62
   254
 10
0.0
 20
0.0
 30
0.0
 70
   128
 71
   144
 72
   154
 73
   157
  0
VERTEX
  5
62C
  8
0
 62
   254
 10
0.0
 20
0.0
 30
0.0
 70
   128
 71
   159
 72
   158
 73
   147
  0
VERTEX
  5
62D
  8
0
 62
   254
 10
0.0
 20
0.0
 30
0.0
 70
   128
 71
   160
 72
   153
 73
   158
  0
VERTEX
  5
62E
  8
0
 62
   254
 10
0.0
 20
0.0
 30
0.0
 70
   128
 71
   153
 72
   151
 73
   158
  0
VERTEX
  5
62F
  8
0
 62
   254
 10
0.0
 20
0.0
 30
0.0
 70
   128
 71
   151
 72
   147
 73
   158
  0
VERTEX
  5
630
  8
0
 62
   254
 10
0.0
 20
0.0
 30
0.0
 70
   128
 71
   148
 72
   155
 73
   161
  0
VERTEX
  5
631
  8
0
 62
   254
 10
0.0
 20
0.0
 30
0.0
 70
   128
 71
   156
 72
   162
 73
   155
  0
VERTEX
  5
632
  8
0
 62
   254
 10
0.0
 20
0.0
 30
0.0
 70
   128
 71
   162
 72
   163
 73
   155
  0
VERTEX
  5
633
  8
0
 62
   254
 10
0.0
 20
0.0
 30
0.0
 70
   128
 71
   163
 72
   161
 73
   155
  0
VERTEX
  5
634
  8
0
 62
   254
 10
0.0
 20
0.0
 30
0.0
 70
   128
 71
   159
 72
   159
 73
   159
  0
VERTEX
  5
635
  8
0
 62
   254
 10
0.0
 20
0.0
 30
0.0
 70
   128
 71
   159
 72
   164
 73
   159
  0
VERTEX
  5
636
  8
0
 62
   254
 10
0.0
 20
0.0
 30
0.0
 70
   128
 71
   166
 72
   165
 73
   164
  0
VERTEX
  5
637
  8
0
 62
   254
 10
0.0
 20
0.0
 30
0.0
 70
   128
 71
   160
 72
   158
 73
   165
  0
VERTEX
  5
638
  8
0
 62
   254
 10
0.0
 20
0.0
 30
0.0
 70
   128
 71
   158
 72
   167
 73
   165
  0
VERTEX
  5
639
  8
0
 62
   254
 10
0.0
 20
0.0
 30
0.0
 70
   128
 71
   164
 72
   167
 73
   159
  0
VERTEX
  5
63A
  8
0
 62
   254
 10
0.0
 20
0.0
 30
0.0
 70
   128
 71
   158
 72
   159
 73
   159
  0
VERTEX
  5
63B
  8
0
 62
   254
 10
0.0
 20
0.0
 30
0.0
 70
   128
 71
   158
 72
   159
 73
   167
  0
VERTEX
  5
63C
  8
0
 62
   254
 10
0.0
 20
0.0
 30
0.0
 70
   128
 71
   164
 72
   165
 73
   167
  0
VERTEX
  5
63D
  8
0
 62
   254
 10
0.0
 20
0.0
 30
0.0
 70
   128
 71
   162
 72
   168
 73
   163
  0
VERTEX
  5
63E
  8
0
 62
   254
 10
0.0
 20
0.0
 30
0.0
 70
   128
 71
   170
 72
   169
 73
   168
  0
VERTEX
  5
63F
  8
0
 62
   254
 10
0.0
 20
0.0
 30
0.0
 70
   128
 71
   161
 72
   163
 73
   161
  0
VERTEX
  5
640
  8
0
 62
   254
 10
0.0
 20
0.0
 30
0.0
 70
   128
 71
   169
 72
   171
 73
   168
  0
VERTEX
  5
641
  8
0
 62
   254
 10
0.0
 20
0.0
 30
0.0
 70
   128
 71
   163
 72
   171
 73
   161
  0
VERTEX
  5
642
  8
0
 62
   254
 10
0.0
 20
0.0
 30
0.0
 70
   128
 71
   169
 72
   161
 73
   161
  0
VERTEX
  5
643
  8
0
 62
   254
 10
0.0
 20
0.0
 30
0.0
 70
   128
 71
   169
 72
   161
 73
   171
  0
VERTEX
  5
644
  8
0
 62
   254
 10
0.0
 20
0.0
 30
0.0
 70
   128
 71
   163
 72
   168
 73
   171
  0
VERTEX
  5
645
  8
0
 62
   254
 10
0.0
 20
0.0
 30
0.0
 70
   128
 71
   166
 72
   164
 73
   170
  0
VERTEX
  5
646
  8
0
 62
   254
 10
0.0
 20
0.0
 30
0.0
 70
   128
 71
   161
 72
   169
 73
   159
  0
VERTEX
  5
647
  8
0
 62
   254
 10
0.0
 20
0.0
 30
0.0
 70
   128
 71
   159
 72
   169
 73
   164
  0
VERTEX
  5
648
  8
0
 62
   254
 10
0.0
 20
0.0
 30
0.0
 70
   128
 71
   169
 72
   170
 73
   164
  0
VERTEX
  5
649
  8
0
 62
   254
 10
0.0
 20
0.0
 30
0.0
 70
   128
 71
   174
 72
   173
 73
   172
  0
VERTEX
  5
64A
  8
0
 62
   254
 10
0.0
 20
0.0
 30
0.0
 70
   128
 71
   177
 72
   176
 73
   175
  0
VERTEX
  5
64B
  8
0
 62
   254
 10
0.0
 20
0.0
 30
0.0
 70
   128
 71
   176
 72
   172
 73
   175
  0
VERTEX
  5
64C
  8
0
 62
   254
 10
0.0
 20
0.0
 30
0.0
 70
   128
 71
   175
 72
   172
 73
   173
  0
VERTEX
  5
64D
  8
0
 62
   254
 10
0.0
 20
0.0
 30
0.0
 70
   128
 71
   179
 72
   175
 73
   178
  0
VERTEX
  5
64E
  8
0
 62
   254
 10
0.0
 20
0.0
 30
0.0
 70
   128
 71
   177
 72
   175
 73
   179
  0
VERTEX
  5
64F
  8
0
 62
   254
 10
0.0
 20
0.0
 30
0.0
 70
   128
 71
   180
 72
   179
 73
   178
  0
VERTEX
  5
650
  8
0
 62
   254
 10
0.0
 20
0.0
 30
0.0
 70
   128
 71
   173
 72
   181
 73
   175
  0
VERTEX
  5
651
  8
0
 62
   254
 10
0.0
 20
0.0
 30
0.0
 70
   128
 71
   181
 72
   178
 73
   175
  0
VERTEX
  5
652
  8
0
 62
   254
 10
0.0
 20
0.0
 30
0.0
 70
   128
 71
   183
 72
   182
 73
   172
  0
VERTEX
  5
653
  8
0
 62
   254
 10
0.0
 20
0.0
 30
0.0
 70
   128
 71
   176
 72
   183
 73
   172
  0
VERTEX
  5
654
  8
0
 62
   254
 10
0.0
 20
0.0
 30
0.0
 70
   128
 71
   184
 72
   182
 73
   183
  0
VERTEX
  5
655
  8
0
 62
   254
 10
0.0
 20
0.0
 30
0.0
 70
   128
 71
   174
 72
   185
 73
   182
  0
VERTEX
  5
656
  8
0
 62
   254
 10
0.0
 20
0.0
 30
0.0
 70
   128
 71
   185
 72
   172
 73
   182
  0
VERTEX
  5
657
  8
0
 62
   254
 10
0.0
 20
0.0
 30
0.0
 70
   128
 71
   173
 72
   186
 73
   178
  0
VERTEX
  5
658
  8
0
 62
   254
 10
0.0
 20
0.0
 30
0.0
 70
   128
 71
   180
 72
   178
 73
   187
  0
VERTEX
  5
659
  8
0
 62
   254
 10
0.0
 20
0.0
 30
0.0
 70
   128
 71
   187
 72
   178
 73
   188
  0
VERTEX
  5
65A
  8
0
 62
   254
 10
0.0
 20
0.0
 30
0.0
 70
   128
 71
   188
 72
   178
 73
   186
  0
VERTEX
  5
65B
  8
0
 62
   254
 10
0.0
 20
0.0
 30
0.0
 70
   128
 71
   190
 72
   174
 73
   189
  0
VERTEX
  5
65C
  8
0
 62
   254
 10
0.0
 20
0.0
 30
0.0
 70
   128
 71
   184
 72
   191
 73
   182
  0
VERTEX
  5
65D
  8
0
 62
   254
 10
0.0
 20
0.0
 30
0.0
 70
   128
 71
   191
 72
   189
 73
   182
  0
VERTEX
  5
65E
  8
0
 62
   254
 10
0.0
 20
0.0
 30
0.0
 70
   128
 71
   182
 72
   189
 73
   174
  0
VERTEX
  5
65F
  8
0
 62
   254
 10
0.0
 20
0.0
 30
0.0
 70
   128
 71
   193
 72
   188
 73
   192
  0
VERTEX
  5
660
  8
0
 62
   254
 10
0.0
 20
0.0
 30
0.0
 70
   128
 71
   187
 72
   188
 73
   193
  0
VERTEX
  5
661
  8
0
 62
   254
 10
0.0
 20
0.0
 30
0.0
 70
   128
 71
   194
 72
   193
 73
   192
  0
VERTEX
  5
662
  8
0
 62
   254
 10
0.0
 20
0.0
 30
0.0
 70
   128
 71
   186
 72
   195
 73
   188
  0
VERTEX
  5
663
  8
0
 62
   254
 10
0.0
 20
0.0
 30
0.0
 70
   128
 71
   195
 72
   192
 73
   188
  0
VERTEX
  5
664
  8
0
 62
   254
 10
0.0
 20
0.0
 30
0.0
 70
   128
 71
   197
 72
   196
 73
   189
  0
VERTEX
  5
665
  8
0
 62
   254
 10
0.0
 20
0.0
 30
0.0
 70
   128
 71
   198
 72
   196
 73
   197
  0
VERTEX
  5
666
  8
0
 62
   254
 10
0.0
 20
0.0
 30
0.0
 70
   128
 71
   191
 72
   197
 73
   189
  0
VERTEX
  5
667
  8
0
 62
   254
 10
0.0
 20
0.0
 30
0.0
 70
   128
 71
   190
 72
   199
 73
   196
  0
VERTEX
  5
668
  8
0
 62
   254
 10
0.0
 20
0.0
 30
0.0
 70
   128
 71
   199
 72
   189
 73
   196
  0
VERTEX
  5
669
  8
0
 62
   254
 10
0.0
 20
0.0
 30
0.0
 70
   128
 71
   186
 72
   190
 73
   192
  0
VERTEX
  5
66A
  8
0
 62
   254
 10
0.0
 20
0.0
 30
0.0
 70
   128
 71
   198
 72
   194
 73
   196
  0
VERTEX
  5
66B
  8
0
 62
   254
 10
0.0
 20
0.0
 30
0.0
 70
   128
 71
   194
 72
   192
 73
   196
  0
VERTEX
  5
66C
  8
0
 62
   254
 10
0.0
 20
0.0
 30
0.0
 70
   128
 71
   196
 72
   192
 73
   190
  0
VERTEX
  5
66D
  8
0
 62
   254
 10
0.0
 20
0.0
 30
0.0
 70
   128
 71
   202
 72
   201
 73
   200
  0
VERTEX
  5
66E
  8
0
 62
   254
 10
0.0
 20
0.0
 30
0.0
 70
   128
 71
   205
 72
   204
 73
   203
  0
VERTEX
  5
66F
  8
0
 62
   254
 10
0.0
 20
0.0
 30
0.0
 70
   128
 71
   203
 72
   204
 73
   201
  0
VERTEX
  5
670
  8
0
 62
   254
 10
0.0
 20
0.0
 30
0.0
 70
   128
 71
   204
 72
   200
 73
   201
  0
VERTEX
  5
671
  8
0
 62
   254
 10
0.0
 20
0.0
 30
0.0
 70
   128
 71
   205
 72
   206
 73
   204
  0
VERTEX
  5
672
  8
0
 62
   254
 10
0.0
 20
0.0
 30
0.0
 70
   128
 71
   208
 72
   207
 73
   206
  0
VERTEX
  5
673
  8
0
 62
   254
 10
0.0
 20
0.0
 30
0.0
 70
   128
 71
   200
 72
   204
 73
   200
  0
VERTEX
  5
674
  8
0
 62
   254
 10
0.0
 20
0.0
 30
0.0
 70
   128
 71
   207
 72
   209
 73
   206
  0
VERTEX
  5
675
  8
0
 62
   254
 10
0.0
 20
0.0
 30
0.0
 70
   128
 71
   204
 72
   209
 73
   200
  0
VERTEX
  5
676
  8
0
 62
   254
 10
0.0
 20
0.0
 30
0.0
 70
   128
 71
   207
 72
   200
 73
   200
  0
VERTEX
  5
677
  8
0
 62
   254
 10
0.0
 20
0.0
 30
0.0
 70
   128
 71
   207
 72
   200
 73
   209
  0
VERTEX
  5
678
  8
0
 62
   254
 10
0.0
 20
0.0
 30
0.0
 70
   128
 71
   204
 72
   206
 73
   209
  0
VERTEX
  5
679
  8
0
 62
   254
 10
0.0
 20
0.0
 30
0.0
 70
   128
 71
   203
 72
   201
 73
   210
  0
VERTEX
  5
67A
  8
0
 62
   254
 10
0.0
 20
0.0
 30
0.0
 70
   128
 71
   212
 72
   210
 73
   211
  0
VERTEX
  5
67B
  8
0
 62
   254
 10
0.0
 20
0.0
 30
0.0
 70
   128
 71
   202
 72
   211
 73
   202
  0
VERTEX
  5
67C
  8
0
 62
   254
 10
0.0
 20
0.0
 30
0.0
 70
   128
 71
   201
 72
   213
 73
   210
  0
VERTEX
  5
67D
  8
0
 62
   254
 10
0.0
 20
0.0
 30
0.0
 70
   128
 71
   211
 72
   213
 73
   202
  0
VERTEX
  5
67E
  8
0
 62
   254
 10
0.0
 20
0.0
 30
0.0
 70
   128
 71
   201
 72
   202
 73
   202
  0
VERTEX
  5
67F
  8
0
 62
   254
 10
0.0
 20
0.0
 30
0.0
 70
   128
 71
   201
 72
   202
 73
   213
  0
VERTEX
  5
680
  8
0
 62
   254
 10
0.0
 20
0.0
 30
0.0
 70
   128
 71
   211
 72
   210
 73
   213
  0
VERTEX
  5
681
  8
0
 62
   254
 10
0.0
 20
0.0
 30
0.0
 70
   128
 71
   215
 72
   200
 73
   214
  0
VERTEX
  5
682
  8
0
 62
   254
 10
0.0
 20
0.0
 30
0.0
 70
   128
 71
   216
 72
   214
 73
   208
  0
VERTEX
  5
683
  8
0
 62
   254
 10
0.0
 20
0.0
 30
0.0
 70
   128
 71
   208
 72
   214
 73
   207
  0
VERTEX
  5
684
  8
0
 62
   254
 10
0.0
 20
0.0
 30
0.0
 70
   128
 71
   207
 72
   214
 73
   200
  0
VERTEX
  5
685
  8
0
 62
   254
 10
0.0
 20
0.0
 30
0.0
 70
   128
 71
   202
 72
   217
 73
   211
  0
VERTEX
  5
686
  8
0
 62
   254
 10
0.0
 20
0.0
 30
0.0
 70
   128
 71
   219
 72
   212
 73
   218
  0
VERTEX
  5
687
  8
0
 62
   254
 10
0.0
 20
0.0
 30
0.0
 70
   128
 71
   212
 72
   211
 73
   218
  0
VERTEX
  5
688
  8
0
 62
   254
 10
0.0
 20
0.0
 30
0.0
 70
   128
 71
   218
 72
   211
 73
   217
  0
VERTEX
  5
689
  8
0
 62
   254
 10
0.0
 20
0.0
 30
0.0
 70
   128
 71
   215
 72
   215
 73
   215
  0
VERTEX
  5
68A
  8
0
 62
   254
 10
0.0
 20
0.0
 30
0.0
 70
   128
 71
   222
 72
   221
 73
   220
  0
VERTEX
  5
68B
  8
0
 62
   254
 10
0.0
 20
0.0
 30
0.0
 70
   128
 71
   216
 72
   220
 73
   214
  0
VERTEX
  5
68C
  8
0
 62
   254
 10
0.0
 20
0.0
 30
0.0
 70
   128
 71
   215
 72
   214
 73
   215
  0
VERTEX
  5
68D
  8
0
 62
   254
 10
0.0
 20
0.0
 30
0.0
 70
   128
 71
   221
 72
   223
 73
   220
  0
VERTEX
  5
68E
  8
0
 62
   254
 10
0.0
 20
0.0
 30
0.0
 70
   128
 71
   214
 72
   223
 73
   215
  0
VERTEX
  5
68F
  8
0
 62
   254
 10
0.0
 20
0.0
 30
0.0
 70
   128
 71
   221
 72
   215
 73
   215
  0
VERTEX
  5
690
  8
0
 62
   254
 10
0.0
 20
0.0
 30
0.0
 70
   128
 71
   221
 72
   215
 73
   223
  0
VERTEX
  5
691
  8
0
 62
   254
 10
0.0
 20
0.0
 30
0.0
 70
   128
 71
   214
 72
   220
 73
   223
  0
VERTEX
  5
692
  8
0
 62
   254
 10
0.0
 20
0.0
 30
0.0
 70
   128
 71
   218
 72
   225
 73
   224
  0
VERTEX
  5
693
  8
0
 62
   254
 10
0.0
 20
0.0
 30
0.0
 70
   128
 71
   227
 72
   224
 73
   226
  0
VERTEX
  5
694
  8
0
 62
   254
 10
0.0
 20
0.0
 30
0.0
 70
   128
 71
   219
 72
   218
 73
   224
  0
VERTEX
  5
695
  8
0
 62
   254
 10
0.0
 20
0.0
 30
0.0
 70
   128
 71
   217
 72
   217
 73
   218
  0
VERTEX
  5
696
  8
0
 62
   254
 10
0.0
 20
0.0
 30
0.0
 70
   128
 71
   217
 72
   226
 73
   217
  0
VERTEX
  5
697
  8
0
 62
   254
 10
0.0
 20
0.0
 30
0.0
 70
   128
 71
   226
 72
   225
 73
   217
  0
VERTEX
  5
698
  8
0
 62
   254
 10
0.0
 20
0.0
 30
0.0
 70
   128
 71
   226
 72
   224
 73
   225
  0
VERTEX
  5
699
  8
0
 62
   254
 10
0.0
 20
0.0
 30
0.0
 70
   128
 71
   218
 72
   217
 73
   225
  0
VERTEX
  5
69A
  8
0
 62
   254
 10
0.0
 20
0.0
 30
0.0
 70
   128
 71
   215
 72
   221
 73
   217
  0
VERTEX
  5
69B
  8
0
 62
   254
 10
0.0
 20
0.0
 30
0.0
 70
   128
 71
   227
 72
   226
 73
   222
  0
VERTEX
  5
69C
  8
0
 62
   254
 10
0.0
 20
0.0
 30
0.0
 70
   128
 71
   222
 72
   226
 73
   221
  0
VERTEX
  5
69D
  8
0
 62
   254
 10
0.0
 20
0.0
 30
0.0
 70
   128
 71
   226
 72
   217
 73
   221
  0
VERTEX
  5
69E
  8
0
 62
   254
 10
0.0
 20
0.0
 30
0.0
 70
   128
 71
   149
 72
   228
 73
   154
  0
VERTEX
  5
69F
  8
0
 62
   254
 10
0.0
 20
0.0
 30
0.0
 70
   128
 71
   230
 72
   156
 73
   229
  0
VERTEX
  5
6A0
  8
0
 62
   254
 10
0.0
 20
0.0
 30
0.0
 70
   128
 71
   156
 72
   154
 73
   229
  0
VERTEX
  5
6A1
  8
0
 62
   254
 10
0.0
 20
0.0
 30
0.0
 70
   128
 71
   229
 72
   154
 73
   228
  0
VERTEX
  5
6A2
  8
0
 62
   254
 10
0.0
 20
0.0
 30
0.0
 70
   128
 71
   232
 72
   231
 73
   153
  0
VERTEX
  5
6A3
  8
0
 62
   254
 10
0.0
 20
0.0
 30
0.0
 70
   128
 71
   145
 72
   152
 73
   233
  0
VERTEX
  5
6A4
  8
0
 62
   254
 10
0.0
 20
0.0
 30
0.0
 70
   128
 71
   233
 72
   152
 73
   231
  0
VERTEX
  5
6A5
  8
0
 62
   254
 10
0.0
 20
0.0
 30
0.0
 70
   128
 71
   152
 72
   153
 73
   231
  0
VERTEX
  5
6A6
  8
0
 62
   254
 10
0.0
 20
0.0
 30
0.0
 70
   128
 71
   235
 72
   165
 73
   234
  0
VERTEX
  5
6A7
  8
0
 62
   254
 10
0.0
 20
0.0
 30
0.0
 70
   128
 71
   160
 72
   165
 73
   236
  0
VERTEX
  5
6A8
  8
0
 62
   254
 10
0.0
 20
0.0
 30
0.0
 70
   128
 71
   236
 72
   165
 73
   235
  0
VERTEX
  5
6A9
  8
0
 62
   254
 10
0.0
 20
0.0
 30
0.0
 70
   128
 71
   166
 72
   234
 73
   165
  0
VERTEX
  5
6AA
  8
0
 62
   254
 10
0.0
 20
0.0
 30
0.0
 70
   128
 71
   238
 72
   237
 73
   162
  0
VERTEX
  5
6AB
  8
0
 62
   254
 10
0.0
 20
0.0
 30
0.0
 70
   128
 71
   170
 72
   168
 73
   239
  0
VERTEX
  5
6AC
  8
0
 62
   254
 10
0.0
 20
0.0
 30
0.0
 70
   128
 71
   239
 72
   168
 73
   237
  0
VERTEX
  5
6AD
  8
0
 62
   254
 10
0.0
 20
0.0
 30
0.0
 70
   128
 71
   168
 72
   162
 73
   237
  0
VERTEX
  5
6AE
  8
0
 62
   254
 10
0.0
 20
0.0
 30
0.0
 70
   128
 71
   208
 72
   206
 73
   240
  0
VERTEX
  5
6AF
  8
0
 62
   254
 10
0.0
 20
0.0
 30
0.0
 70
   128
 71
   205
 72
   241
 73
   206
  0
VERTEX
  5
6B0
  8
0
 62
   254
 10
0.0
 20
0.0
 30
0.0
 70
   128
 71
   241
 72
   242
 73
   206
  0
VERTEX
  5
6B1
  8
0
 62
   254
 10
0.0
 20
0.0
 30
0.0
 70
   128
 71
   242
 72
   240
 73
   206
  0
VERTEX
  5
6B2
  8
0
 62
   254
 10
0.0
 20
0.0
 30
0.0
 70
   128
 71
   212
 72
   243
 73
   210
  0
VERTEX
  5
6B3
  8
0
 62
   254
 10
0.0
 20
0.0
 30
0.0
 70
   128
 71
   203
 72
   210
 73
   244
  0
VERTEX
  5
6B4
  8
0
 62
   254
 10
0.0
 20
0.0
 30
0.0
 70
   128
 71
   244
 72
   210
 73
   245
  0
VERTEX
  5
6B5
  8
0
 62
   254
 10
0.0
 20
0.0
 30
0.0
 70
   128
 71
   245
 72
   210
 73
   243
  0
VERTEX
  5
6B6
  8
0
 62
   254
 10
0.0
 20
0.0
 30
0.0
 70
   128
 71
   219
 72
   224
 73
   246
  0
VERTEX
  5
6B7
  8
0
 62
   254
 10
0.0
 20
0.0
 30
0.0
 70
   128
 71
   227
 72
   247
 73
   224
  0
VERTEX
  5
6B8
  8
0
 62
   254
 10
0.0
 20
0.0
 30
0.0
 70
   128
 71
   247
 72
   248
 73
   224
  0
VERTEX
  5
6B9
  8
0
 62
   254
 10
0.0
 20
0.0
 30
0.0
 70
   128
 71
   248
 72
   246
 73
   224
  0
VERTEX
  5
6BA
  8
0
 62
   254
 10
0.0
 20
0.0
 30
0.0
 70
   128
 71
   216
 72
   249
 73
   220
  0
VERTEX
  5
6BB
  8
0
 62
   254
 10
0.0
 20
0.0
 30
0.0
 70
   128
 71
   222
 72
   220
 73
   250
  0
VERTEX
  5
6BC
  8
0
 62
   254
 10
0.0
 20
0.0
 30
0.0
 70
   128
 71
   250
 72
   220
 73
   251
  0
VERTEX
  5
6BD
  8
0
 62
   254
 10
0.0
 20
0.0
 30
0.0
 70
   128
 71
   251
 72
   220
 73
   249
  0
VERTEX
  5
6BE
  8
0
 62
   254
 10
0.0
 20
0.0
 30
0.0
 70
   128
 71
   254
 72
   253
 73
   252
  0
VERTEX
  5
6BF
  8
0
 62
   254
 10
0.0
 20
0.0
 30
0.0
 70
   128
 71
   256
 72
   255
 73
   253
  0
VERTEX
  5
6C0
  8
0
 62
   254
 10
0.0
 20
0.0
 30
0.0
 70
   128
 71
   255
 72
   257
 73
   253
  0
VERTEX
  5
6C1
  8
0
 62
   254
 10
0.0
 20
0.0
 30
0.0
 70
   128
 71
   257
 72
   252
 73
   253
  0
VERTEX
  5
6C2
  8
0
 62
   254
 10
0.0
 20
0.0
 30
0.0
 70
   128
 71
   260
 72
   259
 73
   258
  0
VERTEX
  5
6C3
  8
0
 62
   254
 10
0.0
 20
0.0
 30
0.0
 70
   128
 71
   262
 72
   261
 73
   259
  0
VERTEX
  5
6C4
  8
0
 62
   254
 10
0.0
 20
0.0
 30
0.0
 70
   128
 71
   261
 72
   263
 73
   259
  0
VERTEX
  5
6C5
  8
0
 62
   254
 10
0.0
 20
0.0
 30
0.0
 70
   128
 71
   263
 72
   258
 73
   259
  0
VERTEX
  5
6C6
  8
0
 62
   254
 10
0.0
 20
0.0
 30
0.0
 70
   128
 71
   265
 72
   264
 73
   254
  0
VERTEX
  5
6C7
  8
0
 62
   254
 10
0.0
 20
0.0
 30
0.0
 70
   128
 71
   266
 72
   256
 73
   264
  0
VERTEX
  5
6C8
  8
0
 62
   254
 10
0.0
 20
0.0
 30
0.0
 70
   128
 71
   256
 72
   253
 73
   264
  0
VERTEX
  5
6C9
  8
0
 62
   254
 10
0.0
 20
0.0
 30
0.0
 70
   128
 71
   253
 72
   254
 73
   264
  0
VERTEX
  5
6CA
  8
0
 62
   254
 10
0.0
 20
0.0
 30
0.0
 70
   128
 71
   258
 72
   263
 73
   267
  0
VERTEX
  5
6CB
  8
0
 62
   254
 10
0.0
 20
0.0
 30
0.0
 70
   128
 71
   261
 72
   268
 73
   263
  0
VERTEX
  5
6CC
  8
0
 62
   254
 10
0.0
 20
0.0
 30
0.0
 70
   128
 71
   268
 72
   269
 73
   263
  0
VERTEX
  5
6CD
  8
0
 62
   254
 10
0.0
 20
0.0
 30
0.0
 70
   128
 71
   269
 72
   267
 73
   263
  0
VERTEX
  5
6CE
  8
0
 62
   254
 10
0.0
 20
0.0
 30
0.0
 70
   128
 71
   272
 72
   271
 73
   270
  0
VERTEX
  5
6CF
  8
0
 62
   254
 10
0.0
 20
0.0
 30
0.0
 70
   128
 71
   274
 72
   271
 73
   273
  0
VERTEX
  5
6D0
  8
0
 62
   254
 10
0.0
 20
0.0
 30
0.0
 70
   128
 71
   273
 72
   271
 73
   272
  0
VERTEX
  5
6D1
  8
0
 62
   254
 10
0.0
 20
0.0
 30
0.0
 70
   128
 71
   275
 72
   270
 73
   271
  0
VERTEX
  5
6D2
  8
0
 62
   254
 10
0.0
 20
0.0
 30
0.0
 70
   128
 71
   278
 72
   277
 73
   276
  0
VERTEX
  5
6D3
  8
0
 62
   254
 10
0.0
 20
0.0
 30
0.0
 70
   128
 71
   280
 72
   279
 73
   277
  0
VERTEX
  5
6D4
  8
0
 62
   254
 10
0.0
 20
0.0
 30
0.0
 70
   128
 71
   279
 72
   281
 73
   277
  0
VERTEX
  5
6D5
  8
0
 62
   254
 10
0.0
 20
0.0
 30
0.0
 70
   128
 71
   281
 72
   276
 73
   277
  0
VERTEX
  5
6D6
  8
0
 62
   254
 10
0.0
 20
0.0
 30
0.0
 70
   128
 71
   283
 72
   282
 73
   270
  0
VERTEX
  5
6D7
  8
0
 62
   254
 10
0.0
 20
0.0
 30
0.0
 70
   128
 71
   284
 72
   273
 73
   282
  0
VERTEX
  5
6D8
  8
0
 62
   254
 10
0.0
 20
0.0
 30
0.0
 70
   128
 71
   273
 72
   272
 73
   282
  0
VERTEX
  5
6D9
  8
0
 62
   254
 10
0.0
 20
0.0
 30
0.0
 70
   128
 71
   272
 72
   270
 73
   282
  0
VERTEX
  5
6DA
  8
0
 62
   254
 10
0.0
 20
0.0
 30
0.0
 70
   128
 71
   286
 72
   276
 73
   285
  0
VERTEX
  5
6DB
  8
0
 62
   254
 10
0.0
 20
0.0
 30
0.0
 70
   128
 71
   279
 72
   287
 73
   281
  0
VERTEX
  5
6DC
  8
0
 62
   254
 10
0.0
 20
0.0
 30
0.0
 70
   128
 71
   287
 72
   285
 73
   281
  0
VERTEX
  5
6DD
  8
0
 62
   254
 10
0.0
 20
0.0
 30
0.0
 70
   128
 71
   281
 72
   285
 73
   276
  0
VERTEX
  5
6DE
  8
0
 62
   254
 10
0.0
 20
0.0
 30
0.0
 70
   128
 71
   177
 72
   179
 73
   268
  0
VERTEX
  5
6DF
  8
0
 62
   254
 10
0.0
 20
0.0
 30
0.0
 70
   128
 71
   180
 72
   279
 73
   179
  0
VERTEX
  5
6E0
  8
0
 62
   254
 10
0.0
 20
0.0
 30
0.0
 70
   128
 71
   279
 72
   280
 73
   179
  0
VERTEX
  5
6E1
  8
0
 62
   254
 10
0.0
 20
0.0
 30
0.0
 70
   128
 71
   280
 72
   268
 73
   179
  0
VERTEX
  5
6E2
  8
0
 62
   254
 10
0.0
 20
0.0
 30
0.0
 70
   128
 71
   184
 72
   183
 73
   255
  0
VERTEX
  5
6E3
  8
0
 62
   254
 10
0.0
 20
0.0
 30
0.0
 70
   128
 71
   176
 72
   261
 73
   183
  0
VERTEX
  5
6E4
  8
0
 62
   254
 10
0.0
 20
0.0
 30
0.0
 70
   128
 71
   261
 72
   262
 73
   183
  0
VERTEX
  5
6E5
  8
0
 62
   254
 10
0.0
 20
0.0
 30
0.0
 70
   128
 71
   262
 72
   255
 73
   183
  0
VERTEX
  5
6E6
  8
0
 62
   254
 10
0.0
 20
0.0
 30
0.0
 70
   128
 71
   198
 72
   197
 73
   274
  0
VERTEX
  5
6E7
  8
0
 62
   254
 10
0.0
 20
0.0
 30
0.0
 70
   128
 71
   191
 72
   256
 73
   197
  0
VERTEX
  5
6E8
  8
0
 62
   254
 10
0.0
 20
0.0
 30
0.0
 70
   128
 71
   256
 72
   266
 73
   197
  0
VERTEX
  5
6E9
  8
0
 62
   254
 10
0.0
 20
0.0
 30
0.0
 70
   128
 71
   266
 72
   274
 73
   197
  0
VERTEX
  5
6EA
  8
0
 62
   254
 10
0.0
 20
0.0
 30
0.0
 70
   128
 71
   194
 72
   273
 73
   193
  0
VERTEX
  5
6EB
  8
0
 62
   254
 10
0.0
 20
0.0
 30
0.0
 70
   128
 71
   187
 72
   193
 73
   287
  0
VERTEX
  5
6EC
  8
0
 62
   254
 10
0.0
 20
0.0
 30
0.0
 70
   128
 71
   287
 72
   193
 73
   284
  0
VERTEX
  5
6ED
  8
0
 62
   254
 10
0.0
 20
0.0
 30
0.0
 70
   128
 71
   284
 72
   193
 73
   273
  0
VERTEX
  5
6EE
  8
0
 62
   254
 10
0.0
 20
0.0
 30
0.0
 70
   128
 71
   240
 72
   249
 73
   208
  0
VERTEX
  5
6EF
  8
0
 62
   254
 10
0.0
 20
0.0
 30
0.0
 70
   128
 71
   216
 72
   208
 73
   249
  0
VERTEX
  5
6F0
  8
0
 62
   254
 10
0.0
 20
0.0
 30
0.0
 70
   128
 71
   241
 72
   205
 73
   244
  0
VERTEX
  5
6F1
  8
0
 62
   254
 10
0.0
 20
0.0
 30
0.0
 70
   128
 71
   203
 72
   244
 73
   205
  0
VERTEX
  5
6F2
  8
0
 62
   254
 10
0.0
 20
0.0
 30
0.0
 70
   128
 71
   247
 72
   227
 73
   250
  0
VERTEX
  5
6F3
  8
0
 62
   254
 10
0.0
 20
0.0
 30
0.0
 70
   128
 71
   222
 72
   250
 73
   227
  0
VERTEX
  5
6F4
  8
0
 62
   254
 10
0.0
 20
0.0
 30
0.0
 70
   128
 71
   243
 72
   212
 73
   246
  0
VERTEX
  5
6F5
  8
0
 62
   254
 10
0.0
 20
0.0
 30
0.0
 70
   128
 71
   219
 72
   246
 73
   212
  0
VERTEX
  5
6F6
  8
0
 62
   254
 10
0.0
 20
0.0
 30
0.0
 70
   128
 71
   215
 72
   217
 73
   200
  0
VERTEX
  5
6F7
  8
0
 62
   254
 10
0.0
 20
0.0
 30
0.0
 70
   128
 71
   202
 72
   200
 73
   217
  0
VERTEX
  5
6F8
  8
0
 62
   254
 10
0.0
 20
0.0
 30
0.0
 70
   128
 71
   110
 72
   109
 73
   111
  0
VERTEX
  5
6F9
  8
0
 62
   254
 10
0.0
 20
0.0
 30
0.0
 70
   128
 71
   138
 72
   288
 73
   139
  0
VERTEX
  5
6FA
  8
0
 62
   254
 10
0.0
 20
0.0
 30
0.0
 70
   128
 71
   139
 72
   288
 73
   122
  0
VERTEX
  5
6FB
  8
0
 62
   254
 10
0.0
 20
0.0
 30
0.0
 70
   128
 71
   138
 72
   137
 73
   288
  0
VERTEX
  5
6FC
  8
0
 62
   254
 10
0.0
 20
0.0
 30
0.0
 70
   128
 71
   137
 72
    53
 73
   288
  0
VERTEX
  5
6FD
  8
0
 62
   254
 10
0.0
 20
0.0
 30
0.0
 70
   128
 71
   122
 72
   288
 73
   120
  0
VERTEX
  5
6FE
  8
0
 62
   254
 10
0.0
 20
0.0
 30
0.0
 70
   128
 71
    53
 72
    49
 73
   288
  0
VERTEX
  5
6FF
  8
0
 62
   254
 10
0.0
 20
0.0
 30
0.0
 70
   128
 71
   288
 72
   288
 73
   120
  0
VERTEX
  5
700
  8
0
 62
   254
 10
0.0
 20
0.0
 30
0.0
 70
   128
 71
   120
 72
   288
 73
   124
  0
VERTEX
  5
701
  8
0
 62
   254
 10
0.0
 20
0.0
 30
0.0
 70
   128
 71
   288
 72
    49
 73
   288
  0
VERTEX
  5
702
  8
0
 62
   254
 10
0.0
 20
0.0
 30
0.0
 70
   128
 71
    49
 72
    56
 73
   288
  0
VERTEX
  5
703
  8
0
 62
   254
 10
0.0
 20
0.0
 30
0.0
 70
   128
 71
   124
 72
   288
 73
   123
  0
VERTEX
  5
704
  8
0
 62
   254
 10
0.0
 20
0.0
 30
0.0
 70
   128
 71
   288
 72
   288
 73
   123
  0
VERTEX
  5
705
  8
0
 62
   254
 10
0.0
 20
0.0
 30
0.0
 70
   128
 71
    56
 72
    54
 73
   288
  0
VERTEX
  5
706
  8
0
 62
   254
 10
0.0
 20
0.0
 30
0.0
 70
   128
 71
   288
 72
    54
 73
   288
  0
VERTEX
  5
707
  8
0
 62
   254
 10
0.0
 20
0.0
 30
0.0
 70
   128
 71
   288
 72
   288
 73
   123
  0
VERTEX
  5
708
  8
0
 62
   254
 10
0.0
 20
0.0
 30
0.0
 70
   128
 71
   123
 72
   288
 73
   125
  0
VERTEX
  5
709
  8
0
 62
   254
 10
0.0
 20
0.0
 30
0.0
 70
   128
 71
   125
 72
   288
 73
   121
  0
VERTEX
  5
70A
  8
0
 62
   254
 10
0.0
 20
0.0
 30
0.0
 70
   128
 71
   288
 72
   288
 73
   121
  0
VERTEX
  5
70B
  8
0
 62
   254
 10
0.0
 20
0.0
 30
0.0
 70
   128
 71
   288
 72
    54
 73
   288
  0
VERTEX
  5
70C
  8
0
 62
   254
 10
0.0
 20
0.0
 30
0.0
 70
   128
 71
    54
 72
    55
 73
   288
  0
VERTEX
  5
70D
  8
0
 62
   254
 10
0.0
 20
0.0
 30
0.0
 70
   128
 71
    55
 72
    50
 73
   288
  0
VERTEX
  5
70E
  8
0
 62
   254
 10
0.0
 20
0.0
 30
0.0
 70
   128
 71
   288
 72
    50
 73
   288
  0
VERTEX
  5
70F
  8
0
 62
   254
 10
0.0
 20
0.0
 30
0.0
 70
   128
 71
    50
 72
    52
 73
   288
  0
VERTEX
  5
710
  8
0
 62
   254
 10
0.0
 20
0.0
 30
0.0
 70
   128
 71
   121
 72
   288
 73
   113
  0
VERTEX
  5
711
  8
0
 62
   254
 10
0.0
 20
0.0
 30
0.0
 70
   128
 71
    52
 72
    66
 73
   288
  0
VERTEX
  5
712
  8
0
 62
   254
 10
0.0
 20
0.0
 30
0.0
 70
   128
 71
   288
 72
    66
 73
   288
  0
VERTEX
  5
713
  8
0
 62
   254
 10
0.0
 20
0.0
 30
0.0
 70
   128
 71
    66
 72
    68
 73
   288
  0
VERTEX
  5
714
  8
0
 62
   254
 10
0.0
 20
0.0
 30
0.0
 70
   128
 71
    68
 72
    69
 73
   288
  0
VERTEX
  5
715
  8
0
 62
   254
 10
0.0
 20
0.0
 30
0.0
 70
   128
 71
    69
 72
    71
 73
   288
  0
VERTEX
  5
716
  8
0
 62
   254
 10
0.0
 20
0.0
 30
0.0
 70
   128
 71
    71
 72
    81
 73
   288
  0
VERTEX
  5
717
  8
0
 62
   254
 10
0.0
 20
0.0
 30
0.0
 70
   128
 71
    81
 72
    84
 73
   288
  0
VERTEX
  5
718
  8
0
 62
   254
 10
0.0
 20
0.0
 30
0.0
 70
   128
 71
    84
 72
    83
 73
   288
  0
VERTEX
  5
719
  8
0
 62
   254
 10
0.0
 20
0.0
 30
0.0
 70
   128
 71
   288
 72
    83
 73
   288
  0
VERTEX
  5
71A
  8
0
 62
   254
 10
0.0
 20
0.0
 30
0.0
 70
   128
 71
   288
 72
    83
 73
   288
  0
VERTEX
  5
71B
  8
0
 62
   254
 10
0.0
 20
0.0
 30
0.0
 70
   128
 71
    83
 72
    82
 73
   288
  0
VERTEX
  5
71C
  8
0
 62
   254
 10
0.0
 20
0.0
 30
0.0
 70
   128
 71
    82
 72
    79
 73
   288
  0
VERTEX
  5
71D
  8
0
 62
   254
 10
0.0
 20
0.0
 30
0.0
 70
   128
 71
   288
 72
    79
 73
   288
  0
VERTEX
  5
71E
  8
0
 62
   254
 10
0.0
 20
0.0
 30
0.0
 70
   128
 71
    79
 72
    80
 73
   288
  0
VERTEX
  5
71F
  8
0
 62
   254
 10
0.0
 20
0.0
 30
0.0
 70
   128
 71
    80
 72
    90
 73
   288
  0
VERTEX
  5
720
  8
0
 62
   254
 10
0.0
 20
0.0
 30
0.0
 70
   128
 71
   288
 72
    90
 73
   288
  0
VERTEX
  5
721
  8
0
 62
   254
 10
0.0
 20
0.0
 30
0.0
 70
   128
 71
    90
 72
    89
 73
   288
  0
VERTEX
  5
722
  8
0
 62
   254
 10
0.0
 20
0.0
 30
0.0
 70
   128
 71
    89
 72
    88
 73
   288
  0
VERTEX
  5
723
  8
0
 62
   254
 10
0.0
 20
0.0
 30
0.0
 70
   128
 71
    88
 72
    92
 73
   288
  0
VERTEX
  5
724
  8
0
 62
   254
 10
0.0
 20
0.0
 30
0.0
 70
   128
 71
    92
 72
   102
 73
   288
  0
VERTEX
  5
725
  8
0
 62
   254
 10
0.0
 20
0.0
 30
0.0
 70
   128
 71
   102
 72
   105
 73
   288
  0
VERTEX
  5
726
  8
0
 62
   254
 10
0.0
 20
0.0
 30
0.0
 70
   128
 71
   105
 72
   104
 73
   288
  0
VERTEX
  5
727
  8
0
 62
   254
 10
0.0
 20
0.0
 30
0.0
 70
   128
 71
   288
 72
   104
 73
   288
  0
VERTEX
  5
728
  8
0
 62
   254
 10
0.0
 20
0.0
 30
0.0
 70
   128
 71
   288
 72
   104
 73
   288
  0
VERTEX
  5
729
  8
0
 62
   254
 10
0.0
 20
0.0
 30
0.0
 70
   128
 71
   104
 72
   103
 73
   288
  0
VERTEX
  5
72A
  8
0
 62
   254
 10
0.0
 20
0.0
 30
0.0
 70
   128
 71
   103
 72
   100
 73
   288
  0
VERTEX
  5
72B
  8
0
 62
   254
 10
0.0
 20
0.0
 30
0.0
 70
   128
 71
   288
 72
   100
 73
   288
  0
VERTEX
  5
72C
  8
0
 62
   254
 10
0.0
 20
0.0
 30
0.0
 70
   128
 71
   288
 72
   100
 73
   113
  0
VERTEX
  5
72D
  8
0
 62
   254
 10
0.0
 20
0.0
 30
0.0
 70
   128
 71
   100
 72
   101
 73
   113
  0
VERTEX
  5
72E
  8
0
 62
   254
 10
0.0
 20
0.0
 30
0.0
 70
   128
 71
   113
 72
   101
 73
   109
  0
VERTEX
  5
72F
  8
0
 62
   254
 10
0.0
 20
0.0
 30
0.0
 70
   128
 71
   101
 72
   111
 73
   109
  0
VERTEX
  5
730
  8
0
 62
   254
 10
0.0
 20
0.0
 30
0.0
 70
   128
 71
     7
 72
   190
 73
    13
  0
VERTEX
  5
731
  8
0
 62
   254
 10
0.0
 20
0.0
 30
0.0
 70
   128
 71
     7
 72
     6
 73
   190
  0
VERTEX
  5
732
  8
0
 62
   254
 10
0.0
 20
0.0
 30
0.0
 70
   128
 71
   190
 72
     6
 73
   174
  0
VERTEX
  5
733
  8
0
 62
   254
 10
0.0
 20
0.0
 30
0.0
 70
   128
 71
     6
 72
     5
 73
   174
  0
VERTEX
  5
734
  8
0
 62
   254
 10
0.0
 20
0.0
 30
0.0
 70
   128
 71
     5
 72
    15
 73
   174
  0
VERTEX
  5
735
  8
0
 62
   254
 10
0.0
 20
0.0
 30
0.0
 70
   128
 71
    15
 72
    21
 73
   174
  0
VERTEX
  5
736
  8
0
 62
   254
 10
0.0
 20
0.0
 30
0.0
 70
   128
 71
   174
 72
    21
 73
   173
  0
VERTEX
  5
737
  8
0
 62
   254
 10
0.0
 20
0.0
 30
0.0
 70
   128
 71
    21
 72
    28
 73
   173
  0
VERTEX
  5
738
  8
0
 62
   254
 10
0.0
 20
0.0
 30
0.0
 70
   128
 71
    28
 72
    38
 73
   173
  0
VERTEX
  5
739
  8
0
 62
   254
 10
0.0
 20
0.0
 30
0.0
 70
   128
 71
    38
 72
    41
 73
   173
  0
VERTEX
  5
73A
  8
0
 62
   254
 10
0.0
 20
0.0
 30
0.0
 70
   128
 71
   173
 72
    41
 73
   186
  0
VERTEX
  5
73B
  8
0
 62
   254
 10
0.0
 20
0.0
 30
0.0
 70
   128
 71
    41
 72
    33
 73
   186
  0
VERTEX
  5
73C
  8
0
 62
   254
 10
0.0
 20
0.0
 30
0.0
 70
   128
 71
    33
 72
    30
 73
   186
  0
VERTEX
  5
73D
  8
0
 62
   254
 10
0.0
 20
0.0
 30
0.0
 70
   128
 71
    30
 72
    26
 73
   186
  0
VERTEX
  5
73E
  8
0
 62
   254
 10
0.0
 20
0.0
 30
0.0
 70
   128
 71
   186
 72
    26
 73
   190
  0
VERTEX
  5
73F
  8
0
 62
   254
 10
0.0
 20
0.0
 30
0.0
 70
   128
 71
    26
 72
    13
 73
   190
  0
VERTEX
  5
740
  8
0
 62
   254
 10
0.0
 20
0.0
 30
0.0
 70
   128
 71
   261
 72
   176
 73
   268
  0
VERTEX
  5
741
  8
0
 62
   254
 10
0.0
 20
0.0
 30
0.0
 70
   128
 71
   177
 72
   268
 73
   176
  0
VERTEX
  5
742
  8
0
 62
   254
 10
0.0
 20
0.0
 30
0.0
 70
   128
 71
   256
 72
   191
 73
   255
  0
VERTEX
  5
743
  8
0
 62
   254
 10
0.0
 20
0.0
 30
0.0
 70
   128
 71
   184
 72
   255
 73
   191
  0
VERTEX
  5
744
  8
0
 62
   254
 10
0.0
 20
0.0
 30
0.0
 70
   128
 71
   273
 72
   194
 73
   274
  0
VERTEX
  5
745
  8
0
 62
   254
 10
0.0
 20
0.0
 30
0.0
 70
   128
 71
   198
 72
   274
 73
   194
  0
VERTEX
  5
746
  8
0
 62
   254
 10
0.0
 20
0.0
 30
0.0
 70
   128
 71
   287
 72
   279
 73
   187
  0
VERTEX
  5
747
  8
0
 62
   254
 10
0.0
 20
0.0
 30
0.0
 70
   128
 71
   180
 72
   187
 73
   279
  0
VERTEX
  5
748
  8
0
 62
   254
 10
0.0
 20
0.0
 30
0.0
 70
   128
 71
   239
 72
   234
 73
   170
  0
VERTEX
  5
749
  8
0
 62
   254
 10
0.0
 20
0.0
 30
0.0
 70
   128
 71
   166
 72
   170
 73
   234
  0
VERTEX
  5
74A
  8
0
 62
   254
 10
0.0
 20
0.0
 30
0.0
 70
   128
 71
   228
 72
   149
 73
   233
  0
VERTEX
  5
74B
  8
0
 62
   254
 10
0.0
 20
0.0
 30
0.0
 70
   128
 71
   145
 72
   233
 73
   149
  0
VERTEX
  5
74C
  8
0
 62
   254
 10
0.0
 20
0.0
 30
0.0
 70
   128
 71
   236
 72
   232
 73
   160
  0
VERTEX
  5
74D
  8
0
 62
   254
 10
0.0
 20
0.0
 30
0.0
 70
   128
 71
   153
 72
   160
 73
   232
  0
VERTEX
  5
74E
  8
0
 62
   254
 10
0.0
 20
0.0
 30
0.0
 70
   128
 71
   265
 72
   148
 73
   275
  0
VERTEX
  5
74F
  8
0
 62
   254
 10
0.0
 20
0.0
 30
0.0
 70
   128
 71
   278
 72
   159
 73
   267
  0
VERTEX
  5
750
  8
0
 62
   254
 10
0.0
 20
0.0
 30
0.0
 70
   128
 71
   159
 72
   147
 73
   267
  0
VERTEX
  5
751
  8
0
 62
   254
 10
0.0
 20
0.0
 30
0.0
 70
   128
 71
   267
 72
   147
 73
   258
  0
VERTEX
  5
752
  8
0
 62
   254
 10
0.0
 20
0.0
 30
0.0
 70
   128
 71
   258
 72
   147
 73
   260
  0
VERTEX
  5
753
  8
0
 62
   254
 10
0.0
 20
0.0
 30
0.0
 70
   128
 71
   260
 72
   147
 73
   252
  0
VERTEX
  5
754
  8
0
 62
   254
 10
0.0
 20
0.0
 30
0.0
 70
   128
 71
   147
 72
   148
 73
   252
  0
VERTEX
  5
755
  8
0
 62
   254
 10
0.0
 20
0.0
 30
0.0
 70
   128
 71
   252
 72
   148
 73
   254
  0
VERTEX
  5
756
  8
0
 62
   254
 10
0.0
 20
0.0
 30
0.0
 70
   128
 71
   254
 72
   148
 73
   265
  0
VERTEX
  5
757
  8
0
 62
   254
 10
0.0
 20
0.0
 30
0.0
 70
   128
 71
   278
 72
   276
 73
   159
  0
VERTEX
  5
758
  8
0
 62
   254
 10
0.0
 20
0.0
 30
0.0
 70
   128
 71
   159
 72
   276
 73
   161
  0
VERTEX
  5
759
  8
0
 62
   254
 10
0.0
 20
0.0
 30
0.0
 70
   128
 71
   276
 72
   286
 73
   161
  0
VERTEX
  5
75A
  8
0
 62
   254
 10
0.0
 20
0.0
 30
0.0
 70
   128
 71
   286
 72
   283
 73
   161
  0
VERTEX
  5
75B
  8
0
 62
   254
 10
0.0
 20
0.0
 30
0.0
 70
   128
 71
   283
 72
   270
 73
   161
  0
VERTEX
  5
75C
  8
0
 62
   254
 10
0.0
 20
0.0
 30
0.0
 70
   128
 71
   161
 72
   270
 73
   148
  0
VERTEX
  5
75D
  8
0
 62
   254
 10
0.0
 20
0.0
 30
0.0
 70
   128
 71
   270
 72
   275
 73
   148
  0
VERTEX
  5
75E
  8
0
 62
   254
 10
0.0
 20
0.0
 30
0.0
 70
   128
 71
   245
 72
   232
 73
   244
  0
VERTEX
  5
75F
  8
0
 62
   254
 10
0.0
 20
0.0
 30
0.0
 70
   128
 71
   230
 72
   229
 73
   248
  0
VERTEX
  5
760
  8
0
 62
   254
 10
0.0
 20
0.0
 30
0.0
 70
   128
 71
   229
 72
   228
 73
   248
  0
VERTEX
  5
761
  8
0
 62
   254
 10
0.0
 20
0.0
 30
0.0
 70
   128
 71
   248
 72
   247
 73
   230
  0
VERTEX
  5
762
  8
0
 62
   254
 10
0.0
 20
0.0
 30
0.0
 70
   128
 71
   230
 72
   247
 73
   238
  0
VERTEX
  5
763
  8
0
 62
   254
 10
0.0
 20
0.0
 30
0.0
 70
   128
 71
   247
 72
   250
 73
   238
  0
VERTEX
  5
764
  8
0
 62
   254
 10
0.0
 20
0.0
 30
0.0
 70
   128
 71
   250
 72
   251
 73
   238
  0
VERTEX
  5
765
  8
0
 62
   254
 10
0.0
 20
0.0
 30
0.0
 70
   128
 71
   238
 72
   251
 73
   237
  0
VERTEX
  5
766
  8
0
 62
   254
 10
0.0
 20
0.0
 30
0.0
 70
   128
 71
   237
 72
   251
 73
   239
  0
VERTEX
  5
767
  8
0
 62
   254
 10
0.0
 20
0.0
 30
0.0
 70
   128
 71
   248
 72
   228
 73
   246
  0
VERTEX
  5
768
  8
0
 62
   254
 10
0.0
 20
0.0
 30
0.0
 70
   128
 71
   228
 72
   233
 73
   246
  0
VERTEX
  5
769
  8
0
 62
   254
 10
0.0
 20
0.0
 30
0.0
 70
   128
 71
   246
 72
   233
 73
   243
  0
VERTEX
  5
76A
  8
0
 62
   254
 10
0.0
 20
0.0
 30
0.0
 70
   128
 71
   243
 72
   233
 73
   245
  0
VERTEX
  5
76B
  8
0
 62
   254
 10
0.0
 20
0.0
 30
0.0
 70
   128
 71
   233
 72
   231
 73
   245
  0
VERTEX
  5
76C
  8
0
 62
   254
 10
0.0
 20
0.0
 30
0.0
 70
   128
 71
   231
 72
   232
 73
   245
  0
VERTEX
  5
76D
  8
0
 62
   254
 10
0.0
 20
0.0
 30
0.0
 70
   128
 71
   251
 72
   249
 73
   239
  0
VERTEX
  5
76E
  8
0
 62
   254
 10
0.0
 20
0.0
 30
0.0
 70
   128
 71
   239
 72
   249
 73
   234
  0
VERTEX
  5
76F
  8
0
 62
   254
 10
0.0
 20
0.0
 30
0.0
 70
   128
 71
   249
 72
   240
 73
   234
  0
VERTEX
  5
770
  8
0
 62
   254
 10
0.0
 20
0.0
 30
0.0
 70
   128
 71
   240
 72
   242
 73
   234
  0
VERTEX
  5
771
  8
0
 62
   254
 10
0.0
 20
0.0
 30
0.0
 70
   128
 71
   234
 72
   242
 73
   235
  0
VERTEX
  5
772
  8
0
 62
   254
 10
0.0
 20
0.0
 30
0.0
 70
   128
 71
   235
 72
   242
 73
   236
  0
VERTEX
  5
773
  8
0
 62
   254
 10
0.0
 20
0.0
 30
0.0
 70
   128
 71
   242
 72
   241
 73
   236
  0
VERTEX
  5
774
  8
0
 62
   254
 10
0.0
 20
0.0
 30
0.0
 70
   128
 71
   236
 72
   241
 73
   232
  0
VERTEX
  5
775
  8
0
 62
   254
 10
0.0
 20
0.0
 30
0.0
 70
   128
 71
   241
 72
   244
 73
   232
  0
VERTEX
  5
776
  8
0
 62
   254
 10
0.0
 20
0.0
 30
0.0
 70
   128
 71
   260
 72
   252
 73
   259
  0
VERTEX
  5
777
  8
0
 62
   254
 10
0.0
 20
0.0
 30
0.0
 70
   128
 71
   255
 72
   262
 73
   257
  0
VERTEX
  5
778
  8
0
 62
   254
 10
0.0
 20
0.0
 30
0.0
 70
   128
 71
   262
 72
   259
 73
   257
  0
VERTEX
  5
779
  8
0
 62
   254
 10
0.0
 20
0.0
 30
0.0
 70
   128
 71
   257
 72
   259
 73
   252
  0
VERTEX
  5
77A
  8
0
 62
   254
 10
0.0
 20
0.0
 30
0.0
 70
   128
 71
   265
 72
   275
 73
   264
  0
VERTEX
  5
77B
  8
0
 62
   254
 10
0.0
 20
0.0
 30
0.0
 70
   128
 71
   274
 72
   266
 73
   271
  0
VERTEX
  5
77C
  8
0
 62
   254
 10
0.0
 20
0.0
 30
0.0
 70
   128
 71
   266
 72
   264
 73
   271
  0
VERTEX
  5
77D
  8
0
 62
   254
 10
0.0
 20
0.0
 30
0.0
 70
   128
 71
   271
 72
   264
 73
   275
  0
VERTEX
  5
77E
  8
0
 62
   254
 10
0.0
 20
0.0
 30
0.0
 70
   128
 71
   278
 72
   267
 73
   277
  0
VERTEX
  5
77F
  8
0
 62
   254
 10
0.0
 20
0.0
 30
0.0
 70
   128
 71
   268
 72
   280
 73
   269
  0
VERTEX
  5
780
  8
0
 62
   254
 10
0.0
 20
0.0
 30
0.0
 70
   128
 71
   280
 72
   277
 73
   269
  0
VERTEX
  5
781
  8
0
 62
   254
 10
0.0
 20
0.0
 30
0.0
 70
   128
 71
   269
 72
   277
 73
   267
  0
VERTEX
  5
782
  8
0
 62
   254
 10
0.0
 20
0.0
 30
0.0
 70
   128
 71
   283
 72
   286
 73
   282
  0
VERTEX
  5
783
  8
0
 62
   254
 10
0.0
 20
0.0
 30
0.0
 70
   128
 71
   287
 72
   284
 73
   285
  0
VERTEX
  5
784
  8
0
 62
   254
 10
0.0
 20
0.0
 30
0.0
 70
   128
 71
   284
 72
   282
 73
   285
  0
VERTEX
  5
785
  8
0
 62
   254
 10
0.0
 20
0.0
 30
0.0
 70
   128
 71
   285
 72
   282
 73
   286
  0
SEQEND
  5
786
  8
0
  0
ENDBLK
  5
789
  8
0
  0
BLOCK
  8
0
  2
SEIFENHALTER_E-0000048843
 70
     0
 10
0.0
 20
0.0
 30
0.0
  3
SEIFENHALTER_E-0000048843
  1

  0
POLYLINE
  5
78B
  8
0
 66
     1
 10
0.0
 20
0.0
 30
0.0
 70
    64
 71
   218
 72
   350
  0
VERTEX
  5
78C
  8
0
 10
0.0309999994933605
 20
-0.0337000004947186
 30
0.0
 70
   192
  0
VERTEX
  5
78D
  8
0
 10
-0.0309999994933605
 20
-0.0332050248980522
 30
-0.0002050252514891
 70
   192
  0
VERTEX
  5
78E
  8
0
 10
-0.0309999994933605
 20
-0.0337000004947186
 30
0.0
 70
   192
  0
VERTEX
  5
78F
  8
0
 10
0.0309999994933605
 20
-0.0329999998211861
 30
-0.0006999999750406
 70
   192
  0
VERTEX
  5
790
  8
0
 10
-0.0309999994933605
 20
-0.0329999998211861
 30
-0.0006999999750406
 70
   192
  0
VERTEX
  5
791
  8
0
 10
0.0309999994933605
 20
-0.0332050248980522
 30
-0.0002050252514891
 70
   192
  0
VERTEX
  5
792
  8
0
 10
-0.0309999994933605
 20
0.0337000004947186
 30
0.0
 70
   192
  0
VERTEX
  5
793
  8
0
 10
0.0309999994933605
 20
0.0332050248980522
 30
-0.0002050252514891
 70
   192
  0
VERTEX
  5
794
  8
0
 10
0.0309999994933605
 20
0.0337000004947186
 30
0.0
 70
   192
  0
VERTEX
  5
795
  8
0
 10
-0.0309999994933605
 20
0.0329999998211861
 30
-0.0006999999750406
 70
   192
  0
VERTEX
  5
796
  8
0
 10
0.0309999994933605
 20
0.0329999998211861
 30
-0.0006999999750406
 70
   192
  0
VERTEX
  5
797
  8
0
 10
-0.0309999994933605
 20
0.0332050248980522
 30
-0.0002050252514891
 70
   192
  0
VERTEX
  5
798
  8
0
 10
-0.045499999076128
 20
0.1121527776122093
 30
-0.0136478580534458
 70
   192
  0
VERTEX
  5
799
  8
0
 10
-0.0452951826155186
 20
0.1118000000715256
 30
-0.0139950644224882
 70
   192
  0
VERTEX
  5
79A
  8
0
 10
-0.045499999076128
 20
0.1118000000715256
 30
-0.0137951225042343
 70
   192
  0
VERTEX
  5
79B
  8
0
 10
-0.0452940985560417
 20
0.1122949719429016
 30
-0.0137899536639452
 70
   192
  0
VERTEX
  5
79C
  8
0
 10
-0.045499999076128
 20
0.1123000010848045
 30
-0.0132949771359563
 70
   192
  0
VERTEX
  5
79D
  8
0
 10
-0.0452999994158745
 20
0.1124999970197678
 30
-0.0132949771359563
 70
   192
  0
VERTEX
  5
79E
  8
0
 10
-0.0452951826155186
 20
-0.0368000008165836
 30
-0.0139950644224882
 70
   192
  0
VERTEX
  5
79F
  8
0
 10
-0.045499999076128
 20
-0.0371527783572674
 30
-0.0136478580534458
 70
   192
  0
VERTEX
  5
7A0
  8
0
 10
-0.045499999076128
 20
-0.0368000008165836
 30
-0.0137951225042343
 70
   192
  0
VERTEX
  5
7A1
  8
0
 10
-0.0452999994158745
 20
-0.0375000014901161
 30
-0.0132949771359563
 70
   192
  0
VERTEX
  5
7A2
  8
0
 10
-0.045499999076128
 20
-0.0373000018298626
 30
-0.0132949771359563
 70
   192
  0
VERTEX
  5
7A3
  8
0
 10
-0.0452940985560417
 20
-0.03729497641325
 30
-0.0137899536639452
 70
   192
  0
VERTEX
  5
7A4
  8
0
 10
-0.0452999994158745
 20
0.1124999970197678
 30
-0.0006999999750406
 70
   192
  0
VERTEX
  5
7A5
  8
0
 10
-0.045499999076128
 20
0.1123000010848045
 30
-0.0006999999750406
 70
   192
  0
VERTEX
  5
7A6
  8
0
 10
-0.045499999076128
 20
-0.0373000018298626
 30
-0.0006999999750406
 70
   192
  0
VERTEX
  5
7A7
  8
0
 10
-0.0452999994158745
 20
-0.0375000014901161
 30
-0.0006999999750406
 70
   192
  0
VERTEX
  5
7A8
  8
0
 10
-0.0452999994158745
 20
0.1122949719429016
 30
-0.0002050252514891
 70
   192
  0
VERTEX
  5
7A9
  8
0
 10
-0.0452999994158745
 20
0.1118000000715256
 30
0.0
 70
   192
  0
VERTEX
  5
7AA
  8
0
 10
-0.045499999076128
 20
0.1121535524725914
 30
-0.0003464466135483
 70
   192
  0
VERTEX
  5
7AB
  8
0
 10
-0.045499999076128
 20
0.1118000000715256
 30
-0.0001999999949476
 70
   192
  0
VERTEX
  5
7AC
  8
0
 10
-0.045499999076128
 20
-0.0371535532176495
 30
-0.0003464466135483
 70
   192
  0
VERTEX
  5
7AD
  8
0
 10
-0.0452999994158745
 20
-0.0368000008165836
 30
0.0
 70
   192
  0
VERTEX
  5
7AE
  8
0
 10
-0.045499999076128
 20
-0.0368000008165836
 30
-0.0001999999949476
 70
   192
  0
VERTEX
  5
7AF
  8
0
 10
-0.0452999994158745
 20
-0.03729497641325
 30
-0.0002050252514891
 70
   192
  0
VERTEX
  5
7B0
  8
0
 10
0.0313999988138676
 20
-0.0294000003486872
 30
-0.011622304096818
 70
   192
  0
VERTEX
  5
7B1
  8
0
 10
0.0319245308637619
 20
-0.0115000000223517
 30
-0.0121343489736319
 70
   192
  0
VERTEX
  5
7B2
  8
0
 10
0.0319245308637619
 20
-0.0294000003486872
 30
-0.0121343489736319
 70
   192
  0
VERTEX
  5
7B3
  8
0
 10
0.0313999988138676
 20
-0.0115000000223517
 30
-0.011622304096818
 70
   192
  0
VERTEX
  5
7B4
  8
0
 10
0.0320681631565094
 20
-0.0111558251082897
 30
-0.012130887247622
 70
   192
  0
VERTEX
  5
7B5
  8
0
 10
0.0324000008404255
 20
-0.010499999858439
 30
-0.0116105498746037
 70
   192
  0
VERTEX
  5
7B6
  8
0
 10
0.032412339001894
 20
-0.0110121937468648
 30
-0.0121225938200951
 70
   192
  0
VERTEX
  5
7B7
  8
0
 10
0.0316928923130035
 20
-0.0107928933575749
 30
-0.0116164265200496
 70
   192
  0
VERTEX
  5
7B8
  8
0
 10
0.0309665091335773
 20
-0.0306434016674757
 30
-0.0116370022296906
 70
   192
  0
VERTEX
  5
7B9
  8
0
 10
0.0303210094571114
 20
-0.0311753153800964
 30
-0.0116560282185674
 70
   192
  0
VERTEX
  5
7BA
  8
0
 10
0.0294123385101557
 20
-0.0319121927022934
 30
-0.0121948830783367
 70
   192
  0
VERTEX
  5
7BB
  8
0
 10
0.0294000003486872
 20
-0.0313999988138676
 30
-0.0116828391328454
 70
   192
  0
VERTEX
  5
7BC
  8
0
 10
0.0311848316341639
 20
-0.0311724934726954
 30
-0.0121521726250648
 70
   192
  0
VERTEX
  5
7BD
  8
0
 10
0.0335123389959335
 20
-0.0110121937468648
 30
-0.0120960883796215
 70
   192
  0
VERTEX
  5
7BE
  8
0
 10
0.033500000834465
 20
-0.010499999858439
 30
-0.0115840435028076
 70
   192
  0
VERTEX
  5
7BF
  8
0
 10
-0.0294000003486872
 20
-0.0313999988138676
 30
-0.0130997058004141
 70
   192
  0
VERTEX
  5
7C0
  8
0
 10
-0.0293876621872187
 20
-0.0319121927022934
 30
-0.013611750677228
 70
   192
  0
VERTEX
  5
7C1
  8
0
 10
0.0355245321989059
 20
-0.0089999996125698
 30
-0.0120476018637419
 70
   192
  0
VERTEX
  5
7C2
  8
0
 10
0.0346748605370522
 20
-0.0099325804039836
 30
-0.0115473316982388
 70
   192
  0
VERTEX
  5
7C3
  8
0
 10
0.0350000001490116
 20
-0.0089999996125698
 30
-0.011535556986928
 70
   192
  0
VERTEX
  5
7C4
  8
0
 10
0.0341907329857349
 20
-0.0103314993903041
 30
-0.0115625699982047
 70
   192
  0
VERTEX
  5
7C5
  8
0
 10
0.034932054579258
 20
-0.0104197151958942
 30
-0.0120618781074882
 70
   192
  0
VERTEX
  5
7C6
  8
0
 10
-0.0303209759294987
 20
-0.0311753321439028
 30
-0.013126514852047
 70
   192
  0
VERTEX
  5
7C7
  8
0
 10
-0.0309664774686098
 20
-0.0306434407830238
 30
-0.0131455408409238
 70
   192
  0
VERTEX
  5
7C8
  8
0
 10
-0.0318998545408249
 20
-0.0294000003486872
 30
-0.0136722857132554
 70
   192
  0
VERTEX
  5
7C9
  8
0
 10
-0.0313999988138676
 20
-0.0294000003486872
 30
-0.0131602408364415
 70
   192
  0
VERTEX
  5
7CA
  8
0
 10
-0.0311601553112268
 20
-0.0311724934726954
 30
-0.0136544611304998
 70
   192
  0
VERTEX
  5
7CB
  8
0
 10
0.0355245321989059
 20
0.0089999996125698
 30
-0.0120476018637419
 70
   192
  0
VERTEX
  5
7CC
  8
0
 10
0.0350000001490116
 20
0.0089999996125698
 30
-0.011535556986928
 70
   192
  0
VERTEX
  5
7CD
  8
0
 10
-0.0313999988138676
 20
-0.0115000000223517
 30
-0.0131602408364415
 70
   192
  0
VERTEX
  5
7CE
  8
0
 10
-0.0318998545408249
 20
-0.0115000000223517
 30
-0.0136722857132554
 70
   192
  0
VERTEX
  5
7CF
  8
0
 10
0.0346748605370522
 20
0.0099325804039836
 30
-0.0115473316982388
 70
   192
  0
VERTEX
  5
7D0
  8
0
 10
0.0335123389959335
 20
0.0110121937468648
 30
-0.0120960883796215
 70
   192
  0
VERTEX
  5
7D1
  8
0
 10
0.0341907329857349
 20
0.0103314993903041
 30
-0.0115625699982047
 70
   192
  0
VERTEX
  5
7D2
  8
0
 10
0.033500000834465
 20
0.010499999858439
 30
-0.0115840435028076
 70
   192
  0
VERTEX
  5
7D3
  8
0
 10
0.034932054579258
 20
0.0104197151958942
 30
-0.0120618781074882
 70
   192
  0
VERTEX
  5
7D4
  8
0
 10
-0.0316928923130035
 20
-0.0107928933575749
 30
-0.0131661184132099
 70
   192
  0
VERTEX
  5
7D5
  8
0
 10
-0.0320434868335724
 20
-0.0111558251082897
 30
-0.0136757465079427
 70
   192
  0
VERTEX
  5
7D6
  8
0
 10
-0.032387662678957
 20
-0.0110121937468648
 30
-0.0136840399354696
 70
   192
  0
VERTEX
  5
7D7
  8
0
 10
-0.0324000008404255
 20
-0.010499999858439
 30
-0.0131719950586557
 70
   192
  0
VERTEX
  5
7D8
  8
0
 10
0.032412339001894
 20
0.0110121937468648
 30
-0.0121225938200951
 70
   192
  0
VERTEX
  5
7D9
  8
0
 10
0.0324000008404255
 20
0.010499999858439
 30
-0.0116105498746037
 70
   192
  0
VERTEX
  5
7DA
  8
0
 10
-0.033500000834465
 20
-0.010499999858439
 30
-0.0131985014304519
 70
   192
  0
VERTEX
  5
7DB
  8
0
 10
-0.0334876626729965
 20
-0.0110121937468648
 30
-0.0137105463072658
 70
   192
  0
VERTEX
  5
7DC
  8
0
 10
0.0316928923130035
 20
0.0107928933575749
 30
-0.0116164265200496
 70
   192
  0
VERTEX
  5
7DD
  8
0
 10
0.0320681631565094
 20
0.0111558251082897
 30
-0.012130887247622
 70
   192
  0
VERTEX
  5
7DE
  8
0
 10
0.0313999988138676
 20
0.0115000000223517
 30
-0.011622304096818
 70
   192
  0
VERTEX
  5
7DF
  8
0
 10
0.0319245308637619
 20
0.0115000000223517
 30
-0.0121343489736319
 70
   192
  0
VERTEX
  5
7E0
  8
0
 10
-0.0341907553374767
 20
-0.010331486351788
 30
-0.0132199758663774
 70
   192
  0
VERTEX
  5
7E1
  8
0
 10
-0.0346748828887939
 20
-0.0099325515329838
 30
-0.0132352150976658
 70
   192
  0
VERTEX
  5
7E2
  8
0
 10
-0.0354998558759689
 20
-0.0089999996125698
 30
-0.0137590328231454
 70
   192
  0
VERTEX
  5
7E3
  8
0
 10
-0.0350000001490116
 20
-0.0089999996125698
 30
-0.0132469879463315
 70
   192
  0
VERTEX
  5
7E4
  8
0
 10
-0.034907378256321
 20
-0.0104197151958942
 30
-0.0137447556480765
 70
   192
  0
VERTEX
  5
7E5
  8
0
 10
0.0319245308637619
 20
0.0294000003486872
 30
-0.0121343489736319
 70
   192
  0
VERTEX
  5
7E6
  8
0
 10
0.0313999988138676
 20
0.0294000003486872
 30
-0.011622304096818
 70
   192
  0
VERTEX
  5
7E7
  8
0
 10
-0.0350000001490116
 20
0.0089999996125698
 30
-0.0132469879463315
 70
   192
  0
VERTEX
  5
7E8
  8
0
 10
-0.0354998558759689
 20
0.0089999996125698
 30
-0.0137590328231454
 70
   192
  0
VERTEX
  5
7E9
  8
0
 10
0.0309665091335773
 20
0.0306434016674757
 30
-0.0116370022296906
 70
   192
  0
VERTEX
  5
7EA
  8
0
 10
0.0294123385101557
 20
0.0319121927022934
 30
-0.0121948830783367
 70
   192
  0
VERTEX
  5
7EB
  8
0
 10
0.0303210094571114
 20
0.0311753153800964
 30
-0.0116560282185674
 70
   192
  0
VERTEX
  5
7EC
  8
0
 10
0.0294000003486872
 20
0.0313999988138676
 30
-0.0116828391328454
 70
   192
  0
VERTEX
  5
7ED
  8
0
 10
0.0311848316341639
 20
0.0311724934726954
 30
-0.0121521726250648
 70
   192
  0
VERTEX
  5
7EE
  8
0
 10
-0.0341907553374767
 20
0.010331486351788
 30
-0.0132199758663774
 70
   192
  0
VERTEX
  5
7EF
  8
0
 10
-0.0334876626729965
 20
0.0110121937468648
 30
-0.0137105463072658
 70
   192
  0
VERTEX
  5
7F0
  8
0
 10
-0.033500000834465
 20
0.010499999858439
 30
-0.0131985014304519
 70
   192
  0
VERTEX
  5
7F1
  8
0
 10
-0.0346748828887939
 20
0.0099325515329838
 30
-0.0132352150976658
 70
   192
  0
VERTEX
  5
7F2
  8
0
 10
-0.034907378256321
 20
0.0104197151958942
 30
-0.0137447556480765
 70
   192
  0
VERTEX
  5
7F3
  8
0
 10
-0.0293876621872187
 20
0.0319121927022934
 30
-0.013611750677228
 70
   192
  0
VERTEX
  5
7F4
  8
0
 10
-0.0294000003486872
 20
0.0313999988138676
 30
-0.0130997058004141
 70
   192
  0
VERTEX
  5
7F5
  8
0
 10
-0.0324000008404255
 20
0.010499999858439
 30
-0.0131719950586557
 70
   192
  0
VERTEX
  5
7F6
  8
0
 10
-0.032387662678957
 20
0.0110121937468648
 30
-0.0136840399354696
 70
   192
  0
VERTEX
  5
7F7
  8
0
 10
-0.0318998545408249
 20
0.0294000003486872
 30
-0.0136722857132554
 70
   192
  0
VERTEX
  5
7F8
  8
0
 10
-0.0309664774686098
 20
0.0306434407830238
 30
-0.0131455408409238
 70
   192
  0
VERTEX
  5
7F9
  8
0
 10
-0.0313999988138676
 20
0.0294000003486872
 30
-0.0131602408364415
 70
   192
  0
VERTEX
  5
7FA
  8
0
 10
-0.0303209759294987
 20
0.0311753321439028
 30
-0.013126514852047
 70
   192
  0
VERTEX
  5
7FB
  8
0
 10
-0.0311601553112268
 20
0.0311724934726954
 30
-0.0136544611304998
 70
   192
  0
VERTEX
  5
7FC
  8
0
 10
-0.0318998545408249
 20
0.0115000000223517
 30
-0.0136722857132554
 70
   192
  0
VERTEX
  5
7FD
  8
0
 10
-0.0316928923130035
 20
0.0107928933575749
 30
-0.0131661184132099
 70
   192
  0
VERTEX
  5
7FE
  8
0
 10
-0.0320434868335724
 20
0.0111558251082897
 30
-0.0136757465079427
 70
   192
  0
VERTEX
  5
7FF
  8
0
 10
-0.0313999988138676
 20
0.0115000000223517
 30
-0.0131602408364415
 70
   192
  0
VERTEX
  5
800
  8
0
 10
0.036811925470829
 20
-0.03729497641325
 30
-0.0118114957585931
 70
   192
  0
VERTEX
  5
801
  8
0
 10
0.0368000008165836
 20
-0.0375000014901161
 30
-0.0113166645169258
 70
   192
  0
VERTEX
  5
802
  8
0
 10
0.0368168614804745
 20
-0.0368000008165836
 30
-0.0120164612308145
 70
   192
  0
VERTEX
  5
803
  8
0
 10
0.0368168577551842
 20
-0.0368155390024185
 30
-0.0120162889361382
 70
   192
  0
VERTEX
  5
804
  8
0
 10
0.0368168465793133
 20
-0.0368312075734138
 30
-0.0120157655328512
 70
   192
  0
VERTEX
  5
805
  8
0
 10
0.0368167944252491
 20
-0.0368628986179829
 30
-0.0120136300101876
 70
   192
  0
VERTEX
  5
806
  8
0
 10
0.0368165820837021
 20
-0.0369273759424686
 30
-0.0120047787204385
 70
   192
  0
VERTEX
  5
807
  8
0
 10
0.0368156768381596
 20
-0.0370576679706573
 30
-0.0119673274457455
 70
   192
  0
VERTEX
  5
808
  8
0
 10
0.0371545776724815
 20
-0.0371447578072548
 30
-0.0118120610713959
 70
   192
  0
VERTEX
  5
809
  8
0
 10
0.0372939854860306
 20
-0.0368000008165836
 30
-0.0118126263841987
 70
   192
  0
VERTEX
  5
80A
  8
0
 10
0.03729497641325
 20
-0.03729497641325
 30
-0.0113166645169258
 70
   192
  0
VERTEX
  5
80B
  8
0
 10
0.0375000014901161
 20
-0.0368000008165836
 30
-0.0113166645169258
 70
   192
  0
VERTEX
  5
80C
  8
0
 10
0.0372939854860306
 20
0.1118000000715256
 30
-0.0118126263841987
 70
   192
  0
VERTEX
  5
80D
  8
0
 10
0.0375000014901161
 20
0.1118000000715256
 30
-0.0113166645169258
 70
   192
  0
VERTEX
  5
80E
  8
0
 10
0.0368168614804745
 20
0.1118000000715256
 30
-0.0120164612308145
 70
   192
  0
VERTEX
  5
80F
  8
0
 10
0.0368168577551842
 20
0.1118155345320702
 30
-0.0120162889361382
 70
   192
  0
VERTEX
  5
810
  8
0
 10
0.0371545776724815
 20
0.112144760787487
 30
-0.0118120610713959
 70
   192
  0
VERTEX
  5
811
  8
0
 10
0.03729497641325
 20
0.1122949719429016
 30
-0.0113166645169258
 70
   192
  0
VERTEX
  5
812
  8
0
 10
0.036811925470829
 20
0.1122949719429016
 30
-0.0118114957585931
 70
   192
  0
VERTEX
  5
813
  8
0
 10
0.0368000008165836
 20
0.1124999970197678
 30
-0.0113166645169258
 70
   192
  0
VERTEX
  5
814
  8
0
 10
0.0368165820837021
 20
0.1119273751974106
 30
-0.0120047787204385
 70
   192
  0
VERTEX
  5
815
  8
0
 10
0.0368168465793133
 20
0.1118312031030655
 30
-0.0120157655328512
 70
   192
  0
VERTEX
  5
816
  8
0
 10
0.0368167944252491
 20
0.1118628978729248
 30
-0.0120136300101876
 70
   192
  0
VERTEX
  5
817
  8
0
 10
0.0368156768381596
 20
0.112057663500309
 30
-0.0119673274457455
 70
   192
  0
VERTEX
  5
818
  8
0
 10
0.0368000008165836
 20
0.1118000000715256
 30
0.0
 70
   192
  0
VERTEX
  5
819
  8
0
 10
0.0368000008165836
 20
0.1124999970197678
 30
-0.0006999999750406
 70
   192
  0
VERTEX
  5
81A
  8
0
 10
0.0368000008165836
 20
0.1122949719429016
 30
-0.0002050252514891
 70
   192
  0
VERTEX
  5
81B
  8
0
 10
0.03729497641325
 20
0.1122949719429016
 30
-0.0006999999750406
 70
   192
  0
VERTEX
  5
81C
  8
0
 10
0.03729497641325
 20
0.1118000000715256
 30
-0.0002050252514891
 70
   192
  0
VERTEX
  5
81D
  8
0
 10
0.0375000014901161
 20
0.1118000000715256
 30
-0.0006999999750406
 70
   192
  0
VERTEX
  5
81E
  8
0
 10
0.0371499992907047
 20
0.1121499985456467
 30
-0.0002050252514891
 70
   192
  0
VERTEX
  5
81F
  8
0
 10
0.03729497641325
 20
-0.0368000008165836
 30
-0.0002050252514891
 70
   192
  0
VERTEX
  5
820
  8
0
 10
0.0375000014901161
 20
-0.0368000008165836
 30
-0.0006999999750406
 70
   192
  0
VERTEX
  5
821
  8
0
 10
0.0368000008165836
 20
-0.0368000008165836
 30
0.0
 70
   192
  0
VERTEX
  5
822
  8
0
 10
0.03729497641325
 20
-0.03729497641325
 30
-0.0006999999750406
 70
   192
  0
VERTEX
  5
823
  8
0
 10
0.0371499992907047
 20
-0.0371499992907047
 30
-0.0002050252514891
 70
   192
  0
VERTEX
  5
824
  8
0
 10
0.0368000008165836
 20
-0.03729497641325
 30
-0.0002050252514891
 70
   192
  0
VERTEX
  5
825
  8
0
 10
0.0368000008165836
 20
-0.0375000014901161
 30
-0.0006999999750406
 70
   192
  0
VERTEX
  5
826
  8
0
 10
0.0350000001490116
 20
0.0089999996125698
 30
-0.0065000001341105
 70
   192
  0
VERTEX
  5
827
  8
0
 10
0.033500000834465
 20
0.010499999858439
 30
-0.0065000001341105
 70
   192
  0
VERTEX
  5
828
  8
0
 10
0.0345606617629528
 20
0.0100606605410576
 30
-0.0065000001341105
 70
   192
  0
VERTEX
  5
829
  8
0
 10
-0.033500000834465
 20
-0.010499999858439
 30
-0.0080000003799796
 70
   192
  0
VERTEX
  5
82A
  8
0
 10
-0.0350000001490116
 20
-0.0089999996125698
 30
-0.0080000003799796
 70
   192
  0
VERTEX
  5
82B
  8
0
 10
-0.0345606617629528
 20
-0.0100606605410576
 30
-0.0080000003799796
 70
   192
  0
VERTEX
  5
82C
  8
0
 10
-0.0350000001490116
 20
0.0089999996125698
 30
-0.0080000003799796
 70
   192
  0
VERTEX
  5
82D
  8
0
 10
-0.0345606617629528
 20
0.0100606605410576
 30
-0.0080000003799796
 70
   192
  0
VERTEX
  5
82E
  8
0
 10
-0.033500000834465
 20
0.010499999858439
 30
-0.0080000003799796
 70
   192
  0
VERTEX
  5
82F
  8
0
 10
0.0350000001490116
 20
-0.0089999996125698
 30
-0.0065000001341105
 70
   192
  0
VERTEX
  5
830
  8
0
 10
0.033500000834465
 20
-0.010499999858439
 30
-0.0065000001341105
 70
   192
  0
VERTEX
  5
831
  8
0
 10
0.0345606617629528
 20
-0.0100606605410576
 30
-0.0065000001341105
 70
   192
  0
VERTEX
  5
832
  8
0
 10
-0.0324000008404255
 20
0.010499999858439
 30
-0.0098999999463558
 70
   192
  0
VERTEX
  5
833
  8
0
 10
-0.0316928923130035
 20
0.0107928933575749
 30
-0.0098999999463558
 70
   192
  0
VERTEX
  5
834
  8
0
 10
-0.0313999988138676
 20
0.0115000000223517
 30
-0.0098999999463558
 70
   192
  0
VERTEX
  5
835
  8
0
 10
0.0316928923130035
 20
-0.0107928933575749
 30
-0.0098999999463558
 70
   192
  0
VERTEX
  5
836
  8
0
 10
0.0324000008404255
 20
-0.010499999858439
 30
-0.0098999999463558
 70
   192
  0
VERTEX
  5
837
  8
0
 10
0.0313999988138676
 20
-0.0115000000223517
 30
-0.0098999999463558
 70
   192
  0
VERTEX
  5
838
  8
0
 10
0.0316928923130035
 20
0.0107928933575749
 30
-0.0098999999463558
 70
   192
  0
VERTEX
  5
839
  8
0
 10
0.0324000008404255
 20
0.010499999858439
 30
-0.0098999999463558
 70
   192
  0
VERTEX
  5
83A
  8
0
 10
0.0313999988138676
 20
0.0115000000223517
 30
-0.0098999999463558
 70
   192
  0
VERTEX
  5
83B
  8
0
 10
-0.0316928923130035
 20
-0.0107928933575749
 30
-0.0098999999463558
 70
   192
  0
VERTEX
  5
83C
  8
0
 10
-0.0313999988138676
 20
-0.0115000000223517
 30
-0.0098999999463558
 70
   192
  0
VERTEX
  5
83D
  8
0
 10
-0.0324000008404255
 20
-0.010499999858439
 30
-0.0098999999463558
 70
   192
  0
VERTEX
  5
83E
  8
0
 10
0.0329999998211861
 20
0.010499999858439
 30
-0.0098999999463558
 70
   192
  0
VERTEX
  5
83F
  8
0
 10
0.0329999998211861
 20
0.010499999858439
 30
-0.0065000001341105
 70
   192
  0
VERTEX
  5
840
  8
0
 10
0.0329999998211861
 20
-0.010499999858439
 30
-0.0098999999463558
 70
   192
  0
VERTEX
  5
841
  8
0
 10
0.0329999998211861
 20
-0.010499999858439
 30
-0.0065000001341105
 70
   192
  0
VERTEX
  5
842
  8
0
 10
0.0329999998211861
 20
-0.0309999994933605
 30
-0.0093999998643994
 70
   192
  0
VERTEX
  5
843
  8
0
 10
0.0329999998211861
 20
-0.0109999999403954
 30
-0.0093999998643994
 70
   192
  0
VERTEX
  5
844
  8
0
 10
0.0329999998211861
 20
0.0109999999403954
 30
-0.0093999998643994
 70
   192
  0
VERTEX
  5
845
  8
0
 10
0.0329999998211861
 20
0.0309999994933605
 30
-0.0006999999750406
 70
   192
  0
VERTEX
  5
846
  8
0
 10
0.0329999998211861
 20
0.0309999994933605
 30
-0.0093999998643994
 70
   192
  0
VERTEX
  5
847
  8
0
 10
0.0329999998211861
 20
-0.0309999994933605
 30
-0.0006999999750406
 70
   192
  0
VERTEX
  5
848
  8
0
 10
-0.0329999998211861
 20
-0.010499999858439
 30
-0.0098999999463558
 70
   192
  0
VERTEX
  5
849
  8
0
 10
-0.0329999998211861
 20
-0.010499999858439
 30
-0.0080000003799796
 70
   192
  0
VERTEX
  5
84A
  8
0
 10
-0.0329999998211861
 20
0.010499999858439
 30
-0.0098999999463558
 70
   192
  0
VERTEX
  5
84B
  8
0
 10
-0.0329999998211861
 20
0.010499999858439
 30
-0.0080000003799796
 70
   192
  0
VERTEX
  5
84C
  8
0
 10
-0.0329999998211861
 20
0.0309999994933605
 30
-0.0093999998643994
 70
   192
  0
VERTEX
  5
84D
  8
0
 10
-0.0329999998211861
 20
0.0109999999403954
 30
-0.0093999998643994
 70
   192
  0
VERTEX
  5
84E
  8
0
 10
-0.0329999998211861
 20
-0.0109999999403954
 30
-0.0093999998643994
 70
   192
  0
VERTEX
  5
84F
  8
0
 10
-0.0329999998211861
 20
-0.0309999994933605
 30
-0.0006999999750406
 70
   192
  0
VERTEX
  5
850
  8
0
 10
-0.0329999998211861
 20
-0.0309999994933605
 30
-0.0093999998643994
 70
   192
  0
VERTEX
  5
851
  8
0
 10
-0.0329999998211861
 20
0.0309999994933605
 30
-0.0006999999750406
 70
   192
  0
VERTEX
  5
852
  8
0
 10
-0.0294000003486872
 20
-0.0313999988138676
 30
-0.0098999999463558
 70
   192
  0
VERTEX
  5
853
  8
0
 10
-0.0313999988138676
 20
-0.0294000003486872
 30
-0.0098999999463558
 70
   192
  0
VERTEX
  5
854
  8
0
 10
-0.0308142136782408
 20
-0.0308142136782408
 30
-0.0098999999463558
 70
   192
  0
VERTEX
  5
855
  8
0
 10
0.0313999988138676
 20
-0.0294000003486872
 30
-0.0098999999463558
 70
   192
  0
VERTEX
  5
856
  8
0
 10
0.0294000003486872
 20
-0.0313999988138676
 30
-0.0098999999463558
 70
   192
  0
VERTEX
  5
857
  8
0
 10
0.0308142136782408
 20
-0.0308142136782408
 30
-0.0098999999463558
 70
   192
  0
VERTEX
  5
858
  8
0
 10
0.0313999988138676
 20
0.0294000003486872
 30
-0.0098999999463558
 70
   192
  0
VERTEX
  5
859
  8
0
 10
0.0294000003486872
 20
0.0313999988138676
 30
-0.0098999999463558
 70
   192
  0
VERTEX
  5
85A
  8
0
 10
0.0308142136782408
 20
0.0308142136782408
 30
-0.0098999999463558
 70
   192
  0
VERTEX
  5
85B
  8
0
 10
-0.0294000003486872
 20
0.0313999988138676
 30
-0.0098999999463558
 70
   192
  0
VERTEX
  5
85C
  8
0
 10
-0.0313999988138676
 20
0.0294000003486872
 30
-0.0098999999463558
 70
   192
  0
VERTEX
  5
85D
  8
0
 10
-0.0308142136782408
 20
0.0308142136782408
 30
-0.0098999999463558
 70
   192
  0
VERTEX
  5
85E
  8
0
 10
0.0309999994933605
 20
-0.0329999998211861
 30
-0.0093999998643994
 70
   192
  0
VERTEX
  5
85F
  8
0
 10
-0.0309999994933605
 20
-0.0329999998211861
 30
-0.0093999998643994
 70
   192
  0
VERTEX
  5
860
  8
0
 10
-0.0309999994933605
 20
0.0329999998211861
 30
-0.0093999998643994
 70
   192
  0
VERTEX
  5
861
  8
0
 10
0.0309999994933605
 20
0.0329999998211861
 30
-0.0093999998643994
 70
   192
  0
VERTEX
  5
862
  8
0
 10
0.0337000004947186
 20
-0.0309999994933605
 30
0.0
 70
   192
  0
VERTEX
  5
863
  8
0
 10
0.0337000004947186
 20
0.0309999994933605
 30
0.0
 70
   192
  0
VERTEX
  5
864
  8
0
 10
-0.0337000004947186
 20
-0.0309999994933605
 30
0.0
 70
   192
  0
VERTEX
  5
865
  8
0
 10
-0.0337000004947186
 20
0.0309999994933605
 30
0.0
 70
   192
  0
VERTEX
  5
866
  8
0
 62
   253
 10
0.0
 20
0.0
 30
0.0
 70
   128
 71
     3
 72
     2
 73
     1
  0
VERTEX
  5
867
  8
0
 62
   253
 10
0.0
 20
0.0
 30
0.0
 70
   128
 71
     5
 72
     4
 73
     2
  0
VERTEX
  5
868
  8
0
 62
   253
 10
0.0
 20
0.0
 30
0.0
 70
   128
 71
     4
 72
     6
 73
     2
  0
VERTEX
  5
869
  8
0
 62
   253
 10
0.0
 20
0.0
 30
0.0
 70
   128
 71
     6
 72
     1
 73
     2
  0
VERTEX
  5
86A
  8
0
 62
   253
 10
0.0
 20
0.0
 30
0.0
 70
   128
 71
     9
 72
     8
 73
     7
  0
VERTEX
  5
86B
  8
0
 62
   253
 10
0.0
 20
0.0
 30
0.0
 70
   128
 71
    11
 72
    10
 73
     8
  0
VERTEX
  5
86C
  8
0
 62
   253
 10
0.0
 20
0.0
 30
0.0
 70
   128
 71
    10
 72
    12
 73
     8
  0
VERTEX
  5
86D
  8
0
 62
   253
 10
0.0
 20
0.0
 30
0.0
 70
   128
 71
    12
 72
     7
 73
     8
  0
VERTEX
  5
86E
  8
0
 62
   253
 10
0.0
 20
0.0
 30
0.0
 70
   128
 71
    15
 72
    14
 73
    13
  0
VERTEX
  5
86F
  8
0
 62
   253
 10
0.0
 20
0.0
 30
0.0
 70
   128
 71
    18
 72
    17
 73
    16
  0
VERTEX
  5
870
  8
0
 62
   253
 10
0.0
 20
0.0
 30
0.0
 70
   128
 71
    17
 72
    13
 73
    16
  0
VERTEX
  5
871
  8
0
 62
   253
 10
0.0
 20
0.0
 30
0.0
 70
   128
 71
    16
 72
    13
 73
    14
  0
VERTEX
  5
872
  8
0
 62
   253
 10
0.0
 20
0.0
 30
0.0
 70
   128
 71
    21
 72
    20
 73
    19
  0
VERTEX
  5
873
  8
0
 62
   253
 10
0.0
 20
0.0
 30
0.0
 70
   128
 71
    23
 72
    22
 73
    20
  0
VERTEX
  5
874
  8
0
 62
   253
 10
0.0
 20
0.0
 30
0.0
 70
   128
 71
    22
 72
    24
 73
    20
  0
VERTEX
  5
875
  8
0
 62
   253
 10
0.0
 20
0.0
 30
0.0
 70
   128
 71
    24
 72
    19
 73
    20
  0
VERTEX
  5
876
  8
0
 62
   253
 10
0.0
 20
0.0
 30
0.0
 70
   128
 71
    26
 72
    17
 73
    25
  0
VERTEX
  5
877
  8
0
 62
   253
 10
0.0
 20
0.0
 30
0.0
 70
   128
 71
    18
 72
    25
 73
    17
  0
VERTEX
  5
878
  8
0
 62
   253
 10
0.0
 20
0.0
 30
0.0
 70
   128
 71
    28
 72
    22
 73
    27
  0
VERTEX
  5
879
  8
0
 62
   253
 10
0.0
 20
0.0
 30
0.0
 70
   128
 71
    23
 72
    27
 73
    22
  0
VERTEX
  5
87A
  8
0
 62
   253
 10
0.0
 20
0.0
 30
0.0
 70
   128
 71
    25
 72
    29
 73
    26
  0
VERTEX
  5
87B
  8
0
 62
   253
 10
0.0
 20
0.0
 30
0.0
 70
   128
 71
    32
 72
    31
 73
    30
  0
VERTEX
  5
87C
  8
0
 62
   253
 10
0.0
 20
0.0
 30
0.0
 70
   128
 71
    30
 72
    31
 73
    29
  0
VERTEX
  5
87D
  8
0
 62
   253
 10
0.0
 20
0.0
 30
0.0
 70
   128
 71
    31
 72
    26
 73
    29
  0
VERTEX
  5
87E
  8
0
 62
   253
 10
0.0
 20
0.0
 30
0.0
 70
   128
 71
    27
 72
    33
 73
    28
  0
VERTEX
  5
87F
  8
0
 62
   253
 10
0.0
 20
0.0
 30
0.0
 70
   128
 71
    35
 72
    34
 73
    33
  0
VERTEX
  5
880
  8
0
 62
   253
 10
0.0
 20
0.0
 30
0.0
 70
   128
 71
    34
 72
    36
 73
    33
  0
VERTEX
  5
881
  8
0
 62
   253
 10
0.0
 20
0.0
 30
0.0
 70
   128
 71
    36
 72
    28
 73
    33
  0
VERTEX
  5
882
  8
0
 62
   253
 10
0.0
 20
0.0
 30
0.0
 70
   128
 71
    39
 72
    38
 73
    37
  0
VERTEX
  5
883
  8
0
 62
   253
 10
0.0
 20
0.0
 30
0.0
 70
   128
 71
    40
 72
    37
 73
    38
  0
VERTEX
  5
884
  8
0
 62
   253
 10
0.0
 20
0.0
 30
0.0
 70
   128
 71
    38
 72
    41
 73
    40
  0
VERTEX
  5
885
  8
0
 62
   253
 10
0.0
 20
0.0
 30
0.0
 70
   128
 71
    43
 72
    42
 73
    41
  0
VERTEX
  5
886
  8
0
 62
   253
 10
0.0
 20
0.0
 30
0.0
 70
   128
 71
    42
 72
    44
 73
    41
  0
VERTEX
  5
887
  8
0
 62
   253
 10
0.0
 20
0.0
 30
0.0
 70
   128
 71
    44
 72
    40
 73
    41
  0
VERTEX
  5
888
  8
0
 62
   253
 10
0.0
 20
0.0
 30
0.0
 70
   128
 71
    37
 72
    45
 73
    39
  0
VERTEX
  5
889
  8
0
 62
   253
 10
0.0
 20
0.0
 30
0.0
 70
   128
 71
    48
 72
    47
 73
    46
  0
VERTEX
  5
88A
  8
0
 62
   253
 10
0.0
 20
0.0
 30
0.0
 70
   128
 71
    47
 72
    49
 73
    46
  0
VERTEX
  5
88B
  8
0
 62
   253
 10
0.0
 20
0.0
 30
0.0
 70
   128
 71
    46
 72
    49
 73
    45
  0
VERTEX
  5
88C
  8
0
 62
   253
 10
0.0
 20
0.0
 30
0.0
 70
   128
 71
    49
 72
    39
 73
    45
  0
VERTEX
  5
88D
  8
0
 62
   253
 10
0.0
 20
0.0
 30
0.0
 70
   128
 71
    51
 72
    42
 73
    50
  0
VERTEX
  5
88E
  8
0
 62
   253
 10
0.0
 20
0.0
 30
0.0
 70
   128
 71
    43
 72
    50
 73
    42
  0
VERTEX
  5
88F
  8
0
 62
   253
 10
0.0
 20
0.0
 30
0.0
 70
   128
 71
    53
 72
    47
 73
    52
  0
VERTEX
  5
890
  8
0
 62
   253
 10
0.0
 20
0.0
 30
0.0
 70
   128
 71
    48
 72
    52
 73
    47
  0
VERTEX
  5
891
  8
0
 62
   253
 10
0.0
 20
0.0
 30
0.0
 70
   128
 71
    56
 72
    55
 73
    54
  0
VERTEX
  5
892
  8
0
 62
   253
 10
0.0
 20
0.0
 30
0.0
 70
   128
 71
    51
 72
    50
 73
    57
  0
VERTEX
  5
893
  8
0
 62
   253
 10
0.0
 20
0.0
 30
0.0
 70
   128
 71
    50
 72
    58
 73
    57
  0
VERTEX
  5
894
  8
0
 62
   253
 10
0.0
 20
0.0
 30
0.0
 70
   128
 71
    57
 72
    58
 73
    55
  0
VERTEX
  5
895
  8
0
 62
   253
 10
0.0
 20
0.0
 30
0.0
 70
   128
 71
    58
 72
    54
 73
    55
  0
VERTEX
  5
896
  8
0
 62
   253
 10
0.0
 20
0.0
 30
0.0
 70
   128
 71
    52
 72
    59
 73
    53
  0
VERTEX
  5
897
  8
0
 62
   253
 10
0.0
 20
0.0
 30
0.0
 70
   128
 71
    62
 72
    61
 73
    60
  0
VERTEX
  5
898
  8
0
 62
   253
 10
0.0
 20
0.0
 30
0.0
 70
   128
 71
    61
 72
    63
 73
    60
  0
VERTEX
  5
899
  8
0
 62
   253
 10
0.0
 20
0.0
 30
0.0
 70
   128
 71
    60
 72
    63
 73
    59
  0
VERTEX
  5
89A
  8
0
 62
   253
 10
0.0
 20
0.0
 30
0.0
 70
   128
 71
    63
 72
    53
 73
    59
  0
VERTEX
  5
89B
  8
0
 62
   253
 10
0.0
 20
0.0
 30
0.0
 70
   128
 71
    65
 72
    56
 73
    64
  0
VERTEX
  5
89C
  8
0
 62
   253
 10
0.0
 20
0.0
 30
0.0
 70
   128
 71
    54
 72
    64
 73
    56
  0
VERTEX
  5
89D
  8
0
 62
   253
 10
0.0
 20
0.0
 30
0.0
 70
   128
 71
    67
 72
    61
 73
    66
  0
VERTEX
  5
89E
  8
0
 62
   253
 10
0.0
 20
0.0
 30
0.0
 70
   128
 71
    62
 72
    66
 73
    61
  0
VERTEX
  5
89F
  8
0
 62
   253
 10
0.0
 20
0.0
 30
0.0
 70
   128
 71
    65
 72
    64
 73
    68
  0
VERTEX
  5
8A0
  8
0
 62
   253
 10
0.0
 20
0.0
 30
0.0
 70
   128
 71
    71
 72
    70
 73
    69
  0
VERTEX
  5
8A1
  8
0
 62
   253
 10
0.0
 20
0.0
 30
0.0
 70
   128
 71
    69
 72
    70
 73
    72
  0
VERTEX
  5
8A2
  8
0
 62
   253
 10
0.0
 20
0.0
 30
0.0
 70
   128
 71
    70
 72
    68
 73
    72
  0
VERTEX
  5
8A3
  8
0
 62
   253
 10
0.0
 20
0.0
 30
0.0
 70
   128
 71
    72
 72
    68
 73
    64
  0
VERTEX
  5
8A4
  8
0
 62
   253
 10
0.0
 20
0.0
 30
0.0
 70
   128
 71
    74
 72
    67
 73
    73
  0
VERTEX
  5
8A5
  8
0
 62
   253
 10
0.0
 20
0.0
 30
0.0
 70
   128
 71
    76
 72
    75
 73
    73
  0
VERTEX
  5
8A6
  8
0
 62
   253
 10
0.0
 20
0.0
 30
0.0
 70
   128
 71
    75
 72
    74
 73
    73
  0
VERTEX
  5
8A7
  8
0
 62
   253
 10
0.0
 20
0.0
 30
0.0
 70
   128
 71
    66
 72
    73
 73
    67
  0
VERTEX
  5
8A8
  8
0
 62
   253
 10
0.0
 20
0.0
 30
0.0
 70
   128
 71
    78
 72
    71
 73
    77
  0
VERTEX
  5
8A9
  8
0
 62
   253
 10
0.0
 20
0.0
 30
0.0
 70
   128
 71
    69
 72
    77
 73
    71
  0
VERTEX
  5
8AA
  8
0
 62
   253
 10
0.0
 20
0.0
 30
0.0
 70
   128
 71
    80
 72
    75
 73
    79
  0
VERTEX
  5
8AB
  8
0
 62
   253
 10
0.0
 20
0.0
 30
0.0
 70
   128
 71
    76
 72
    79
 73
    75
  0
VERTEX
  5
8AC
  8
0
 62
   253
 10
0.0
 20
0.0
 30
0.0
 70
   128
 71
    78
 72
    77
 73
    81
  0
VERTEX
  5
8AD
  8
0
 62
   253
 10
0.0
 20
0.0
 30
0.0
 70
   128
 71
    84
 72
    83
 73
    82
  0
VERTEX
  5
8AE
  8
0
 62
   253
 10
0.0
 20
0.0
 30
0.0
 70
   128
 71
    83
 72
    81
 73
    82
  0
VERTEX
  5
8AF
  8
0
 62
   253
 10
0.0
 20
0.0
 30
0.0
 70
   128
 71
    82
 72
    81
 73
    77
  0
VERTEX
  5
8B0
  8
0
 62
   253
 10
0.0
 20
0.0
 30
0.0
 70
   128
 71
    79
 72
    85
 73
    80
  0
VERTEX
  5
8B1
  8
0
 62
   253
 10
0.0
 20
0.0
 30
0.0
 70
   128
 71
    88
 72
    87
 73
    86
  0
VERTEX
  5
8B2
  8
0
 62
   253
 10
0.0
 20
0.0
 30
0.0
 70
   128
 71
    87
 72
    89
 73
    86
  0
VERTEX
  5
8B3
  8
0
 62
   253
 10
0.0
 20
0.0
 30
0.0
 70
   128
 71
    86
 72
    89
 73
    85
  0
VERTEX
  5
8B4
  8
0
 62
   253
 10
0.0
 20
0.0
 30
0.0
 70
   128
 71
    89
 72
    80
 73
    85
  0
VERTEX
  5
8B5
  8
0
 62
   253
 10
0.0
 20
0.0
 30
0.0
 70
   128
 71
    91
 72
    83
 73
    90
  0
VERTEX
  5
8B6
  8
0
 62
   253
 10
0.0
 20
0.0
 30
0.0
 70
   128
 71
    84
 72
    90
 73
    83
  0
VERTEX
  5
8B7
  8
0
 62
   253
 10
0.0
 20
0.0
 30
0.0
 70
   128
 71
    93
 72
    87
 73
    92
  0
VERTEX
  5
8B8
  8
0
 62
   253
 10
0.0
 20
0.0
 30
0.0
 70
   128
 71
    88
 72
    92
 73
    87
  0
VERTEX
  5
8B9
  8
0
 62
   253
 10
0.0
 20
0.0
 30
0.0
 70
   128
 71
    91
 72
    90
 73
    94
  0
VERTEX
  5
8BA
  8
0
 62
   253
 10
0.0
 20
0.0
 30
0.0
 70
   128
 71
    97
 72
    96
 73
    95
  0
VERTEX
  5
8BB
  8
0
 62
   253
 10
0.0
 20
0.0
 30
0.0
 70
   128
 71
    95
 72
    96
 73
    98
  0
VERTEX
  5
8BC
  8
0
 62
   253
 10
0.0
 20
0.0
 30
0.0
 70
   128
 71
    96
 72
    94
 73
    98
  0
VERTEX
  5
8BD
  8
0
 62
   253
 10
0.0
 20
0.0
 30
0.0
 70
   128
 71
    98
 72
    94
 73
    90
  0
VERTEX
  5
8BE
  8
0
 62
   253
 10
0.0
 20
0.0
 30
0.0
 70
   128
 71
   101
 72
   100
 73
    99
  0
VERTEX
  5
8BF
  8
0
 62
   253
 10
0.0
 20
0.0
 30
0.0
 70
   128
 71
    92
 72
   102
 73
    93
  0
VERTEX
  5
8C0
  8
0
 62
   253
 10
0.0
 20
0.0
 30
0.0
 70
   128
 71
    93
 72
   102
 73
   103
  0
VERTEX
  5
8C1
  8
0
 62
   253
 10
0.0
 20
0.0
 30
0.0
 70
   128
 71
   102
 72
    99
 73
   103
  0
VERTEX
  5
8C2
  8
0
 62
   253
 10
0.0
 20
0.0
 30
0.0
 70
   128
 71
   103
 72
    99
 73
   100
  0
VERTEX
  5
8C3
  8
0
 62
   253
 10
0.0
 20
0.0
 30
0.0
 70
   128
 71
   105
 72
    97
 73
   104
  0
VERTEX
  5
8C4
  8
0
 62
   253
 10
0.0
 20
0.0
 30
0.0
 70
   128
 71
    95
 72
   104
 73
    97
  0
VERTEX
  5
8C5
  8
0
 62
   253
 10
0.0
 20
0.0
 30
0.0
 70
   128
 71
   107
 72
   100
 73
   106
  0
VERTEX
  5
8C6
  8
0
 62
   253
 10
0.0
 20
0.0
 30
0.0
 70
   128
 71
   101
 72
   106
 73
   100
  0
VERTEX
  5
8C7
  8
0
 62
   253
 10
0.0
 20
0.0
 30
0.0
 70
   128
 71
   110
 72
   109
 73
   108
  0
VERTEX
  5
8C8
  8
0
 62
   253
 10
0.0
 20
0.0
 30
0.0
 70
   128
 71
   105
 72
   104
 73
   111
  0
VERTEX
  5
8C9
  8
0
 62
   253
 10
0.0
 20
0.0
 30
0.0
 70
   128
 71
   104
 72
   112
 73
   111
  0
VERTEX
  5
8CA
  8
0
 62
   253
 10
0.0
 20
0.0
 30
0.0
 70
   128
 71
   111
 72
   112
 73
   109
  0
VERTEX
  5
8CB
  8
0
 62
   253
 10
0.0
 20
0.0
 30
0.0
 70
   128
 71
   112
 72
   108
 73
   109
  0
VERTEX
  5
8CC
  8
0
 62
   253
 10
0.0
 20
0.0
 30
0.0
 70
   128
 71
   115
 72
   114
 73
   113
  0
VERTEX
  5
8CD
  8
0
 62
   253
 10
0.0
 20
0.0
 30
0.0
 70
   128
 71
   106
 72
   114
 73
   107
  0
VERTEX
  5
8CE
  8
0
 62
   253
 10
0.0
 20
0.0
 30
0.0
 70
   128
 71
   107
 72
   114
 73
   115
  0
VERTEX
  5
8CF
  8
0
 62
   253
 10
0.0
 20
0.0
 30
0.0
 70
   128
 71
   116
 72
   113
 73
   114
  0
VERTEX
  5
8D0
  8
0
 62
   253
 10
0.0
 20
0.0
 30
0.0
 70
   128
 71
   108
 72
   113
 73
   110
  0
VERTEX
  5
8D1
  8
0
 62
   253
 10
0.0
 20
0.0
 30
0.0
 70
   128
 71
   116
 72
   110
 73
   113
  0
VERTEX
  5
8D2
  8
0
 62
   253
 10
0.0
 20
0.0
 30
0.0
 70
   128
 71
   118
 72
   117
 73
    22
  0
VERTEX
  5
8D3
  8
0
 62
   253
 10
0.0
 20
0.0
 30
0.0
 70
   128
 71
    19
 72
    24
 73
   119
  0
VERTEX
  5
8D4
  8
0
 62
   253
 10
0.0
 20
0.0
 30
0.0
 70
   128
 71
   119
 72
    24
 73
   120
  0
VERTEX
  5
8D5
  8
0
 62
   253
 10
0.0
 20
0.0
 30
0.0
 70
   128
 71
   120
 72
    24
 73
   121
  0
VERTEX
  5
8D6
  8
0
 62
   253
 10
0.0
 20
0.0
 30
0.0
 70
   128
 71
   121
 72
    24
 73
   122
  0
VERTEX
  5
8D7
  8
0
 62
   253
 10
0.0
 20
0.0
 30
0.0
 70
   128
 71
   122
 72
    24
 73
   123
  0
VERTEX
  5
8D8
  8
0
 62
   253
 10
0.0
 20
0.0
 30
0.0
 70
   128
 71
   123
 72
    24
 73
   124
  0
VERTEX
  5
8D9
  8
0
 62
   253
 10
0.0
 20
0.0
 30
0.0
 70
   128
 71
   124
 72
    24
 73
   117
  0
VERTEX
  5
8DA
  8
0
 62
   253
 10
0.0
 20
0.0
 30
0.0
 70
   128
 71
    24
 72
    22
 73
   117
  0
VERTEX
  5
8DB
  8
0
 62
   253
 10
0.0
 20
0.0
 30
0.0
 70
   128
 71
   126
 72
   120
 73
   125
  0
VERTEX
  5
8DC
  8
0
 62
   253
 10
0.0
 20
0.0
 30
0.0
 70
   128
 71
   119
 72
   120
 73
   126
  0
VERTEX
  5
8DD
  8
0
 62
   253
 10
0.0
 20
0.0
 30
0.0
 70
   128
 71
   118
 72
   127
 73
   117
  0
VERTEX
  5
8DE
  8
0
 62
   253
 10
0.0
 20
0.0
 30
0.0
 70
   128
 71
   128
 72
   126
 73
   127
  0
VERTEX
  5
8DF
  8
0
 62
   253
 10
0.0
 20
0.0
 30
0.0
 70
   128
 71
   122
 72
   123
 73
   121
  0
VERTEX
  5
8E0
  8
0
 62
   253
 10
0.0
 20
0.0
 30
0.0
 70
   128
 71
   123
 72
   124
 73
   121
  0
VERTEX
  5
8E1
  8
0
 62
   253
 10
0.0
 20
0.0
 30
0.0
 70
   128
 71
   121
 72
   124
 73
   120
  0
VERTEX
  5
8E2
  8
0
 62
   253
 10
0.0
 20
0.0
 30
0.0
 70
   128
 71
   124
 72
   117
 73
   120
  0
VERTEX
  5
8E3
  8
0
 62
   253
 10
0.0
 20
0.0
 30
0.0
 70
   128
 71
   117
 72
   127
 73
   125
  0
VERTEX
  5
8E4
  8
0
 62
   253
 10
0.0
 20
0.0
 30
0.0
 70
   128
 71
   117
 72
   125
 73
   120
  0
VERTEX
  5
8E5
  8
0
 62
   253
 10
0.0
 20
0.0
 30
0.0
 70
   128
 71
   126
 72
   125
 73
   127
  0
VERTEX
  5
8E6
  8
0
 62
   253
 10
0.0
 20
0.0
 30
0.0
 70
   128
 71
   130
 72
   129
 73
   128
  0
VERTEX
  5
8E7
  8
0
 62
   253
 10
0.0
 20
0.0
 30
0.0
 70
   128
 71
   131
 72
   119
 73
   129
  0
VERTEX
  5
8E8
  8
0
 62
   253
 10
0.0
 20
0.0
 30
0.0
 70
   128
 71
   119
 72
   126
 73
   129
  0
VERTEX
  5
8E9
  8
0
 62
   253
 10
0.0
 20
0.0
 30
0.0
 70
   128
 71
   126
 72
   128
 73
   129
  0
VERTEX
  5
8EA
  8
0
 62
   253
 10
0.0
 20
0.0
 30
0.0
 70
   128
 71
   129
 72
   133
 73
   132
  0
VERTEX
  5
8EB
  8
0
 62
   253
 10
0.0
 20
0.0
 30
0.0
 70
   128
 71
   131
 72
   129
 73
   132
  0
VERTEX
  5
8EC
  8
0
 62
   253
 10
0.0
 20
0.0
 30
0.0
 70
   128
 71
   136
 72
   135
 73
   134
  0
VERTEX
  5
8ED
  8
0
 62
   253
 10
0.0
 20
0.0
 30
0.0
 70
   128
 71
   130
 72
   134
 73
   129
  0
VERTEX
  5
8EE
  8
0
 62
   253
 10
0.0
 20
0.0
 30
0.0
 70
   128
 71
   139
 72
   138
 73
   137
  0
VERTEX
  5
8EF
  8
0
 62
   253
 10
0.0
 20
0.0
 30
0.0
 70
   128
 71
   137
 72
   138
 73
   140
  0
VERTEX
  5
8F0
  8
0
 62
   253
 10
0.0
 20
0.0
 30
0.0
 70
   128
 71
   138
 72
   132
 73
   140
  0
VERTEX
  5
8F1
  8
0
 62
   253
 10
0.0
 20
0.0
 30
0.0
 70
   128
 71
   140
 72
   132
 73
   135
  0
VERTEX
  5
8F2
  8
0
 62
   253
 10
0.0
 20
0.0
 30
0.0
 70
   128
 71
   135
 72
   133
 73
   134
  0
VERTEX
  5
8F3
  8
0
 62
   253
 10
0.0
 20
0.0
 30
0.0
 70
   128
 71
   135
 72
   132
 73
   133
  0
VERTEX
  5
8F4
  8
0
 62
   253
 10
0.0
 20
0.0
 30
0.0
 70
   128
 71
   129
 72
   134
 73
   133
  0
VERTEX
  5
8F5
  8
0
 62
   253
 10
0.0
 20
0.0
 30
0.0
 70
   128
 71
   136
 72
    18
 73
   135
  0
VERTEX
  5
8F6
  8
0
 62
   253
 10
0.0
 20
0.0
 30
0.0
 70
   128
 71
    14
 72
   131
 73
    16
  0
VERTEX
  5
8F7
  8
0
 62
   253
 10
0.0
 20
0.0
 30
0.0
 70
   128
 71
   131
 72
   132
 73
    16
  0
VERTEX
  5
8F8
  8
0
 62
   253
 10
0.0
 20
0.0
 30
0.0
 70
   128
 71
   132
 72
   138
 73
    16
  0
VERTEX
  5
8F9
  8
0
 62
   253
 10
0.0
 20
0.0
 30
0.0
 70
   128
 71
   138
 72
   139
 73
    16
  0
VERTEX
  5
8FA
  8
0
 62
   253
 10
0.0
 20
0.0
 30
0.0
 70
   128
 71
   139
 72
   137
 73
    16
  0
VERTEX
  5
8FB
  8
0
 62
   253
 10
0.0
 20
0.0
 30
0.0
 70
   128
 71
   137
 72
   140
 73
    16
  0
VERTEX
  5
8FC
  8
0
 62
   253
 10
0.0
 20
0.0
 30
0.0
 70
   128
 71
   140
 72
   135
 73
    16
  0
VERTEX
  5
8FD
  8
0
 62
   253
 10
0.0
 20
0.0
 30
0.0
 70
   128
 71
    16
 72
   135
 73
    18
  0
VERTEX
  5
8FE
  8
0
 62
   253
 10
0.0
 20
0.0
 30
0.0
 70
   128
 71
    30
 72
    29
 73
   141
  0
VERTEX
  5
8FF
  8
0
 62
   253
 10
0.0
 20
0.0
 30
0.0
 70
   128
 71
    25
 72
   142
 73
    29
  0
VERTEX
  5
900
  8
0
 62
   253
 10
0.0
 20
0.0
 30
0.0
 70
   128
 71
   142
 72
   143
 73
    29
  0
VERTEX
  5
901
  8
0
 62
   253
 10
0.0
 20
0.0
 30
0.0
 70
   128
 71
   143
 72
   141
 73
    29
  0
VERTEX
  5
902
  8
0
 62
   253
 10
0.0
 20
0.0
 30
0.0
 70
   128
 71
   146
 72
   145
 73
   144
  0
VERTEX
  5
903
  8
0
 62
   253
 10
0.0
 20
0.0
 30
0.0
 70
   128
 71
   142
 72
   144
 73
   143
  0
VERTEX
  5
904
  8
0
 62
   253
 10
0.0
 20
0.0
 30
0.0
 70
   128
 71
   141
 72
   141
 73
   145
  0
VERTEX
  5
905
  8
0
 62
   253
 10
0.0
 20
0.0
 30
0.0
 70
   128
 71
   145
 72
   147
 73
   144
  0
VERTEX
  5
906
  8
0
 62
   253
 10
0.0
 20
0.0
 30
0.0
 70
   128
 71
   145
 72
   141
 73
   147
  0
VERTEX
  5
907
  8
0
 62
   253
 10
0.0
 20
0.0
 30
0.0
 70
   128
 71
   143
 72
   141
 73
   141
  0
VERTEX
  5
908
  8
0
 62
   253
 10
0.0
 20
0.0
 30
0.0
 70
   128
 71
   143
 72
   147
 73
   141
  0
VERTEX
  5
909
  8
0
 62
   253
 10
0.0
 20
0.0
 30
0.0
 70
   128
 71
   143
 72
   144
 73
   147
  0
VERTEX
  5
90A
  8
0
 62
   253
 10
0.0
 20
0.0
 30
0.0
 70
   128
 71
   149
 72
   148
 73
   146
  0
VERTEX
  5
90B
  8
0
 62
   253
 10
0.0
 20
0.0
 30
0.0
 70
   128
 71
   141
 72
   145
 73
   150
  0
VERTEX
  5
90C
  8
0
 62
   253
 10
0.0
 20
0.0
 30
0.0
 70
   128
 71
   150
 72
   145
 73
   148
  0
VERTEX
  5
90D
  8
0
 62
   253
 10
0.0
 20
0.0
 30
0.0
 70
   128
 71
   145
 72
   146
 73
   148
  0
VERTEX
  5
90E
  8
0
 62
   253
 10
0.0
 20
0.0
 30
0.0
 70
   128
 71
   153
 72
   152
 73
   151
  0
VERTEX
  5
90F
  8
0
 62
   253
 10
0.0
 20
0.0
 30
0.0
 70
   128
 71
   154
 72
   153
 73
   151
  0
VERTEX
  5
910
  8
0
 62
   253
 10
0.0
 20
0.0
 30
0.0
 70
   128
 71
   150
 72
   150
 73
   153
  0
VERTEX
  5
911
  8
0
 62
   253
 10
0.0
 20
0.0
 30
0.0
 70
   128
 71
   149
 72
   151
 73
   148
  0
VERTEX
  5
912
  8
0
 62
   253
 10
0.0
 20
0.0
 30
0.0
 70
   128
 71
   150
 72
   148
 73
   150
  0
VERTEX
  5
913
  8
0
 62
   253
 10
0.0
 20
0.0
 30
0.0
 70
   128
 71
   148
 72
   152
 73
   150
  0
VERTEX
  5
914
  8
0
 62
   253
 10
0.0
 20
0.0
 30
0.0
 70
   128
 71
   148
 72
   151
 73
   152
  0
VERTEX
  5
915
  8
0
 62
   253
 10
0.0
 20
0.0
 30
0.0
 70
   128
 71
   153
 72
   150
 73
   152
  0
VERTEX
  5
916
  8
0
 62
   253
 10
0.0
 20
0.0
 30
0.0
 70
   128
 71
    34
 72
   150
 73
    36
  0
VERTEX
  5
917
  8
0
 62
   253
 10
0.0
 20
0.0
 30
0.0
 70
   128
 71
    28
 72
    36
 73
   154
  0
VERTEX
  5
918
  8
0
 62
   253
 10
0.0
 20
0.0
 30
0.0
 70
   128
 71
   154
 72
    36
 73
   153
  0
VERTEX
  5
919
  8
0
 62
   253
 10
0.0
 20
0.0
 30
0.0
 70
   128
 71
   153
 72
    36
 73
   150
  0
VERTEX
  5
91A
  8
0
 62
   253
 10
0.0
 20
0.0
 30
0.0
 70
   128
 71
   130
 72
   146
 73
   134
  0
VERTEX
  5
91B
  8
0
 62
   253
 10
0.0
 20
0.0
 30
0.0
 70
   128
 71
   142
 72
   136
 73
   144
  0
VERTEX
  5
91C
  8
0
 62
   253
 10
0.0
 20
0.0
 30
0.0
 70
   128
 71
   136
 72
   134
 73
   144
  0
VERTEX
  5
91D
  8
0
 62
   253
 10
0.0
 20
0.0
 30
0.0
 70
   128
 71
   144
 72
   134
 73
   146
  0
VERTEX
  5
91E
  8
0
 62
   253
 10
0.0
 20
0.0
 30
0.0
 70
   128
 71
   149
 72
   128
 73
   151
  0
VERTEX
  5
91F
  8
0
 62
   253
 10
0.0
 20
0.0
 30
0.0
 70
   128
 71
   118
 72
   154
 73
   127
  0
VERTEX
  5
920
  8
0
 62
   253
 10
0.0
 20
0.0
 30
0.0
 70
   128
 71
   154
 72
   151
 73
   127
  0
VERTEX
  5
921
  8
0
 62
   253
 10
0.0
 20
0.0
 30
0.0
 70
   128
 71
   127
 72
   151
 73
   128
  0
VERTEX
  5
922
  8
0
 62
   253
 10
0.0
 20
0.0
 30
0.0
 70
   128
 71
    65
 72
    68
 73
   155
  0
VERTEX
  5
923
  8
0
 62
   253
 10
0.0
 20
0.0
 30
0.0
 70
   128
 71
    71
 72
   156
 73
    70
  0
VERTEX
  5
924
  8
0
 62
   253
 10
0.0
 20
0.0
 30
0.0
 70
   128
 71
   156
 72
   157
 73
    70
  0
VERTEX
  5
925
  8
0
 62
   253
 10
0.0
 20
0.0
 30
0.0
 70
   128
 71
    70
 72
   157
 73
    68
  0
VERTEX
  5
926
  8
0
 62
   253
 10
0.0
 20
0.0
 30
0.0
 70
   128
 71
   157
 72
   155
 73
    68
  0
VERTEX
  5
927
  8
0
 62
   253
 10
0.0
 20
0.0
 30
0.0
 70
   128
 71
    79
 72
   158
 73
    85
  0
VERTEX
  5
928
  8
0
 62
   253
 10
0.0
 20
0.0
 30
0.0
 70
   128
 71
    88
 72
    86
 73
   159
  0
VERTEX
  5
929
  8
0
 62
   253
 10
0.0
 20
0.0
 30
0.0
 70
   128
 71
   159
 72
    86
 73
   160
  0
VERTEX
  5
92A
  8
0
 62
   253
 10
0.0
 20
0.0
 30
0.0
 70
   128
 71
    86
 72
    85
 73
   160
  0
VERTEX
  5
92B
  8
0
 62
   253
 10
0.0
 20
0.0
 30
0.0
 70
   128
 71
   160
 72
    85
 73
   158
  0
VERTEX
  5
92C
  8
0
 62
   253
 10
0.0
 20
0.0
 30
0.0
 70
   128
 71
    92
 72
   161
 73
   102
  0
VERTEX
  5
92D
  8
0
 62
   253
 10
0.0
 20
0.0
 30
0.0
 70
   128
 71
   163
 72
   101
 73
   162
  0
VERTEX
  5
92E
  8
0
 62
   253
 10
0.0
 20
0.0
 30
0.0
 70
   128
 71
   101
 72
    99
 73
   162
  0
VERTEX
  5
92F
  8
0
 62
   253
 10
0.0
 20
0.0
 30
0.0
 70
   128
 71
    99
 72
   102
 73
   162
  0
VERTEX
  5
930
  8
0
 62
   253
 10
0.0
 20
0.0
 30
0.0
 70
   128
 71
   162
 72
   102
 73
   161
  0
VERTEX
  5
931
  8
0
 62
   253
 10
0.0
 20
0.0
 30
0.0
 70
   128
 71
    56
 72
   164
 73
    55
  0
VERTEX
  5
932
  8
0
 62
   253
 10
0.0
 20
0.0
 30
0.0
 70
   128
 71
    51
 72
    57
 73
   165
  0
VERTEX
  5
933
  8
0
 62
   253
 10
0.0
 20
0.0
 30
0.0
 70
   128
 71
   165
 72
    57
 73
   166
  0
VERTEX
  5
934
  8
0
 62
   253
 10
0.0
 20
0.0
 30
0.0
 70
   128
 71
    57
 72
    55
 73
   166
  0
VERTEX
  5
935
  8
0
 62
   253
 10
0.0
 20
0.0
 30
0.0
 70
   128
 71
   166
 72
    55
 73
   164
  0
VERTEX
  5
936
  8
0
 62
   253
 10
0.0
 20
0.0
 30
0.0
 70
   128
 71
   168
 72
   114
 73
   167
  0
VERTEX
  5
937
  8
0
 62
   253
 10
0.0
 20
0.0
 30
0.0
 70
   128
 71
   169
 72
   116
 73
   168
  0
VERTEX
  5
938
  8
0
 62
   253
 10
0.0
 20
0.0
 30
0.0
 70
   128
 71
   116
 72
   114
 73
   168
  0
VERTEX
  5
939
  8
0
 62
   253
 10
0.0
 20
0.0
 30
0.0
 70
   128
 71
   106
 72
   167
 73
   114
  0
VERTEX
  5
93A
  8
0
 62
   253
 10
0.0
 20
0.0
 30
0.0
 70
   128
 71
   171
 72
   170
 73
    42
  0
VERTEX
  5
93B
  8
0
 62
   253
 10
0.0
 20
0.0
 30
0.0
 70
   128
 71
    40
 72
    44
 73
   172
  0
VERTEX
  5
93C
  8
0
 62
   253
 10
0.0
 20
0.0
 30
0.0
 70
   128
 71
   172
 72
    44
 73
   170
  0
VERTEX
  5
93D
  8
0
 62
   253
 10
0.0
 20
0.0
 30
0.0
 70
   128
 71
    44
 72
    42
 73
   170
  0
VERTEX
  5
93E
  8
0
 62
   253
 10
0.0
 20
0.0
 30
0.0
 70
   128
 71
   174
 72
    78
 73
   173
  0
VERTEX
  5
93F
  8
0
 62
   253
 10
0.0
 20
0.0
 30
0.0
 70
   128
 71
    83
 72
   175
 73
    81
  0
VERTEX
  5
940
  8
0
 62
   253
 10
0.0
 20
0.0
 30
0.0
 70
   128
 71
   175
 72
   173
 73
    81
  0
VERTEX
  5
941
  8
0
 62
   253
 10
0.0
 20
0.0
 30
0.0
 70
   128
 71
    81
 72
   173
 73
    78
  0
VERTEX
  5
942
  8
0
 62
   253
 10
0.0
 20
0.0
 30
0.0
 70
   128
 71
   177
 72
   176
 73
    66
  0
VERTEX
  5
943
  8
0
 62
   253
 10
0.0
 20
0.0
 30
0.0
 70
   128
 71
    76
 72
    73
 73
   178
  0
VERTEX
  5
944
  8
0
 62
   253
 10
0.0
 20
0.0
 30
0.0
 70
   128
 71
   178
 72
    73
 73
   176
  0
VERTEX
  5
945
  8
0
 62
   253
 10
0.0
 20
0.0
 30
0.0
 70
   128
 71
    73
 72
    66
 73
   176
  0
VERTEX
  5
946
  8
0
 62
   253
 10
0.0
 20
0.0
 30
0.0
 70
   128
 71
   180
 72
   156
 73
   179
  0
VERTEX
  5
947
  8
0
 62
   253
 10
0.0
 20
0.0
 30
0.0
 70
   128
 71
    78
 72
   174
 73
    71
  0
VERTEX
  5
948
  8
0
 62
   253
 10
0.0
 20
0.0
 30
0.0
 70
   128
 71
   174
 72
   179
 73
    71
  0
VERTEX
  5
949
  8
0
 62
   253
 10
0.0
 20
0.0
 30
0.0
 70
   128
 71
    71
 72
   179
 73
   156
  0
VERTEX
  5
94A
  8
0
 62
   253
 10
0.0
 20
0.0
 30
0.0
 70
   128
 71
   182
 72
   181
 73
   165
  0
VERTEX
  5
94B
  8
0
 62
   253
 10
0.0
 20
0.0
 30
0.0
 70
   128
 71
    42
 72
    51
 73
   171
  0
VERTEX
  5
94C
  8
0
 62
   253
 10
0.0
 20
0.0
 30
0.0
 70
   128
 71
   171
 72
    51
 73
   181
  0
VERTEX
  5
94D
  8
0
 62
   253
 10
0.0
 20
0.0
 30
0.0
 70
   128
 71
    51
 72
   165
 73
   181
  0
VERTEX
  5
94E
  8
0
 62
   253
 10
0.0
 20
0.0
 30
0.0
 70
   128
 71
   156
 72
   180
 73
   157
  0
VERTEX
  5
94F
  8
0
 62
   253
 10
0.0
 20
0.0
 30
0.0
 70
   128
 71
   182
 72
   165
 73
   180
  0
VERTEX
  5
950
  8
0
 62
   253
 10
0.0
 20
0.0
 30
0.0
 70
   128
 71
   165
 72
   166
 73
   180
  0
VERTEX
  5
951
  8
0
 62
   253
 10
0.0
 20
0.0
 30
0.0
 70
   128
 71
   166
 72
   164
 73
   180
  0
VERTEX
  5
952
  8
0
 62
   253
 10
0.0
 20
0.0
 30
0.0
 70
   128
 71
   164
 72
   155
 73
   180
  0
VERTEX
  5
953
  8
0
 62
   253
 10
0.0
 20
0.0
 30
0.0
 70
   128
 71
   155
 72
   157
 73
   180
  0
VERTEX
  5
954
  8
0
 62
   253
 10
0.0
 20
0.0
 30
0.0
 70
   128
 71
    98
 72
    90
 73
   131
  0
VERTEX
  5
955
  8
0
 62
   253
 10
0.0
 20
0.0
 30
0.0
 70
   128
 71
    49
 72
   119
 73
    39
  0
VERTEX
  5
956
  8
0
 62
   253
 10
0.0
 20
0.0
 30
0.0
 70
   128
 71
    49
 72
    47
 73
   119
  0
VERTEX
  5
957
  8
0
 62
   253
 10
0.0
 20
0.0
 30
0.0
 70
   128
 71
   119
 72
    47
 73
    19
  0
VERTEX
  5
958
  8
0
 62
   253
 10
0.0
 20
0.0
 30
0.0
 70
   128
 71
    47
 72
    53
 73
    19
  0
VERTEX
  5
959
  8
0
 62
   253
 10
0.0
 20
0.0
 30
0.0
 70
   128
 71
    53
 72
    63
 73
    19
  0
VERTEX
  5
95A
  8
0
 62
   253
 10
0.0
 20
0.0
 30
0.0
 70
   128
 71
    63
 72
    61
 73
    19
  0
VERTEX
  5
95B
  8
0
 62
   253
 10
0.0
 20
0.0
 30
0.0
 70
   128
 71
    61
 72
    67
 73
    19
  0
VERTEX
  5
95C
  8
0
 62
   253
 10
0.0
 20
0.0
 30
0.0
 70
   128
 71
    67
 72
    74
 73
    19
  0
VERTEX
  5
95D
  8
0
 62
   253
 10
0.0
 20
0.0
 30
0.0
 70
   128
 71
    74
 72
    75
 73
    19
  0
VERTEX
  5
95E
  8
0
 62
   253
 10
0.0
 20
0.0
 30
0.0
 70
   128
 71
    75
 72
    80
 73
    19
  0
VERTEX
  5
95F
  8
0
 62
   253
 10
0.0
 20
0.0
 30
0.0
 70
   128
 71
    80
 72
    89
 73
    19
  0
VERTEX
  5
960
  8
0
 62
   253
 10
0.0
 20
0.0
 30
0.0
 70
   128
 71
   115
 72
   113
 73
   107
  0
VERTEX
  5
961
  8
0
 62
   253
 10
0.0
 20
0.0
 30
0.0
 70
   128
 71
   113
 72
   108
 73
   107
  0
VERTEX
  5
962
  8
0
 62
   253
 10
0.0
 20
0.0
 30
0.0
 70
   128
 71
   107
 72
   108
 73
   100
  0
VERTEX
  5
963
  8
0
 62
   253
 10
0.0
 20
0.0
 30
0.0
 70
   128
 71
   100
 72
   108
 73
   103
  0
VERTEX
  5
964
  8
0
 62
   253
 10
0.0
 20
0.0
 30
0.0
 70
   128
 71
    41
 72
    38
 73
    43
  0
VERTEX
  5
965
  8
0
 62
   253
 10
0.0
 20
0.0
 30
0.0
 70
   128
 71
    38
 72
    39
 73
    43
  0
VERTEX
  5
966
  8
0
 62
   253
 10
0.0
 20
0.0
 30
0.0
 70
   128
 71
    43
 72
    39
 73
    50
  0
VERTEX
  5
967
  8
0
 62
   253
 10
0.0
 20
0.0
 30
0.0
 70
   128
 71
    50
 72
    39
 73
    58
  0
VERTEX
  5
968
  8
0
 62
   253
 10
0.0
 20
0.0
 30
0.0
 70
   128
 71
    82
 72
    77
 73
    84
  0
VERTEX
  5
969
  8
0
 62
   253
 10
0.0
 20
0.0
 30
0.0
 70
   128
 71
    84
 72
    77
 73
    90
  0
VERTEX
  5
96A
  8
0
 62
   253
 10
0.0
 20
0.0
 30
0.0
 70
   128
 71
    77
 72
    69
 73
    90
  0
VERTEX
  5
96B
  8
0
 62
   253
 10
0.0
 20
0.0
 30
0.0
 70
   128
 71
    69
 72
    72
 73
    90
  0
VERTEX
  5
96C
  8
0
 62
   253
 10
0.0
 20
0.0
 30
0.0
 70
   128
 71
    89
 72
    87
 73
    19
  0
VERTEX
  5
96D
  8
0
 62
   253
 10
0.0
 20
0.0
 30
0.0
 70
   128
 71
    19
 72
    87
 73
    14
  0
VERTEX
  5
96E
  8
0
 62
   253
 10
0.0
 20
0.0
 30
0.0
 70
   128
 71
    87
 72
    93
 73
    14
  0
VERTEX
  5
96F
  8
0
 62
   253
 10
0.0
 20
0.0
 30
0.0
 70
   128
 71
    93
 72
   103
 73
    14
  0
VERTEX
  5
970
  8
0
 62
   253
 10
0.0
 20
0.0
 30
0.0
 70
   128
 71
   103
 72
   108
 73
    14
  0
VERTEX
  5
971
  8
0
 62
   253
 10
0.0
 20
0.0
 30
0.0
 70
   128
 71
   108
 72
   112
 73
    14
  0
VERTEX
  5
972
  8
0
 62
   253
 10
0.0
 20
0.0
 30
0.0
 70
   128
 71
   112
 72
   104
 73
    14
  0
VERTEX
  5
973
  8
0
 62
   253
 10
0.0
 20
0.0
 30
0.0
 70
   128
 71
    14
 72
   104
 73
   131
  0
VERTEX
  5
974
  8
0
 62
   253
 10
0.0
 20
0.0
 30
0.0
 70
   128
 71
   104
 72
    95
 73
   131
  0
VERTEX
  5
975
  8
0
 62
   253
 10
0.0
 20
0.0
 30
0.0
 70
   128
 71
    95
 72
    98
 73
   131
  0
VERTEX
  5
976
  8
0
 62
   253
 10
0.0
 20
0.0
 30
0.0
 70
   128
 71
    39
 72
   119
 73
    58
  0
VERTEX
  5
977
  8
0
 62
   253
 10
0.0
 20
0.0
 30
0.0
 70
   128
 71
    58
 72
   119
 73
    54
  0
VERTEX
  5
978
  8
0
 62
   253
 10
0.0
 20
0.0
 30
0.0
 70
   128
 71
   119
 72
   131
 73
    54
  0
VERTEX
  5
979
  8
0
 62
   253
 10
0.0
 20
0.0
 30
0.0
 70
   128
 71
    54
 72
   131
 73
    64
  0
VERTEX
  5
97A
  8
0
 62
   253
 10
0.0
 20
0.0
 30
0.0
 70
   128
 71
    64
 72
   131
 73
    72
  0
VERTEX
  5
97B
  8
0
 62
   253
 10
0.0
 20
0.0
 30
0.0
 70
   128
 71
    72
 72
   131
 73
    90
  0
VERTEX
  5
97C
  8
0
 62
   253
 10
0.0
 20
0.0
 30
0.0
 70
   128
 71
   184
 72
   182
 73
   183
  0
VERTEX
  5
97D
  8
0
 62
   253
 10
0.0
 20
0.0
 30
0.0
 70
   128
 71
   181
 72
   182
 73
   184
  0
VERTEX
  5
97E
  8
0
 62
   253
 10
0.0
 20
0.0
 30
0.0
 70
   128
 71
   179
 72
   185
 73
   180
  0
VERTEX
  5
97F
  8
0
 62
   253
 10
0.0
 20
0.0
 30
0.0
 70
   128
 71
   187
 72
   186
 73
   185
  0
VERTEX
  5
980
  8
0
 62
   253
 10
0.0
 20
0.0
 30
0.0
 70
   128
 71
   185
 72
   186
 73
   180
  0
VERTEX
  5
981
  8
0
 62
   253
 10
0.0
 20
0.0
 30
0.0
 70
   128
 71
   186
 72
   188
 73
   180
  0
VERTEX
  5
982
  8
0
 62
   253
 10
0.0
 20
0.0
 30
0.0
 70
   128
 71
   180
 72
   188
 73
   182
  0
VERTEX
  5
983
  8
0
 62
   253
 10
0.0
 20
0.0
 30
0.0
 70
   128
 71
   188
 72
   183
 73
   182
  0
VERTEX
  5
984
  8
0
 62
   253
 10
0.0
 20
0.0
 30
0.0
 70
   128
 71
   178
 72
   189
 73
    76
  0
VERTEX
  5
985
  8
0
 62
   253
 10
0.0
 20
0.0
 30
0.0
 70
   128
 71
    79
 72
    76
 73
   158
  0
VERTEX
  5
986
  8
0
 62
   253
 10
0.0
 20
0.0
 30
0.0
 70
   128
 71
   190
 72
   158
 73
   189
  0
VERTEX
  5
987
  8
0
 62
   253
 10
0.0
 20
0.0
 30
0.0
 70
   128
 71
   158
 72
    76
 73
   189
  0
VERTEX
  5
988
  8
0
 62
   253
 10
0.0
 20
0.0
 30
0.0
 70
   128
 71
   167
 72
   106
 73
   191
  0
VERTEX
  5
989
  8
0
 62
   253
 10
0.0
 20
0.0
 30
0.0
 70
   128
 71
   101
 72
   163
 73
   106
  0
VERTEX
  5
98A
  8
0
 62
   253
 10
0.0
 20
0.0
 30
0.0
 70
   128
 71
   192
 72
   191
 73
   163
  0
VERTEX
  5
98B
  8
0
 62
   253
 10
0.0
 20
0.0
 30
0.0
 70
   128
 71
   163
 72
   191
 73
   106
  0
VERTEX
  5
98C
  8
0
 62
   253
 10
0.0
 20
0.0
 30
0.0
 70
   128
 71
   158
 72
   190
 73
   160
  0
VERTEX
  5
98D
  8
0
 62
   253
 10
0.0
 20
0.0
 30
0.0
 70
   128
 71
   192
 72
   163
 73
   190
  0
VERTEX
  5
98E
  8
0
 62
   253
 10
0.0
 20
0.0
 30
0.0
 70
   128
 71
   163
 72
   162
 73
   190
  0
VERTEX
  5
98F
  8
0
 62
   253
 10
0.0
 20
0.0
 30
0.0
 70
   128
 71
   162
 72
   161
 73
   190
  0
VERTEX
  5
990
  8
0
 62
   253
 10
0.0
 20
0.0
 30
0.0
 70
   128
 71
   161
 72
   159
 73
   190
  0
VERTEX
  5
991
  8
0
 62
   253
 10
0.0
 20
0.0
 30
0.0
 70
   128
 71
   159
 72
   160
 73
   190
  0
VERTEX
  5
992
  8
0
 62
   253
 10
0.0
 20
0.0
 30
0.0
 70
   128
 71
   194
 72
   192
 73
   193
  0
VERTEX
  5
993
  8
0
 62
   253
 10
0.0
 20
0.0
 30
0.0
 70
   128
 71
   191
 72
   192
 73
   194
  0
VERTEX
  5
994
  8
0
 62
   253
 10
0.0
 20
0.0
 30
0.0
 70
   128
 71
   189
 72
   195
 73
   190
  0
VERTEX
  5
995
  8
0
 62
   253
 10
0.0
 20
0.0
 30
0.0
 70
   128
 71
   197
 72
   196
 73
   195
  0
VERTEX
  5
996
  8
0
 62
   253
 10
0.0
 20
0.0
 30
0.0
 70
   128
 71
   195
 72
   196
 73
   190
  0
VERTEX
  5
997
  8
0
 62
   253
 10
0.0
 20
0.0
 30
0.0
 70
   128
 71
   196
 72
   198
 73
   190
  0
VERTEX
  5
998
  8
0
 62
   253
 10
0.0
 20
0.0
 30
0.0
 70
   128
 71
   190
 72
   198
 73
   192
  0
VERTEX
  5
999
  8
0
 62
   253
 10
0.0
 20
0.0
 30
0.0
 70
   128
 71
   198
 72
   193
 73
   192
  0
VERTEX
  5
99A
  8
0
 62
   253
 10
0.0
 20
0.0
 30
0.0
 70
   128
 71
    52
 72
   199
 73
    59
  0
VERTEX
  5
99B
  8
0
 62
   253
 10
0.0
 20
0.0
 30
0.0
 70
   128
 71
    62
 72
    60
 73
   200
  0
VERTEX
  5
99C
  8
0
 62
   253
 10
0.0
 20
0.0
 30
0.0
 70
   128
 71
   200
 72
    60
 73
   201
  0
VERTEX
  5
99D
  8
0
 62
   253
 10
0.0
 20
0.0
 30
0.0
 70
   128
 71
    60
 72
    59
 73
   201
  0
VERTEX
  5
99E
  8
0
 62
   253
 10
0.0
 20
0.0
 30
0.0
 70
   128
 71
   201
 72
    59
 73
   199
  0
VERTEX
  5
99F
  8
0
 62
   253
 10
0.0
 20
0.0
 30
0.0
 70
   128
 71
    37
 72
   202
 73
    45
  0
VERTEX
  5
9A0
  8
0
 62
   253
 10
0.0
 20
0.0
 30
0.0
 70
   128
 71
    48
 72
    46
 73
   203
  0
VERTEX
  5
9A1
  8
0
 62
   253
 10
0.0
 20
0.0
 30
0.0
 70
   128
 71
   203
 72
    46
 73
   204
  0
VERTEX
  5
9A2
  8
0
 62
   253
 10
0.0
 20
0.0
 30
0.0
 70
   128
 71
    46
 72
    45
 73
   204
  0
VERTEX
  5
9A3
  8
0
 62
   253
 10
0.0
 20
0.0
 30
0.0
 70
   128
 71
   204
 72
    45
 73
   202
  0
VERTEX
  5
9A4
  8
0
 62
   253
 10
0.0
 20
0.0
 30
0.0
 70
   128
 71
    91
 72
    94
 73
   205
  0
VERTEX
  5
9A5
  8
0
 62
   253
 10
0.0
 20
0.0
 30
0.0
 70
   128
 71
    97
 72
   206
 73
    96
  0
VERTEX
  5
9A6
  8
0
 62
   253
 10
0.0
 20
0.0
 30
0.0
 70
   128
 71
   206
 72
   207
 73
    96
  0
VERTEX
  5
9A7
  8
0
 62
   253
 10
0.0
 20
0.0
 30
0.0
 70
   128
 71
    96
 72
   207
 73
    94
  0
VERTEX
  5
9A8
  8
0
 62
   253
 10
0.0
 20
0.0
 30
0.0
 70
   128
 71
   207
 72
   205
 73
    94
  0
VERTEX
  5
9A9
  8
0
 62
   253
 10
0.0
 20
0.0
 30
0.0
 70
   128
 71
   105
 72
   111
 73
   208
  0
VERTEX
  5
9AA
  8
0
 62
   253
 10
0.0
 20
0.0
 30
0.0
 70
   128
 71
   110
 72
   209
 73
   109
  0
VERTEX
  5
9AB
  8
0
 62
   253
 10
0.0
 20
0.0
 30
0.0
 70
   128
 71
   209
 72
   210
 73
   109
  0
VERTEX
  5
9AC
  8
0
 62
   253
 10
0.0
 20
0.0
 30
0.0
 70
   128
 71
   109
 72
   210
 73
   111
  0
VERTEX
  5
9AD
  8
0
 62
   253
 10
0.0
 20
0.0
 30
0.0
 70
   128
 71
   210
 72
   208
 73
   111
  0
VERTEX
  5
9AE
  8
0
 62
   253
 10
0.0
 20
0.0
 30
0.0
 70
   128
 71
   212
 72
   211
 73
     5
  0
VERTEX
  5
9AF
  8
0
 62
   253
 10
0.0
 20
0.0
 30
0.0
 70
   128
 71
     4
 72
     5
 73
   211
  0
VERTEX
  5
9B0
  8
0
 62
   253
 10
0.0
 20
0.0
 30
0.0
 70
   128
 71
   214
 72
   213
 73
    11
  0
VERTEX
  5
9B1
  8
0
 62
   253
 10
0.0
 20
0.0
 30
0.0
 70
   128
 71
    10
 72
    11
 73
   213
  0
VERTEX
  5
9B2
  8
0
 62
   253
 10
0.0
 20
0.0
 30
0.0
 70
   128
 71
   142
 72
    25
 73
   136
  0
VERTEX
  5
9B3
  8
0
 62
   253
 10
0.0
 20
0.0
 30
0.0
 70
   128
 71
    18
 72
   136
 73
    25
  0
VERTEX
  5
9B4
  8
0
 62
   253
 10
0.0
 20
0.0
 30
0.0
 70
   128
 71
     9
 72
     7
 73
   141
  0
VERTEX
  5
9B5
  8
0
 62
   253
 10
0.0
 20
0.0
 30
0.0
 70
   128
 71
   150
 72
   215
 73
   141
  0
VERTEX
  5
9B6
  8
0
 62
   253
 10
0.0
 20
0.0
 30
0.0
 70
   128
 71
   215
 72
   216
 73
   141
  0
VERTEX
  5
9B7
  8
0
 62
   253
 10
0.0
 20
0.0
 30
0.0
 70
   128
 71
   216
 72
     9
 73
   141
  0
VERTEX
  5
9B8
  8
0
 62
   253
 10
0.0
 20
0.0
 30
0.0
 70
   128
 71
   215
 72
   150
 73
     1
  0
VERTEX
  5
9B9
  8
0
 62
   253
 10
0.0
 20
0.0
 30
0.0
 70
   128
 71
   150
 72
    34
 73
     1
  0
VERTEX
  5
9BA
  8
0
 62
   253
 10
0.0
 20
0.0
 30
0.0
 70
   128
 71
     1
 72
    34
 73
     3
  0
VERTEX
  5
9BB
  8
0
 62
   253
 10
0.0
 20
0.0
 30
0.0
 70
   128
 71
     3
 72
    34
 73
   217
  0
VERTEX
  5
9BC
  8
0
 62
   253
 10
0.0
 20
0.0
 30
0.0
 70
   128
 71
    34
 72
    30
 73
   217
  0
VERTEX
  5
9BD
  8
0
 62
   253
 10
0.0
 20
0.0
 30
0.0
 70
   128
 71
   217
 72
    30
 73
   218
  0
VERTEX
  5
9BE
  8
0
 62
   253
 10
0.0
 20
0.0
 30
0.0
 70
   128
 71
   218
 72
    30
 73
     7
  0
VERTEX
  5
9BF
  8
0
 62
   253
 10
0.0
 20
0.0
 30
0.0
 70
   128
 71
    30
 72
   141
 73
     7
  0
VERTEX
  5
9C0
  8
0
 62
   253
 10
0.0
 20
0.0
 30
0.0
 70
   128
 71
   149
 72
   146
 73
   128
  0
VERTEX
  5
9C1
  8
0
 62
   253
 10
0.0
 20
0.0
 30
0.0
 70
   128
 71
   130
 72
   128
 73
   146
  0
VERTEX
  5
9C2
  8
0
 62
   253
 10
0.0
 20
0.0
 30
0.0
 70
   128
 71
   154
 72
   118
 73
    28
  0
VERTEX
  5
9C3
  8
0
 62
   253
 10
0.0
 20
0.0
 30
0.0
 70
   128
 71
    22
 72
    28
 73
   118
  0
SEQEND
  5
9C4
  8
0
  0
ENDBLK
  5
9C7
  8
0
  0
BLOCK
  8
0
  2
ROSETTE_FÜR_SEIFENHALTER_E
 70
     0
 10
0.0
 20
0.0
 30
0.0
  3
ROSETTE_FÜR_SEIFENHALTER_E
  1

  0
POLYLINE
  5
9C9
  8
0
 66
     1
 10
0.0
 20
0.0
 30
0.0
 70
    64
 71
    82
 72
   162
  0
VERTEX
  5
9CA
  8
0
 10
-0.0584714934229851
 20
-0.0480460971593857
 30
-0.0318285077810287
 70
   192
  0
VERTEX
  5
9CB
  8
0
 10
-0.0584999993443489
 20
-0.0493000000715256
 30
-0.0318000018596649
 70
   192
  0
VERTEX
  5
9CC
  8
0
 10
-0.0584999993443489
 20
-0.0480460971593857
 30
-0.0318000018596649
 70
   192
  0
VERTEX
  5
9CD
  8
0
 10
-0.0584999993443489
 20
0.1243000030517578
 30
-0.0318000018596649
 70
   192
  0
VERTEX
  5
9CE
  8
0
 10
-0.0584714934229851
 20
0.1236239746212959
 30
-0.0318285077810287
 70
   192
  0
VERTEX
  5
9CF
  8
0
 10
-0.0584999993443489
 20
0.1236239746212959
 30
-0.0318000018596649
 70
   192
  0
VERTEX
  5
9D0
  8
0
 10
-0.0582999996840954
 20
0.1243000030517578
 30
-0.0320000015199184
 70
   192
  0
VERTEX
  5
9D1
  8
0
 10
-0.0582999996840954
 20
-0.0493000000715256
 30
-0.0320000015199184
 70
   192
  0
VERTEX
  5
9D2
  8
0
 10
-0.0584999993443489
 20
-0.0496535524725914
 30
-0.0316535532474518
 70
   192
  0
VERTEX
  5
9D3
  8
0
 10
-0.0584999993443489
 20
-0.0498000010848045
 30
-0.031300000846386
 70
   192
  0
VERTEX
  5
9D4
  8
0
 10
-0.0582999996840954
 20
-0.0497949756681919
 30
-0.0317949764430523
 70
   192
  0
VERTEX
  5
9D5
  8
0
 10
-0.0582999996840954
 20
-0.0500000007450581
 30
-0.031300000846386
 70
   192
  0
VERTEX
  5
9D6
  8
0
 10
-0.0584999993443489
 20
0.1246535554528236
 30
-0.0316535532474518
 70
   192
  0
VERTEX
  5
9D7
  8
0
 10
-0.0582999996840954
 20
0.1247949749231339
 30
-0.0317949764430523
 70
   192
  0
VERTEX
  5
9D8
  8
0
 10
-0.0584999993443489
 20
0.1247999966144562
 30
-0.031300000846386
 70
   192
  0
VERTEX
  5
9D9
  8
0
 10
-0.0582999996840954
 20
0.125
 30
-0.031300000846386
 70
   192
  0
VERTEX
  5
9DA
  8
0
 10
-0.0584999993443489
 20
-0.0498000010848045
 30
0.0173000004142523
 70
   192
  0
VERTEX
  5
9DB
  8
0
 10
-0.0582999996840954
 20
-0.0500000007450581
 30
0.0173000004142523
 70
   192
  0
VERTEX
  5
9DC
  8
0
 10
-0.0582999996840954
 20
0.125
 30
0.0173000004142523
 70
   192
  0
VERTEX
  5
9DD
  8
0
 10
-0.0584999993443489
 20
0.1247999966144562
 30
0.0173000004142523
 70
   192
  0
VERTEX
  5
9DE
  8
0
 10
-0.0582999996840954
 20
-0.0497949756681919
 30
0.0177949741482735
 70
   192
  0
VERTEX
  5
9DF
  8
0
 10
-0.0584999993443489
 20
-0.0496535524725914
 30
0.0176535528153181
 70
   192
  0
VERTEX
  5
9E0
  8
0
 10
-0.0582999996840954
 20
-0.0493000000715256
 30
0.0179999992251396
 70
   192
  0
VERTEX
  5
9E1
  8
0
 10
-0.0584999993443489
 20
-0.0493000000715256
 30
0.0177999995648861
 70
   192
  0
VERTEX
  5
9E2
  8
0
 10
-0.0582999996840954
 20
0.1243000030517578
 30
0.0179999992251396
 70
   192
  0
VERTEX
  5
9E3
  8
0
 10
-0.0584999993443489
 20
0.1246535554528236
 30
0.0176535528153181
 70
   192
  0
VERTEX
  5
9E4
  8
0
 10
-0.0584999993443489
 20
0.1243000030517578
 30
0.0177999995648861
 70
   192
  0
VERTEX
  5
9E5
  8
0
 10
-0.0582999996840954
 20
0.1247949749231339
 30
0.0177949741482735
 70
   192
  0
VERTEX
  5
9E6
  8
0
 10
-0.0584999993443489
 20
-0.0480460971593857
 30
0.0072686956264079
 70
   192
  0
VERTEX
  5
9E7
  8
0
 10
-0.0520000010728836
 20
-0.0485000014305115
 30
0.0060000000521541
 70
   192
  0
VERTEX
  5
9E8
  8
0
 10
-0.0584999993443489
 20
-0.0485000014305115
 30
0.0060000000521541
 70
   192
  0
VERTEX
  5
9E9
  8
0
 10
-0.0520000010728836
 20
-0.0480460971593857
 30
0.0072686956264079
 70
   192
  0
VERTEX
  5
9EA
  8
0
 10
-0.0520000010728836
 20
-0.0480460971593857
 30
-0.0212686955928802
 70
   192
  0
VERTEX
  5
9EB
  8
0
 10
-0.0584999993443489
 20
-0.0485000014305115
 30
-0.0199999995529652
 70
   192
  0
VERTEX
  5
9EC
  8
0
 10
-0.0520000010728836
 20
-0.0485000014305115
 30
-0.0199999995529652
 70
   192
  0
VERTEX
  5
9ED
  8
0
 10
-0.0584999993443489
 20
-0.0480460971593857
 30
-0.0212686955928802
 70
   192
  0
VERTEX
  5
9EE
  8
0
 10
-0.045499999076128
 20
-0.0373788513243198
 30
-0.0141000002622604
 70
   192
  0
VERTEX
  5
9EF
  8
0
 10
-0.050907276570797
 20
-0.0493999607861042
 30
-0.0314425230026245
 70
   192
  0
VERTEX
  5
9F0
  8
0
 10
-0.0509168989956379
 20
-0.0493000000715256
 30
-0.0315079838037491
 70
   192
  0
VERTEX
  5
9F1
  8
0
 10
-0.0509479939937592
 20
-0.0495895817875862
 30
-0.031300000846386
 70
   192
  0
VERTEX
  5
9F2
  8
0
 10
-0.045499999076128
 20
-0.0375999994575977
 30
-0.0137920873239636
 70
   192
  0
VERTEX
  5
9F3
  8
0
 10
-0.0510826036334038
 20
-0.0497871451079845
 30
-0.031300000846386
 70
   192
  0
VERTEX
  5
9F4
  8
0
 10
-0.0512326285243034
 20
-0.0496526584029198
 30
-0.0317911878228188
 70
   192
  0
VERTEX
  5
9F5
  8
0
 10
-0.0510828197002411
 20
-0.0493000000715256
 30
-0.0317873694002628
 70
   192
  0
VERTEX
  5
9F6
  8
0
 10
-0.0515852868556976
 20
-0.0497949756681919
 30
-0.0317949764430523
 70
   192
  0
VERTEX
  5
9F7
  8
0
 10
-0.0515852868556976
 20
-0.0500000007450581
 30
-0.031300000846386
 70
   192
  0
VERTEX
  5
9F8
  8
0
 10
-0.0515852868556976
 20
-0.0493000000715256
 30
-0.0320000015199184
 70
   192
  0
VERTEX
  5
9F9
  8
0
 10
-0.050907276570797
 20
0.1243999600410461
 30
-0.0314425230026245
 70
   192
  0
VERTEX
  5
9FA
  8
0
 10
-0.045499999076128
 20
0.1123788505792618
 30
-0.0141000002622604
 70
   192
  0
VERTEX
  5
9FB
  8
0
 10
-0.0509168989956379
 20
0.1243000030517578
 30
-0.0315079838037491
 70
   192
  0
VERTEX
  5
9FC
  8
0
 10
-0.0509479939937592
 20
0.1245895847678185
 30
-0.031300000846386
 70
   192
  0
VERTEX
  5
9FD
  8
0
 10
-0.045499999076128
 20
0.1125999987125397
 30
-0.0137920873239636
 70
   192
  0
VERTEX
  5
9FE
  8
0
 10
-0.0515852868556976
 20
0.1243000030517578
 30
-0.0320000015199184
 70
   192
  0
VERTEX
  5
9FF
  8
0
 10
-0.0510828197002411
 20
0.1243000030517578
 30
-0.0317873694002628
 70
   192
  0
VERTEX
  5
A00
  8
0
 10
-0.0510826036334038
 20
0.1247871443629265
 30
-0.031300000846386
 70
   192
  0
VERTEX
  5
A01
  8
0
 10
-0.0515852868556976
 20
0.1247949749231339
 30
-0.0317949764430523
 70
   192
  0
VERTEX
  5
A02
  8
0
 10
-0.0515852868556976
 20
0.125
 30
-0.031300000846386
 70
   192
  0
VERTEX
  5
A03
  8
0
 10
-0.0512326285243034
 20
0.124652661383152
 30
-0.0317911878228188
 70
   192
  0
VERTEX
  5
A04
  8
0
 10
-0.045499999076128
 20
0.1123788505792618
 30
0.0000999999974738
 70
   192
  0
VERTEX
  5
A05
  8
0
 10
-0.050907276570797
 20
0.1243999600410461
 30
0.017442524433136
 70
   192
  0
VERTEX
  5
A06
  8
0
 10
-0.0509168989956379
 20
0.1243000030517578
 30
0.0175079852342606
 70
   192
  0
VERTEX
  5
A07
  8
0
 10
-0.0509479939937592
 20
0.1245895847678185
 30
0.0173000004142523
 70
   192
  0
VERTEX
  5
A08
  8
0
 10
-0.045499999076128
 20
0.1125999987125397
 30
-0.0002079128898913
 70
   192
  0
VERTEX
  5
A09
  8
0
 10
-0.0515852868556976
 20
0.1247949749231339
 30
0.0177949741482735
 70
   192
  0
VERTEX
  5
A0A
  8
0
 10
-0.0510826036334038
 20
0.1247871443629265
 30
0.0173000004142523
 70
   192
  0
VERTEX
  5
A0B
  8
0
 10
-0.0515852868556976
 20
0.125
 30
0.0173000004142523
 70
   192
  0
VERTEX
  5
A0C
  8
0
 10
-0.0510828197002411
 20
0.1243000030517578
 30
0.0177873689681292
 70
   192
  0
VERTEX
  5
A0D
  8
0
 10
-0.0515852868556976
 20
0.1243000030517578
 30
0.0179999992251396
 70
   192
  0
VERTEX
  5
A0E
  8
0
 10
-0.0512326285243034
 20
0.124652661383152
 30
0.0177911855280399
 70
   192
  0
VERTEX
  5
A0F
  8
0
 10
-0.0515852868556976
 20
-0.0497949756681919
 30
0.0177949741482735
 70
   192
  0
VERTEX
  5
A10
  8
0
 10
-0.0515852868556976
 20
-0.0493000000715256
 30
0.0179999992251396
 70
   192
  0
VERTEX
  5
A11
  8
0
 10
-0.0515852868556976
 20
-0.0500000007450581
 30
0.0173000004142523
 70
   192
  0
VERTEX
  5
A12
  8
0
 10
-0.0512326285243034
 20
-0.0496526584029198
 30
0.0177911855280399
 70
   192
  0
VERTEX
  5
A13
  8
0
 10
-0.0510826036334038
 20
-0.0497871451079845
 30
0.0173000004142523
 70
   192
  0
VERTEX
  5
A14
  8
0
 10
-0.0510828197002411
 20
-0.0493000000715256
 30
0.0177873689681292
 70
   192
  0
VERTEX
  5
A15
  8
0
 10
-0.050907276570797
 20
-0.0493999607861042
 30
0.017442524433136
 70
   192
  0
VERTEX
  5
A16
  8
0
 10
-0.0509479939937592
 20
-0.0495895817875862
 30
0.0173000004142523
 70
   192
  0
VERTEX
  5
A17
  8
0
 10
-0.0509168989956379
 20
-0.0493000000715256
 30
0.0175079852342606
 70
   192
  0
VERTEX
  5
A18
  8
0
 10
-0.045499999076128
 20
-0.0373788513243198
 30
0.0000999999974738
 70
   192
  0
VERTEX
  5
A19
  8
0
 10
-0.045499999076128
 20
-0.0375999994575977
 30
-0.0002079128898913
 70
   192
  0
VERTEX
  5
A1A
  8
0
 10
-0.0584999993443489
 20
0.1236239746212959
 30
-0.0318285077810287
 70
   192
  0
VERTEX
  5
A1B
  8
0
 10
-0.0584999993443489
 20
-0.0480460971593857
 30
-0.0318285077810287
 70
   192
  0
VERTEX
  5
A1C
  8
0
 62
   253
 10
0.0
 20
0.0
 30
0.0
 70
   128
 71
     3
 72
     2
 73
     1
  0
VERTEX
  5
A1D
  8
0
 62
   253
 10
0.0
 20
0.0
 30
0.0
 70
   128
 71
     6
 72
     5
 73
     4
  0
VERTEX
  5
A1E
  8
0
 62
   253
 10
0.0
 20
0.0
 30
0.0
 70
   128
 71
     4
 72
     5
 73
     7
  0
VERTEX
  5
A1F
  8
0
 62
   253
 10
0.0
 20
0.0
 30
0.0
 70
   128
 71
     7
 72
     5
 73
     8
  0
VERTEX
  5
A20
  8
0
 62
   253
 10
0.0
 20
0.0
 30
0.0
 70
   128
 71
     5
 72
     1
 73
     8
  0
VERTEX
  5
A21
  8
0
 62
   253
 10
0.0
 20
0.0
 30
0.0
 70
   128
 71
     8
 72
     1
 73
     2
  0
VERTEX
  5
A22
  8
0
 62
   253
 10
0.0
 20
0.0
 30
0.0
 70
   128
 71
     2
 72
     9
 73
     8
  0
VERTEX
  5
A23
  8
0
 62
   253
 10
0.0
 20
0.0
 30
0.0
 70
   128
 71
    12
 72
    11
 73
    10
  0
VERTEX
  5
A24
  8
0
 62
   253
 10
0.0
 20
0.0
 30
0.0
 70
   128
 71
    10
 72
    11
 73
     9
  0
VERTEX
  5
A25
  8
0
 62
   253
 10
0.0
 20
0.0
 30
0.0
 70
   128
 71
    11
 72
     8
 73
     9
  0
VERTEX
  5
A26
  8
0
 62
   253
 10
0.0
 20
0.0
 30
0.0
 70
   128
 71
     4
 72
     7
 73
    13
  0
VERTEX
  5
A27
  8
0
 62
   253
 10
0.0
 20
0.0
 30
0.0
 70
   128
 71
    16
 72
    15
 73
    14
  0
VERTEX
  5
A28
  8
0
 62
   253
 10
0.0
 20
0.0
 30
0.0
 70
   128
 71
    15
 72
    13
 73
    14
  0
VERTEX
  5
A29
  8
0
 62
   253
 10
0.0
 20
0.0
 30
0.0
 70
   128
 71
    14
 72
    13
 73
     7
  0
VERTEX
  5
A2A
  8
0
 62
   253
 10
0.0
 20
0.0
 30
0.0
 70
   128
 71
    18
 72
    12
 73
    17
  0
VERTEX
  5
A2B
  8
0
 62
   253
 10
0.0
 20
0.0
 30
0.0
 70
   128
 71
    10
 72
    17
 73
    12
  0
VERTEX
  5
A2C
  8
0
 62
   253
 10
0.0
 20
0.0
 30
0.0
 70
   128
 71
    20
 72
    15
 73
    19
  0
VERTEX
  5
A2D
  8
0
 62
   253
 10
0.0
 20
0.0
 30
0.0
 70
   128
 71
    16
 72
    19
 73
    15
  0
VERTEX
  5
A2E
  8
0
 62
   253
 10
0.0
 20
0.0
 30
0.0
 70
   128
 71
    22
 72
    21
 73
    17
  0
VERTEX
  5
A2F
  8
0
 62
   253
 10
0.0
 20
0.0
 30
0.0
 70
   128
 71
    24
 72
    23
 73
    22
  0
VERTEX
  5
A30
  8
0
 62
   253
 10
0.0
 20
0.0
 30
0.0
 70
   128
 71
    23
 72
    21
 73
    22
  0
VERTEX
  5
A31
  8
0
 62
   253
 10
0.0
 20
0.0
 30
0.0
 70
   128
 71
    18
 72
    17
 73
    21
  0
VERTEX
  5
A32
  8
0
 62
   253
 10
0.0
 20
0.0
 30
0.0
 70
   128
 71
    27
 72
    26
 73
    25
  0
VERTEX
  5
A33
  8
0
 62
   253
 10
0.0
 20
0.0
 30
0.0
 70
   128
 71
    20
 72
    19
 73
    26
  0
VERTEX
  5
A34
  8
0
 62
   253
 10
0.0
 20
0.0
 30
0.0
 70
   128
 71
    19
 72
    28
 73
    26
  0
VERTEX
  5
A35
  8
0
 62
   253
 10
0.0
 20
0.0
 30
0.0
 70
   128
 71
    28
 72
    25
 73
    26
  0
VERTEX
  5
A36
  8
0
 62
   253
 10
0.0
 20
0.0
 30
0.0
 70
   128
 71
    24
 72
    27
 73
    23
  0
VERTEX
  5
A37
  8
0
 62
   253
 10
0.0
 20
0.0
 30
0.0
 70
   128
 71
    25
 72
    23
 73
    27
  0
VERTEX
  5
A38
  8
0
 62
   253
 10
0.0
 20
0.0
 30
0.0
 70
   128
 71
    31
 72
    30
 73
    29
  0
VERTEX
  5
A39
  8
0
 62
   253
 10
0.0
 20
0.0
 30
0.0
 70
   128
 71
    32
 72
    29
 73
    30
  0
VERTEX
  5
A3A
  8
0
 62
   253
 10
0.0
 20
0.0
 30
0.0
 70
   128
 71
    35
 72
    34
 73
    33
  0
VERTEX
  5
A3B
  8
0
 62
   253
 10
0.0
 20
0.0
 30
0.0
 70
   128
 71
    36
 72
    33
 73
    34
  0
VERTEX
  5
A3C
  8
0
 62
   253
 10
0.0
 20
0.0
 30
0.0
 70
   128
 71
    30
 72
    35
 73
    32
  0
VERTEX
  5
A3D
  8
0
 62
   253
 10
0.0
 20
0.0
 30
0.0
 70
   128
 71
    33
 72
    32
 73
    35
  0
VERTEX
  5
A3E
  8
0
 62
   253
 10
0.0
 20
0.0
 30
0.0
 70
   128
 71
    35
 72
    30
 73
    34
  0
VERTEX
  5
A3F
  8
0
 62
   253
 10
0.0
 20
0.0
 30
0.0
 70
   128
 71
    31
 72
    34
 73
    30
  0
VERTEX
  5
A40
  8
0
 62
   253
 10
0.0
 20
0.0
 30
0.0
 70
   128
 71
    39
 72
    38
 73
    37
  0
VERTEX
  5
A41
  8
0
 62
   253
 10
0.0
 20
0.0
 30
0.0
 70
   128
 71
    41
 72
    37
 73
    40
  0
VERTEX
  5
A42
  8
0
 62
   253
 10
0.0
 20
0.0
 30
0.0
 70
   128
 71
    40
 72
    37
 73
    38
  0
VERTEX
  5
A43
  8
0
 62
   253
 10
0.0
 20
0.0
 30
0.0
 70
   128
 71
    44
 72
    43
 73
    42
  0
VERTEX
  5
A44
  8
0
 62
   253
 10
0.0
 20
0.0
 30
0.0
 70
   128
 71
    46
 72
    42
 73
    45
  0
VERTEX
  5
A45
  8
0
 62
   253
 10
0.0
 20
0.0
 30
0.0
 70
   128
 71
    47
 72
    45
 73
    47
  0
VERTEX
  5
A46
  8
0
 62
   253
 10
0.0
 20
0.0
 30
0.0
 70
   128
 71
    47
 72
    47
 73
    44
  0
VERTEX
  5
A47
  8
0
 62
   253
 10
0.0
 20
0.0
 30
0.0
 70
   128
 71
    40
 72
    38
 73
    42
  0
VERTEX
  5
A48
  8
0
 62
   253
 10
0.0
 20
0.0
 30
0.0
 70
   128
 71
    39
 72
    44
 73
    38
  0
VERTEX
  5
A49
  8
0
 62
   253
 10
0.0
 20
0.0
 30
0.0
 70
   128
 71
    38
 72
    44
 73
    42
  0
VERTEX
  5
A4A
  8
0
 62
   253
 10
0.0
 20
0.0
 30
0.0
 70
   128
 71
    45
 72
    43
 73
    47
  0
VERTEX
  5
A4B
  8
0
 62
   253
 10
0.0
 20
0.0
 30
0.0
 70
   128
 71
    45
 72
    42
 73
    43
  0
VERTEX
  5
A4C
  8
0
 62
   253
 10
0.0
 20
0.0
 30
0.0
 70
   128
 71
    44
 72
    47
 73
    43
  0
VERTEX
  5
A4D
  8
0
 62
   253
 10
0.0
 20
0.0
 30
0.0
 70
   128
 71
    12
 72
    46
 73
    11
  0
VERTEX
  5
A4E
  8
0
 62
   253
 10
0.0
 20
0.0
 30
0.0
 70
   128
 71
     8
 72
    11
 73
    47
  0
VERTEX
  5
A4F
  8
0
 62
   253
 10
0.0
 20
0.0
 30
0.0
 70
   128
 71
    47
 72
    11
 73
    45
  0
VERTEX
  5
A50
  8
0
 62
   253
 10
0.0
 20
0.0
 30
0.0
 70
   128
 71
    45
 72
    11
 73
    46
  0
VERTEX
  5
A51
  8
0
 62
   253
 10
0.0
 20
0.0
 30
0.0
 70
   128
 71
    50
 72
    49
 73
    48
  0
VERTEX
  5
A52
  8
0
 62
   253
 10
0.0
 20
0.0
 30
0.0
 70
   128
 71
    52
 72
    51
 73
    49
  0
VERTEX
  5
A53
  8
0
 62
   253
 10
0.0
 20
0.0
 30
0.0
 70
   128
 71
    51
 72
    48
 73
    49
  0
VERTEX
  5
A54
  8
0
 62
   253
 10
0.0
 20
0.0
 30
0.0
 70
   128
 71
    53
 72
    54
 73
    53
  0
VERTEX
  5
A55
  8
0
 62
   253
 10
0.0
 20
0.0
 30
0.0
 70
   128
 71
    57
 72
    56
 73
    55
  0
VERTEX
  5
A56
  8
0
 62
   253
 10
0.0
 20
0.0
 30
0.0
 70
   128
 71
    51
 72
    55
 73
    48
  0
VERTEX
  5
A57
  8
0
 62
   253
 10
0.0
 20
0.0
 30
0.0
 70
   128
 71
    50
 72
    48
 73
    54
  0
VERTEX
  5
A58
  8
0
 62
   253
 10
0.0
 20
0.0
 30
0.0
 70
   128
 71
    48
 72
    55
 73
    54
  0
VERTEX
  5
A59
  8
0
 62
   253
 10
0.0
 20
0.0
 30
0.0
 70
   128
 71
    54
 72
    55
 73
    58
  0
VERTEX
  5
A5A
  8
0
 62
   253
 10
0.0
 20
0.0
 30
0.0
 70
   128
 71
    56
 72
    53
 73
    58
  0
VERTEX
  5
A5B
  8
0
 62
   253
 10
0.0
 20
0.0
 30
0.0
 70
   128
 71
    56
 72
    53
 73
    53
  0
VERTEX
  5
A5C
  8
0
 62
   253
 10
0.0
 20
0.0
 30
0.0
 70
   128
 71
    54
 72
    58
 73
    53
  0
VERTEX
  5
A5D
  8
0
 62
   253
 10
0.0
 20
0.0
 30
0.0
 70
   128
 71
    56
 72
    58
 73
    55
  0
VERTEX
  5
A5E
  8
0
 62
   253
 10
0.0
 20
0.0
 30
0.0
 70
   128
 71
     7
 72
    53
 73
    14
  0
VERTEX
  5
A5F
  8
0
 62
   253
 10
0.0
 20
0.0
 30
0.0
 70
   128
 71
    16
 72
    14
 73
    57
  0
VERTEX
  5
A60
  8
0
 62
   253
 10
0.0
 20
0.0
 30
0.0
 70
   128
 71
    57
 72
    14
 73
    56
  0
VERTEX
  5
A61
  8
0
 62
   253
 10
0.0
 20
0.0
 30
0.0
 70
   128
 71
    56
 72
    14
 73
    53
  0
VERTEX
  5
A62
  8
0
 62
   253
 10
0.0
 20
0.0
 30
0.0
 70
   128
 71
    61
 72
    60
 73
    59
  0
VERTEX
  5
A63
  8
0
 62
   253
 10
0.0
 20
0.0
 30
0.0
 70
   128
 71
    63
 72
    59
 73
    62
  0
VERTEX
  5
A64
  8
0
 62
   253
 10
0.0
 20
0.0
 30
0.0
 70
   128
 71
    62
 72
    59
 73
    60
  0
VERTEX
  5
A65
  8
0
 62
   253
 10
0.0
 20
0.0
 30
0.0
 70
   128
 71
    66
 72
    65
 73
    64
  0
VERTEX
  5
A66
  8
0
 62
   253
 10
0.0
 20
0.0
 30
0.0
 70
   128
 71
    68
 72
    68
 73
    67
  0
VERTEX
  5
A67
  8
0
 62
   253
 10
0.0
 20
0.0
 30
0.0
 70
   128
 71
    62
 72
    60
 73
    65
  0
VERTEX
  5
A68
  8
0
 62
   253
 10
0.0
 20
0.0
 30
0.0
 70
   128
 71
    61
 72
    67
 73
    60
  0
VERTEX
  5
A69
  8
0
 62
   253
 10
0.0
 20
0.0
 30
0.0
 70
   128
 71
    60
 72
    67
 73
    65
  0
VERTEX
  5
A6A
  8
0
 62
   253
 10
0.0
 20
0.0
 30
0.0
 70
   128
 71
    67
 72
    69
 73
    65
  0
VERTEX
  5
A6B
  8
0
 62
   253
 10
0.0
 20
0.0
 30
0.0
 70
   128
 71
    64
 72
    69
 73
    68
  0
VERTEX
  5
A6C
  8
0
 62
   253
 10
0.0
 20
0.0
 30
0.0
 70
   128
 71
    64
 72
    68
 73
    68
  0
VERTEX
  5
A6D
  8
0
 62
   253
 10
0.0
 20
0.0
 30
0.0
 70
   128
 71
    67
 72
    68
 73
    69
  0
VERTEX
  5
A6E
  8
0
 62
   253
 10
0.0
 20
0.0
 30
0.0
 70
   128
 71
    64
 72
    65
 73
    69
  0
VERTEX
  5
A6F
  8
0
 62
   253
 10
0.0
 20
0.0
 30
0.0
 70
   128
 71
    66
 72
    64
 73
    19
  0
VERTEX
  5
A70
  8
0
 62
   253
 10
0.0
 20
0.0
 30
0.0
 70
   128
 71
    25
 72
    28
 73
    68
  0
VERTEX
  5
A71
  8
0
 62
   253
 10
0.0
 20
0.0
 30
0.0
 70
   128
 71
    68
 72
    28
 73
    64
  0
VERTEX
  5
A72
  8
0
 62
   253
 10
0.0
 20
0.0
 30
0.0
 70
   128
 71
    28
 72
    19
 73
    64
  0
VERTEX
  5
A73
  8
0
 62
   253
 10
0.0
 20
0.0
 30
0.0
 70
   128
 71
    71
 72
    70
 73
    23
  0
VERTEX
  5
A74
  8
0
 62
   253
 10
0.0
 20
0.0
 30
0.0
 70
   128
 71
    18
 72
    21
 73
    72
  0
VERTEX
  5
A75
  8
0
 62
   253
 10
0.0
 20
0.0
 30
0.0
 70
   128
 71
    72
 72
    21
 73
    70
  0
VERTEX
  5
A76
  8
0
 62
   253
 10
0.0
 20
0.0
 30
0.0
 70
   128
 71
    21
 72
    23
 73
    70
  0
VERTEX
  5
A77
  8
0
 62
   253
 10
0.0
 20
0.0
 30
0.0
 70
   128
 71
    75
 72
    74
 73
    73
  0
VERTEX
  5
A78
  8
0
 62
   253
 10
0.0
 20
0.0
 30
0.0
 70
   128
 71
    71
 72
    71
 73
    70
  0
VERTEX
  5
A79
  8
0
 62
   253
 10
0.0
 20
0.0
 30
0.0
 70
   128
 71
    72
 72
    70
 73
    74
  0
VERTEX
  5
A7A
  8
0
 62
   253
 10
0.0
 20
0.0
 30
0.0
 70
   128
 71
    71
 72
    75
 73
    71
  0
VERTEX
  5
A7B
  8
0
 62
   253
 10
0.0
 20
0.0
 30
0.0
 70
   128
 71
    77
 72
    74
 73
    76
  0
VERTEX
  5
A7C
  8
0
 62
   253
 10
0.0
 20
0.0
 30
0.0
 70
   128
 71
    78
 72
    76
 73
    75
  0
VERTEX
  5
A7D
  8
0
 62
   253
 10
0.0
 20
0.0
 30
0.0
 70
   128
 71
    76
 72
    74
 73
    75
  0
VERTEX
  5
A7E
  8
0
 62
   253
 10
0.0
 20
0.0
 30
0.0
 70
   128
 71
    70
 72
    71
 73
    73
  0
VERTEX
  5
A7F
  8
0
 62
   253
 10
0.0
 20
0.0
 30
0.0
 70
   128
 71
    70
 72
    73
 73
    74
  0
VERTEX
  5
A80
  8
0
 62
   253
 10
0.0
 20
0.0
 30
0.0
 70
   128
 71
    75
 72
    73
 73
    71
  0
VERTEX
  5
A81
  8
0
 62
   253
 10
0.0
 20
0.0
 30
0.0
 70
   128
 71
    78
 72
    79
 73
    76
  0
VERTEX
  5
A82
  8
0
 62
   253
 10
0.0
 20
0.0
 30
0.0
 70
   128
 71
    80
 72
    77
 73
    79
  0
VERTEX
  5
A83
  8
0
 62
   253
 10
0.0
 20
0.0
 30
0.0
 70
   128
 71
    77
 72
    76
 73
    79
  0
VERTEX
  5
A84
  8
0
 62
   253
 10
0.0
 20
0.0
 30
0.0
 70
   128
 71
    66
 72
    57
 73
    65
  0
VERTEX
  5
A85
  8
0
 62
   253
 10
0.0
 20
0.0
 30
0.0
 70
   128
 71
    51
 72
    62
 73
    55
  0
VERTEX
  5
A86
  8
0
 62
   253
 10
0.0
 20
0.0
 30
0.0
 70
   128
 71
    62
 72
    65
 73
    55
  0
VERTEX
  5
A87
  8
0
 62
   253
 10
0.0
 20
0.0
 30
0.0
 70
   128
 71
    55
 72
    65
 73
    57
  0
VERTEX
  5
A88
  8
0
 62
   253
 10
0.0
 20
0.0
 30
0.0
 70
   128
 71
    46
 72
    72
 73
    42
  0
VERTEX
  5
A89
  8
0
 62
   253
 10
0.0
 20
0.0
 30
0.0
 70
   128
 71
    77
 72
    40
 73
    74
  0
VERTEX
  5
A8A
  8
0
 62
   253
 10
0.0
 20
0.0
 30
0.0
 70
   128
 71
    40
 72
    42
 73
    74
  0
VERTEX
  5
A8B
  8
0
 62
   253
 10
0.0
 20
0.0
 30
0.0
 70
   128
 71
    74
 72
    42
 73
    72
  0
VERTEX
  5
A8C
  8
0
 62
   253
 10
0.0
 20
0.0
 30
0.0
 70
   128
 71
    53
 72
    47
 73
    54
  0
VERTEX
  5
A8D
  8
0
 62
   253
 10
0.0
 20
0.0
 30
0.0
 70
   128
 71
    50
 72
    54
 73
    39
  0
VERTEX
  5
A8E
  8
0
 62
   253
 10
0.0
 20
0.0
 30
0.0
 70
   128
 71
    39
 72
    54
 73
    44
  0
VERTEX
  5
A8F
  8
0
 62
   253
 10
0.0
 20
0.0
 30
0.0
 70
   128
 71
    44
 72
    54
 73
    47
  0
VERTEX
  5
A90
  8
0
 62
   253
 10
0.0
 20
0.0
 30
0.0
 70
   128
 71
    71
 72
    68
 73
    75
  0
VERTEX
  5
A91
  8
0
 62
   253
 10
0.0
 20
0.0
 30
0.0
 70
   128
 71
    61
 72
    78
 73
    67
  0
VERTEX
  5
A92
  8
0
 62
   253
 10
0.0
 20
0.0
 30
0.0
 70
   128
 71
    78
 72
    75
 73
    67
  0
VERTEX
  5
A93
  8
0
 62
   253
 10
0.0
 20
0.0
 30
0.0
 70
   128
 71
    67
 72
    75
 73
    68
  0
VERTEX
  5
A94
  8
0
 62
   253
 10
0.0
 20
0.0
 30
0.0
 70
   128
 71
    62
 72
    51
 73
    63
  0
VERTEX
  5
A95
  8
0
 62
   253
 10
0.0
 20
0.0
 30
0.0
 70
   128
 71
    52
 72
    63
 73
    51
  0
VERTEX
  5
A96
  8
0
 62
   253
 10
0.0
 20
0.0
 30
0.0
 70
   128
 71
    63
 72
    52
 73
    59
  0
VERTEX
  5
A97
  8
0
 62
   253
 10
0.0
 20
0.0
 30
0.0
 70
   128
 71
    37
 72
    41
 73
    49
  0
VERTEX
  5
A98
  8
0
 62
   253
 10
0.0
 20
0.0
 30
0.0
 70
   128
 71
    41
 72
    80
 73
    49
  0
VERTEX
  5
A99
  8
0
 62
   253
 10
0.0
 20
0.0
 30
0.0
 70
   128
 71
    80
 72
    79
 73
    49
  0
VERTEX
  5
A9A
  8
0
 62
   253
 10
0.0
 20
0.0
 30
0.0
 70
   128
 71
    79
 72
    59
 73
    49
  0
VERTEX
  5
A9B
  8
0
 62
   253
 10
0.0
 20
0.0
 30
0.0
 70
   128
 71
    49
 72
    59
 73
    52
  0
VERTEX
  5
A9C
  8
0
 62
   253
 10
0.0
 20
0.0
 30
0.0
 70
   128
 71
    57
 72
    66
 73
    16
  0
VERTEX
  5
A9D
  8
0
 62
   253
 10
0.0
 20
0.0
 30
0.0
 70
   128
 71
    19
 72
    16
 73
    66
  0
VERTEX
  5
A9E
  8
0
 62
   253
 10
0.0
 20
0.0
 30
0.0
 70
   128
 71
    78
 72
    61
 73
    79
  0
VERTEX
  5
A9F
  8
0
 62
   253
 10
0.0
 20
0.0
 30
0.0
 70
   128
 71
    59
 72
    79
 73
    61
  0
VERTEX
  5
AA0
  8
0
 62
   253
 10
0.0
 20
0.0
 30
0.0
 70
   128
 71
    53
 72
     7
 73
    47
  0
VERTEX
  5
AA1
  8
0
 62
   253
 10
0.0
 20
0.0
 30
0.0
 70
   128
 71
     8
 72
    47
 73
     7
  0
VERTEX
  5
AA2
  8
0
 62
   253
 10
0.0
 20
0.0
 30
0.0
 70
   128
 71
    50
 72
    39
 73
    49
  0
VERTEX
  5
AA3
  8
0
 62
   253
 10
0.0
 20
0.0
 30
0.0
 70
   128
 71
    37
 72
    49
 73
    39
  0
VERTEX
  5
AA4
  8
0
 62
   253
 10
0.0
 20
0.0
 30
0.0
 70
   128
 71
    80
 72
    41
 73
    77
  0
VERTEX
  5
AA5
  8
0
 62
   253
 10
0.0
 20
0.0
 30
0.0
 70
   128
 71
    40
 72
    77
 73
    41
  0
VERTEX
  5
AA6
  8
0
 62
   253
 10
0.0
 20
0.0
 30
0.0
 70
   128
 71
    72
 72
    46
 73
    18
  0
VERTEX
  5
AA7
  8
0
 62
   253
 10
0.0
 20
0.0
 30
0.0
 70
   128
 71
    12
 72
    18
 73
    46
  0
VERTEX
  5
AA8
  8
0
 62
   253
 10
0.0
 20
0.0
 30
0.0
 70
   128
 71
    71
 72
    23
 73
    68
  0
VERTEX
  5
AA9
  8
0
 62
   253
 10
0.0
 20
0.0
 30
0.0
 70
   128
 71
    25
 72
    68
 73
    23
  0
VERTEX
  5
AAA
  8
0
 62
   253
 10
0.0
 20
0.0
 30
0.0
 70
   128
 71
    29
 72
    17
 73
    31
  0
VERTEX
  5
AAB
  8
0
 62
   253
 10
0.0
 20
0.0
 30
0.0
 70
   128
 71
    82
 72
    81
 73
     3
  0
VERTEX
  5
AAC
  8
0
 62
   253
 10
0.0
 20
0.0
 30
0.0
 70
   128
 71
    81
 72
     6
 73
     3
  0
VERTEX
  5
AAD
  8
0
 62
   253
 10
0.0
 20
0.0
 30
0.0
 70
   128
 71
    22
 72
    17
 73
    24
  0
VERTEX
  5
AAE
  8
0
 62
   253
 10
0.0
 20
0.0
 30
0.0
 70
   128
 71
    17
 72
    29
 73
    24
  0
VERTEX
  5
AAF
  8
0
 62
   253
 10
0.0
 20
0.0
 30
0.0
 70
   128
 71
    24
 72
    29
 73
    27
  0
VERTEX
  5
AB0
  8
0
 62
   253
 10
0.0
 20
0.0
 30
0.0
 70
   128
 71
    29
 72
    36
 73
    27
  0
VERTEX
  5
AB1
  8
0
 62
   253
 10
0.0
 20
0.0
 30
0.0
 70
   128
 71
     9
 72
     2
 73
    10
  0
VERTEX
  5
AB2
  8
0
 62
   253
 10
0.0
 20
0.0
 30
0.0
 70
   128
 71
    13
 72
    15
 73
     4
  0
VERTEX
  5
AB3
  8
0
 62
   253
 10
0.0
 20
0.0
 30
0.0
 70
   128
 71
    15
 72
    20
 73
     4
  0
VERTEX
  5
AB4
  8
0
 62
   253
 10
0.0
 20
0.0
 30
0.0
 70
   128
 71
     4
 72
    20
 73
     6
  0
VERTEX
  5
AB5
  8
0
 62
   253
 10
0.0
 20
0.0
 30
0.0
 70
   128
 71
     6
 72
    20
 73
     3
  0
VERTEX
  5
AB6
  8
0
 62
   253
 10
0.0
 20
0.0
 30
0.0
 70
   128
 71
    20
 72
    26
 73
     3
  0
VERTEX
  5
AB7
  8
0
 62
   253
 10
0.0
 20
0.0
 30
0.0
 70
   128
 71
    26
 72
    27
 73
     3
  0
VERTEX
  5
AB8
  8
0
 62
   253
 10
0.0
 20
0.0
 30
0.0
 70
   128
 71
    27
 72
    36
 73
     3
  0
VERTEX
  5
AB9
  8
0
 62
   253
 10
0.0
 20
0.0
 30
0.0
 70
   128
 71
     3
 72
    36
 73
     2
  0
VERTEX
  5
ABA
  8
0
 62
   253
 10
0.0
 20
0.0
 30
0.0
 70
   128
 71
     2
 72
    36
 73
    10
  0
VERTEX
  5
ABB
  8
0
 62
   253
 10
0.0
 20
0.0
 30
0.0
 70
   128
 71
    36
 72
    34
 73
    10
  0
VERTEX
  5
ABC
  8
0
 62
   253
 10
0.0
 20
0.0
 30
0.0
 70
   128
 71
    10
 72
    34
 73
    17
  0
VERTEX
  5
ABD
  8
0
 62
   253
 10
0.0
 20
0.0
 30
0.0
 70
   128
 71
    34
 72
    31
 73
    17
  0
SEQEND
  5
ABE
  8
0
  0
ENDBLK
  5
AC1
  8
0
  0
ENDSEC
  0
SECTION
  2
ENTITIES
  0
INSERT
  5
5E
  8
LAYER_1
  2
BUMPERS_Ø_12_X_1_E-0000047
 10
0.0
 20
0.0
 30
0.0
  0
INSERT
  5
85
  8
LAYER_1
  2
BUMPERS_Ø_12_X_1_E-0000040
 10
0.0
 20
0.0
 30
0.0
  0
INSERT
  5
B1
  8
LAYER_1
  2
BUMPERS_Ø_12_X_1_E-0000041
 10
0.0
 20
0.0
 30
0.0
  0
INSERT
  5
409
  8
LAYER_1
  2
GLASSCHUTZRING_E-000004863
 10
0.0
 20
0.0
 30
0.0
  0
INSERT
  5
787
  8
LAYER_1
  2
SEIFENSCHALE_E-0000048637
 10
0.0
 20
0.0
 30
0.0
  0
INSERT
  5
9C5
  8
LAYER_1
  2
SEIFENHALTER_E-0000048843
 10
0.0
 20
0.0
 30
0.0
  0
INSERT
  5
ABF
  8
LAYER_1
  2
ROSETTE_FÜR_SEIFENHALTER_E
 10
0.0
 20
0.0
 30
0.0
  0
ENDSEC
  0
EOF
