  0
SECTION
  2
HEADER
  9
$ACADVER
  1
AC1024
  9
$ACADMAINTVER
 70
   226
  9
$DWGCODEPAGE
  3
ANSI_1252
  9
$LASTSAVEDBY
  1
micha
  9
$INSBASE
 10
0.0
 20
0.0
 30
0.0
  9
$EXTMIN
 10
-61.07151816451016
 20
-4.999999887813386
 30
0.0
  9
$EXTMAX
 10
109.8094586776134
 20
109.6874999999992
 30
0.0
  9
$LIMMIN
 10
0.0
 20
0.0
  9
$LIMMAX
 10
12.0
 20
9.0
  9
$ORTHOMODE
 70
     0
  9
$REGENMODE
 70
     1
  9
$FILLMODE
 70
     1
  9
$QTEXTMODE
 70
     0
  9
$MIRRTEXT
 70
     0
  9
$LTSCALE
 40
1.0
  9
$ATTMODE
 70
     1
  9
$TEXTSIZE
 40
0.2
  9
$TRACEWID
 40
0.05
  9
$TEXTSTYLE
  7
Standard
  9
$CLAYER
  8
0
  9
$CELTYPE
  6
ByLayer
  9
$CECOLOR
 62
   256
  9
$CELTSCALE
 40
1.0
  9
$DISPSILH
 70
     0
  9
$DIMSCALE
 40
1.0
  9
$DIMASZ
 40
0.18
  9
$DIMEXO
 40
0.0625
  9
$DIMDLI
 40
0.38
  9
$DIMRND
 40
0.0
  9
$DIMDLE
 40
0.0
  9
$DIMEXE
 40
0.18
  9
$DIMTP
 40
0.0
  9
$DIMTM
 40
0.0
  9
$DIMTXT
 40
0.18
  9
$DIMCEN
 40
0.09
  9
$DIMTSZ
 40
0.0
  9
$DIMTOL
 70
     0
  9
$DIMLIM
 70
     0
  9
$DIMTIH
 70
     1
  9
$DIMTOH
 70
     1
  9
$DIMSE1
 70
     0
  9
$DIMSE2
 70
     0
  9
$DIMTAD
 70
     0
  9
$DIMZIN
 70
     0
  9
$DIMBLK
  1

  9
$DIMASO
 70
     1
  9
$DIMSHO
 70
     1
  9
$DIMPOST
  1

  9
$DIMAPOST
  1

  9
$DIMALT
 70
     0
  9
$DIMALTD
 70
     2
  9
$DIMALTF
 40
25.4
  9
$DIMLFAC
 40
1.0
  9
$DIMTOFL
 70
     0
  9
$DIMTVP
 40
0.0
  9
$DIMTIX
 70
     0
  9
$DIMSOXD
 70
     0
  9
$DIMSAH
 70
     0
  9
$DIMBLK1
  1

  9
$DIMBLK2
  1

  9
$DIMSTYLE
  2
Standard
  9
$DIMCLRD
 70
     0
  9
$DIMCLRE
 70
     0
  9
$DIMCLRT
 70
     0
  9
$DIMTFAC
 40
1.0
  9
$DIMGAP
 40
0.09
  9
$DIMJUST
 70
     0
  9
$DIMSD1
 70
     0
  9
$DIMSD2
 70
     0
  9
$DIMTOLJ
 70
     1
  9
$DIMTZIN
 70
     0
  9
$DIMALTZ
 70
     0
  9
$DIMALTTZ
 70
     0
  9
$DIMUPT
 70
     0
  9
$DIMDEC
 70
     4
  9
$DIMTDEC
 70
     4
  9
$DIMALTU
 70
     4
  9
$DIMALTTD
 70
     2
  9
$DIMTXSTY
  7
Standard
  9
$DIMAUNIT
 70
     0
  9
$DIMADEC
 70
     0
  9
$DIMALTRND
 40
0.0
  9
$DIMAZIN
 70
     0
  9
$DIMDSEP
 70
    46
  9
$DIMATFIT
 70
     3
  9
$DIMFRAC
 70
     0
  9
$DIMLDRBLK
  1

  9
$DIMLUNIT
 70
     4
  9
$DIMLWD
 70
    -2
  9
$DIMLWE
 70
    -2
  9
$DIMTMOVE
 70
     0
  9
$DIMFXL
 40
1.0
  9
$DIMFXLON
 70
     0
  9
$DIMJOGANG
 40
0.7853981633974483
  9
$DIMTFILL
 70
     0
  9
$DIMTFILLCLR
 70
     0
  9
$DIMARCSYM
 70
     0
  9
$DIMLTYPE
  6

  9
$DIMLTEX1
  6

  9
$DIMLTEX2
  6

  9
$DIMTXTDIRECTION
 70
     0
  9
$LUNITS
 70
     4
  9
$LUPREC
 70
     4
  9
$SKETCHINC
 40
0.1
  9
$FILLETRAD
 40
0.0
  9
$AUNITS
 70
     0
  9
$AUPREC
 70
     0
  9
$MENU
  1
.
  9
$ELEVATION
 40
0.0
  9
$PELEVATION
 40
0.0
  9
$THICKNESS
 40
0.0
  9
$LIMCHECK
 70
     0
  9
$CHAMFERA
 40
0.0
  9
$CHAMFERB
 40
0.0
  9
$CHAMFERC
 40
0.0
  9
$CHAMFERD
 40
0.0
  9
$SKPOLY
 70
     0
  9
$TDCREATE
 40
2459235.470740741
  9
$TDUCREATE
 40
2459235.679074074
  9
$TDUPDATE
 40
2459235.480300926
  9
$TDUUPDATE
 40
2459235.688634259
  9
$TDINDWG
 40
0.0070717593
  9
$TDUSRTIMER
 40
0.0070717593
  9
$USRTIMER
 70
     1
  9
$ANGBASE
 50
0.0
  9
$ANGDIR
 70
     0
  9
$PDMODE
 70
     0
  9
$PDSIZE
 40
0.0
  9
$PLINEWID
 40
0.0
  9
$SPLFRAME
 70
     0
  9
$SPLINETYPE
 70
     6
  9
$SPLINESEGS
 70
     8
  9
$HANDSEED
  5
1D5
  9
$SURFTAB1
 70
     6
  9
$SURFTAB2
 70
     6
  9
$SURFTYPE
 70
     6
  9
$SURFU
 70
     6
  9
$SURFV
 70
     6
  9
$UCSBASE
  2

  9
$UCSNAME
  2

  9
$UCSORG
 10
0.0
 20
0.0
 30
0.0
  9
$UCSXDIR
 10
1.0
 20
0.0
 30
0.0
  9
$UCSYDIR
 10
0.0
 20
1.0
 30
0.0
  9
$UCSORTHOREF
  2

  9
$UCSORTHOVIEW
 70
     0
  9
$UCSORGTOP
 10
0.0
 20
0.0
 30
0.0
  9
$UCSORGBOTTOM
 10
0.0
 20
0.0
 30
0.0
  9
$UCSORGLEFT
 10
0.0
 20
0.0
 30
0.0
  9
$UCSORGRIGHT
 10
0.0
 20
0.0
 30
0.0
  9
$UCSORGFRONT
 10
0.0
 20
0.0
 30
0.0
  9
$UCSORGBACK
 10
0.0
 20
0.0
 30
0.0
  9
$PUCSBASE
  2

  9
$PUCSNAME
  2

  9
$PUCSORG
 10
0.0
 20
0.0
 30
0.0
  9
$PUCSXDIR
 10
1.0
 20
0.0
 30
0.0
  9
$PUCSYDIR
 10
0.0
 20
1.0
 30
0.0
  9
$PUCSORTHOREF
  2

  9
$PUCSORTHOVIEW
 70
     0
  9
$PUCSORGTOP
 10
0.0
 20
0.0
 30
0.0
  9
$PUCSORGBOTTOM
 10
0.0
 20
0.0
 30
0.0
  9
$PUCSORGLEFT
 10
0.0
 20
0.0
 30
0.0
  9
$PUCSORGRIGHT
 10
0.0
 20
0.0
 30
0.0
  9
$PUCSORGFRONT
 10
0.0
 20
0.0
 30
0.0
  9
$PUCSORGBACK
 10
0.0
 20
0.0
 30
0.0
  9
$USERI1
 70
     0
  9
$USERI2
 70
     0
  9
$USERI3
 70
     0
  9
$USERI4
 70
     0
  9
$USERI5
 70
     0
  9
$USERR1
 40
0.0
  9
$USERR2
 40
0.0
  9
$USERR3
 40
0.0
  9
$USERR4
 40
0.0
  9
$USERR5
 40
0.0
  9
$WORLDVIEW
 70
     1
  9
$SHADEDGE
 70
     3
  9
$SHADEDIF
 70
    70
  9
$TILEMODE
 70
     1
  9
$MAXACTVP
 70
    64
  9
$PINSBASE
 10
0.0
 20
0.0
 30
0.0
  9
$PLIMCHECK
 70
     0
  9
$PEXTMIN
 10
1.000000000000000E+20
 20
1.000000000000000E+20
 30
1.000000000000000E+20
  9
$PEXTMAX
 10
-1.000000000000000E+20
 20
-1.000000000000000E+20
 30
-1.000000000000000E+20
  9
$PLIMMIN
 10
0.0
 20
0.0
  9
$PLIMMAX
 10
12.0
 20
9.0
  9
$UNITMODE
 70
     0
  9
$VISRETAIN
 70
     1
  9
$PLINEGEN
 70
     0
  9
$PSLTSCALE
 70
     1
  9
$TREEDEPTH
 70
  3020
  9
$CMLSTYLE
  2
Standard
  9
$CMLJUST
 70
     0
  9
$CMLSCALE
 40
1.0
  9
$PROXYGRAPHICS
 70
     1
  9
$MEASUREMENT
 70
     0
  9
$CELWEIGHT
370
    -1
  9
$ENDCAPS
280
     0
  9
$JOINSTYLE
280
     0
  9
$LWDISPLAY
290
     0
  9
$INSUNITS
 70
     1
  9
$HYPERLINKBASE
  1

  9
$STYLESHEET
  1

  9
$XEDIT
290
     1
  9
$CEPSNTYPE
380
     0
  9
$PSTYLEMODE
290
     1
  9
$FINGERPRINTGUID
  2
{F962EAB9-A7E5-6B4B-B1DE-F267571CCA4A}
  9
$VERSIONGUID
  2
{77AFF44B-152F-BD47-A135-ACC206D7EA16}
  9
$EXTNAMES
290
     1
  9
$PSVPSCALE
 40
0.0
  9
$OLESTARTUP
290
     0
  9
$SORTENTS
280
   127
  9
$INDEXCTL
280
     0
  9
$HIDETEXT
280
     1
  9
$XCLIPFRAME
280
     2
  9
$HALOGAP
280
     0
  9
$OBSCOLOR
 70
   257
  9
$OBSLTYPE
280
     0
  9
$INTERSECTIONDISPLAY
280
     0
  9
$INTERSECTIONCOLOR
 70
   257
  9
$DIMASSOC
280
     2
  9
$PROJECTNAME
  1

  9
$CAMERADISPLAY
290
     0
  9
$LENSLENGTH
 40
50.0
  9
$CAMERAHEIGHT
 40
0.0
  9
$STEPSPERSEC
 40
2.0
  9
$STEPSIZE
 40
6.0
  9
$3DDWFPREC
 40
2.0
  9
$PSOLWIDTH
 40
0.25
  9
$PSOLHEIGHT
 40
4.0
  9
$LOFTANG1
 40
1.570796326794896
  9
$LOFTANG2
 40
1.570796326794896
  9
$LOFTMAG1
 40
0.0
  9
$LOFTMAG2
 40
0.0
  9
$LOFTPARAM
 70
     7
  9
$LOFTNORMALS
280
     1
  9
$LATITUDE
 40
0.0
  9
$LONGITUDE
 40
0.0
  9
$NORTHDIRECTION
 40
0.0
  9
$TIMEZONE
 70
     0
  9
$LIGHTGLYPHDISPLAY
280
     1
  9
$TILEMODELIGHTSYNCH
280
     1
  9
$CMATERIAL
347
11
  9
$SOLIDHIST
280
     0
  9
$SHOWHIST
280
     1
  9
$DWFFRAME
280
     2
  9
$DGNFRAME
280
     0
  9
$REALWORLDSCALE
290
     1
  9
$INTERFERECOLOR
 62
     1
  9
$INTERFEREOBJVS
345
33
  9
$INTERFEREVPVS
346
30
  9
$CSHADOW
280
     0
  9
$SHADOWPLANELOCATION
 40
0.0
  0
ENDSEC
  0
SECTION
  2
CLASSES
  0
CLASS
  1
ACDBDICTIONARYWDFLT
  2
AcDbDictionaryWithDefault
  3
ObjectDBX Classes
 90
        0
 91
        1
280
     0
281
     0
  0
CLASS
  1
MATERIAL
  2
AcDbMaterial
  3
ObjectDBX Classes
 90
     1153
 91
        3
280
     0
281
     0
  0
CLASS
  1
VISUALSTYLE
  2
AcDbVisualStyle
  3
ObjectDBX Classes
 90
     4095
 91
       24
280
     0
281
     0
  0
CLASS
  1
SCALE
  2
AcDbScale
  3
ObjectDBX Classes
 90
     1153
 91
       17
280
     0
281
     0
  0
CLASS
  1
TABLESTYLE
  2
AcDbTableStyle
  3
ObjectDBX Classes
 90
     4095
 91
        1
280
     0
281
     0
  0
CLASS
  1
MLEADERSTYLE
  2
AcDbMLeaderStyle
  3
ACDB_MLEADERSTYLE_CLASS
 90
     4095
 91
        1
280
     0
281
     0
  0
CLASS
  1
ACDBSECTIONVIEWSTYLE
  2
AcDbSectionViewStyle
  3
ObjectDBX Classes
 90
     1025
 91
        1
280
     0
281
     0
  0
CLASS
  1
ACDBDETAILVIEWSTYLE
  2
AcDbDetailViewStyle
  3
ObjectDBX Classes
 90
     1025
 91
        1
280
     0
281
     0
  0
CLASS
  1
RASTERVARIABLES
  2
AcDbRasterVariables
  3
ISM
 90
        0
 91
        1
280
     0
281
     0
  0
CLASS
  1
DICTIONARYVAR
  2
AcDbDictionaryVar
  3
ObjectDBX Classes
 90
        0
 91
        5
280
     0
281
     0
  0
CLASS
  1
SORTENTSTABLE
  2
AcDbSortentsTable
  3
ObjectDBX Classes
 90
        0
 91
        4
280
     0
281
     0
  0
CLASS
  1
CELLSTYLEMAP
  2
AcDbCellStyleMap
  3
ObjectDBX Classes
 90
     1152
 91
        1
280
     0
281
     0
  0
ENDSEC
  0
SECTION
  2
TABLES
  0
TABLE
  2
VPORT
  5
8
330
0
100
AcDbSymbolTable
 70
     1
  0
VPORT
  5
57
330
8
100
AcDbSymbolTableRecord
100
AcDbViewportTableRecord
  2
*Active
 70
     0
 10
0.0
 20
0.0
 11
1.0
 21
1.0
 12
-2.151380624012759
 22
7.248721694612754
 13
0.0
 23
0.0
 14
1.0
 24
1.0
 15
0.0
 25
0.0
 16
0.0
 26
0.0
 36
1.0
 17
0.0
 27
0.0
 37
0.0
 40
60.2935383475749
 41
2.292712066905615
 42
50.0
 43
0.0
 44
0.0
 50
0.0
 51
0.0
 71
     0
 72
  1000
 73
     1
 74
     0
 75
     0
 76
     0
 77
     0
 78
     0
281
     0
 65
     1
110
0.0
120
0.0
130
0.0
111
1.0
121
0.0
131
0.0
112
0.0
122
1.0
132
0.0
 79
     0
146
0.0
348
2F
 60
     3
 61
     5
292
     1
282
     1
141
0.0
142
0.0
 63
   250
421
  3355443
1001
ACAD_NAV_VCDISPLAY
1070
     3
  0
ENDTAB
  0
TABLE
  2
LTYPE
  5
5
330
0
100
AcDbSymbolTable
 70
     2
  0
LTYPE
  5
5B
330
5
100
AcDbSymbolTableRecord
100
AcDbLinetypeTableRecord
  2
ByBlock
 70
     0
  3

 72
    65
 73
     0
 40
0.0
  0
LTYPE
  5
5C
330
5
100
AcDbSymbolTableRecord
100
AcDbLinetypeTableRecord
  2
ByLayer
 70
     0
  3

 72
    65
 73
     0
 40
0.0
  0
LTYPE
  5
5D
330
5
100
AcDbSymbolTableRecord
100
AcDbLinetypeTableRecord
  2
Continuous
 70
     0
  3
Solid line
 72
    65
 73
     0
 40
0.0
  0
ENDTAB
  0
TABLE
  2
LAYER
  5
2
330
0
100
AcDbSymbolTable
 70
     3
  0
LAYER
  5
54
330
2
100
AcDbSymbolTableRecord
100
AcDbLayerTableRecord
  2
0
 70
     0
 62
     7
  6
Continuous
370
    -3
390
F
347
21
  0
LAYER
  5
81
330
2
100
AcDbSymbolTableRecord
100
AcDbLayerTableRecord
  2
A-DETL-MBND
 70
     0
 62
     5
  6
Continuous
370
     9
390
F
347
21
  0
LAYER
  5
86
330
2
100
AcDbSymbolTableRecord
100
AcDbLayerTableRecord
  2
P-SANR-FIXT
 70
     0
 62
     6
  6
Continuous
370
     9
390
F
347
21
  0
ENDTAB
  0
TABLE
  2
STYLE
  5
3
330
0
100
AcDbSymbolTable
 70
     2
  0
STYLE
  5
55
330
3
100
AcDbSymbolTableRecord
100
AcDbTextStyleTableRecord
  2
Standard
 70
     0
 40
0.0
 41
1.0
 50
0.0
 71
     0
 42
0.2
  3
txt
  4

  0
STYLE
  5
5A
330
3
100
AcDbSymbolTableRecord
100
AcDbTextStyleTableRecord
  2
Annotative
 70
     0
 40
0.0
 41
1.0
 50
0.0
 71
     0
 42
0.2
  3
txt
  4

1001
AcadAnnotative
1000
AnnotativeData
1002
{
1070
     1
1070
     1
1002
}
  0
ENDTAB
  0
TABLE
  2
VIEW
  5
6
330
0
100
AcDbSymbolTable
 70
     0
  0
ENDTAB
  0
TABLE
  2
UCS
  5
7
330
0
100
AcDbSymbolTable
 70
     0
  0
ENDTAB
  0
TABLE
  2
APPID
  5
9
330
0
100
AcDbSymbolTable
 70
     5
  0
APPID
  5
56
330
9
100
AcDbSymbolTableRecord
100
AcDbRegAppTableRecord
  2
ACAD
 70
     0
  0
APPID
  5
5E
330
9
100
AcDbSymbolTableRecord
100
AcDbRegAppTableRecord
  2
AcadAnnotative
 70
     0
  0
APPID
  5
78
330
9
100
AcDbSymbolTableRecord
100
AcDbRegAppTableRecord
  2
REVIT
 70
     0
  0
APPID
  5
BC
330
9
100
AcDbSymbolTableRecord
100
AcDbRegAppTableRecord
  2
ACAD_NAV_VCDISPLAY
 70
     0
  0
APPID
  5
EE
330
9
100
AcDbSymbolTableRecord
100
AcDbRegAppTableRecord
  2
ACAD_EXEMPT_FROM_CAD_STANDARDS
 70
     0
  0
ENDTAB
  0
TABLE
  2
DIMSTYLE
  5
A
330
0
100
AcDbSymbolTable
 70
     3
100
AcDbDimStyleTable
 71
     1
340
58
  0
DIMSTYLE
105
58
330
A
100
AcDbSymbolTableRecord
100
AcDbDimStyleTableRecord
  2
Standard
 70
     0
340
55
  0
DIMSTYLE
105
59
330
A
100
AcDbSymbolTableRecord
100
AcDbDimStyleTableRecord
  2
Annotative
 70
     0
340
55
1001
AcadAnnotative
1000
AnnotativeData
1002
{
1070
     1
1070
     1
1002
}
  0
ENDTAB
  0
TABLE
  2
BLOCK_RECORD
  5
1
330
0
100
AcDbSymbolTable
 70
    11
  0
BLOCK_RECORD
  5
70
102
{ACAD_XDICTIONARY
360
97
102
}
330
1
100
AcDbSymbolTableRecord
100
AcDbBlockTableRecord
  2
*Model_Space
340
73
 70
     0
280
     1
281
     0
  0
BLOCK_RECORD
  5
6C
330
1
100
AcDbSymbolTableRecord
100
AcDbBlockTableRecord
  2
*Paper_Space
340
6F
 70
     0
280
     1
281
     0
  0
BLOCK_RECORD
  5
74
330
1
100
AcDbSymbolTableRecord
100
AcDbBlockTableRecord
  2
*Paper_Space0
340
77
 70
     0
280
     1
281
     0
  0
BLOCK_RECORD
  5
82
330
1
100
AcDbSymbolTableRecord
100
AcDbBlockTableRecord
  2
FamilyGeomCombination_7445-Ref_ Level
340
0
 70
     0
280
     1
281
     0
  0
BLOCK_RECORD
  5
A3
330
1
100
AcDbSymbolTableRecord
100
AcDbBlockTableRecord
  2
FamilyGeomCombination_7445-Left
340
0
102
{BLKREFS
102
}
 70
     0
280
     1
281
     0
  0
BLOCK_RECORD
  5
C5
330
1
100
AcDbSymbolTableRecord
100
AcDbBlockTableRecord
  2
FamilyGeomCombination_7445-Back
340
0
102
{BLKREFS
102
}
 70
     0
280
     1
281
     0
  0
BLOCK_RECORD
  5
134
330
1
100
AcDbSymbolTableRecord
100
AcDbBlockTableRecord
  2
Shower_Arm-DXV-Oak_Hill-D35700316_Series - Left View
340
0
310
280000002000000020000000010020000000000000100000010000000100000000000000000000009052AD09302821FF302821FF302821FF302821FF302821FF302821FF302821FF302821FF302821FF302821FF302821FF302821FF302821FF302821FF302821FF302821FF302821FF302821FF302821FF302821FF302821
310
FF302821FF302821FF302821FF302821FF302821FF302821FF302821FF302821FF302821FF302821FF302821FF302821FF302821FF302821FF302821FF302821FF302821FF302821FF302821FF302821FF302821FF302821FF302821FF302821FF302821FF302821FF302821FF302821FF302821FF302821FF302821FF3028
310
21FF302821FF302821FF302821FF302821FF302821FF302821FF302821FF302821FF302821FF302821FF302821FF302821FF302821FF302821FF302821FF302821FF302821FF302821FF302821FF302821FF302821FF302821FF302821FF302821FF302821FF302821FF302821FF302821FF302821FF302821FF302821FF30
310
2821FF302821FF302821FF302821FF302821FF302821FF302821FF302821FF302821FF302821FF302821FF302821FF302821FF302821FF302821FF302821FF302821FF302821FF302821FF302821FF302821FF302821FF302821FF302821FF302821FF302821FF302821FF302821FF302821FF302821FF302821FF302821FF
310
302821FF302821FF302821FF302821FF302821FF302821FF302821FF302821FF302821FF302821FF302821FF302821FF302821FF302821FF302821FF302821FF302821FF302821FF302821FF302821FF302821FF302821FF302821FF302821FF302821FF302821FF302821FF302821FF302821FF302821FF302821FF302821
310
FF302821FF302821FF302821FF302821FF302821FF302821FF302821FF302821FF302821FF302821FF302821FF302821FF302821FF302821FF302821FF302821FF302821FF302821FF302821FF302821FF302821FF302821FF302821FF302821FF302821FF302821FF302821FF302821FF302821FF302821FF302821FF3028
310
21FF302821FF302821FF302821FF302821FF302821FF302821FF302821FF302821FF302821FF302821FF302821FF302821FF302821FF302821FF302821FF302821FF302821FF302821FF302821FF302821FF302821FF302821FF302821FF302821FF302821FF302821FF302821FF302821FF302821FF302821FF302821FF30
310
2821FF302821FF302821FF302821FF302821FF302821FF302821FF302821FF302821FF302821FF302821FF302821FF302821FF302821FF302821FF302821FF302821FF302821FF302821FF302821FF302821FF302821FF302821FF302821FF302821FF302821FF302821FF302821FF302821FF302821FF302821FF302821FF
310
302821FF302821FF302821FF302821FF302821FF302821FF302821FF302821FF302821FF302821FF302821FF302821FF302821FF302821FF302821FF302821FF302821FF302821FF302821FF302821FF302821FF302821FF302821FF302821FF302821FF302821FF302821FF302821FF302821FF302821FF302821FF302821
310
FF302821FF302821FF302821FF302821FF302821FF302821FF302821FF302821FF302821FF302821FF302821FF302821FF302821FF302821FF302821FF302821FF302821FF302821FF302821FF302821FF302821FF302821FF302821FF302821FF302821FF302821FF302821FF302821FF302821FF302821FF302821FF3028
310
21FF302821FF302821FF302821FF302821FF302821FF302821FF302821FF302821FF302821FF302821FF302821FF302821FF302821FF302821FF302821FF302821FF302821FF302821FF302821FF302821FF302821FF302821FF302821FF302821FF302821FF302821FF302821FF302821FF302821FF302821FF302821FF30
310
2821FF302821FF302821FF302821FF302821FF302821FF302821FF302821FF302821FF302821FF302821FF302821FF302821FF302821FF302821FF302821FF302821FF302821FF302821FF302821FF302821FF302821FF302821FF302821FF302821FF302821FF302821FF302821FF302821FF302821FF302821FF302821FF
310
302821FF302821FF302821FF302821FF302821FF302821FF302821FF302821FF302821FF302821FF302821FF302821FF302821FF302821FF302821FF302821FF302821FF302821FF302821FF302821FF302821FF302821FF302821FF302821FF302821FF302821FF302821FF302821FF302821FF302821FF302821FF302821
310
FF302821FF302821FF302821FF302821FF302821FF302821FF302821FF302821FF302821FF302821FF302821FF302821FF302821FF302821FF302821FF302821FF302821FF302821FF302821FF302821FF302821FF302821FF302821FF302821FF302821FF302821FF302821FF302821FF302821FF302821FF302821FF3028
310
21FF302821FF302821FF302821FF302821FF302821FF302821FF302821FF302821FF302821FF302821FF302821FF302821FF302821FF302821FF302821FF302821FFFFFFFFFF302821FF302821FF302821FF302821FF302821FF302821FF302821FF302821FF302821FF302821FF302821FF302821FF302821FF302821FF30
310
2821FF302821FF302821FF302821FF302821FF302821FF302821FF302821FF302821FF302821FF302821FF302821FFFFFFFFFFFFFFFFFF302821FF302821FFFFFFFFFFFFFFFFFFFFFFFFFFFFFFFFFFFFFFFFFFFFFFFFFFFFFFFFFFFFFFFFFFFFFFFFFFFFFFFFFFFFFFFFFFFFFFFFFFFFFFFFFFFFFFFFFFFFFFFFFFFFFFFFFF
310
FFFFFFFFFFFFFFFFFFFFFFFFFFFFFFFFFFFFFFFFFFFFFFFFFFFFFFFFFFFFFFFFFFFFFFFFFFFFFFFFFFFFFFFFFFFFFFFFFFFFFFFFFFFFFFFF302821FF302821FFFFFFFFFFFFFFFFFFFFFFFFFFFFFFFFFFFFFFFFFFFFFFFFFFFFFFFFFFFFFFFFFFFFFFFFFFFFFFFFFFFFFFFFFFFFFFFFFFFFFFFFFFFFFFFFFFFFFFFFFFFFFFFF
310
FFFFFFFFFFFFFFFFFFFFFFFFFFFFFFFFFFFFFFFFFFFFFFFFFFFFFFFFFFFFFFFFFFFFFFFFFFFFFFFFFFFFFFFFFFFFFFFFFFFFFFFFFF302821FF302821FF302821FF302821FFFFFFFFFF302821FF302821FF302821FF302821FF302821FF302821FF302821FF302821FF302821FF302821FF302821FF302821FF302821FF3028
310
21FF302821FF302821FF302821FF302821FF302821FF302821FF302821FF302821FF302821FF302821FF302821FF302821FF302821FF302821FF302821FF302821FF302821FF302821FF302821FF302821FF302821FF302821FF302821FF302821FF302821FF302821FF302821FF302821FF302821FF302821FF302821FF30
310
2821FF302821FF302821FF302821FF302821FF302821FF302821FF302821FF302821FF302821FF302821FF302821FF302821FF302821FF302821FF302821FF302821FF302821FF302821FF302821FF302821FF302821FF302821FF302821FF302821FF302821FF302821FF302821FF302821FF302821FF302821FF302821FF
310
302821FF302821FF302821FF302821FF302821FF302821FF302821FF302821FF302821FF302821FF302821FF302821FF302821FF302821FF302821FF302821FF302821FF302821FF302821FF302821FF302821FF302821FF302821FF302821FF302821FF302821FF302821FF302821FF302821FF302821FF302821FF302821
310
FF302821FF302821FF302821FF302821FF302821FF302821FF302821FF302821FF302821FF302821FF302821FF302821FF302821FF302821FF302821FF302821FF302821FF302821FF302821FF302821FF302821FF302821FF302821FF302821FF302821FF302821FF302821FF302821FF302821FF302821FF302821FF3028
310
21FF302821FF302821FF302821FF302821FF302821FF302821FF302821FF302821FF302821FF302821FF302821FF302821FF302821FF302821FF302821FF302821FF302821FF302821FF302821FF302821FF302821FF302821FF302821FF302821FF302821FF302821FF302821FF302821FF302821FF302821FF302821FF30
310
2821FF302821FF302821FF302821FF302821FF302821FF302821FF302821FF302821FF302821FF302821FF302821FF302821FF302821FF302821FF302821FF302821FF302821FF302821FF302821FF302821FF302821FF302821FF302821FF302821FF302821FF302821FF302821FF302821FF302821FF302821FF302821FF
310
302821FF302821FF302821FF302821FF302821FF302821FF302821FF302821FF302821FF302821FF302821FF302821FF302821FF302821FF302821FF302821FF302821FF302821FF302821FF302821FF302821FF302821FF302821FF302821FF302821FF302821FF302821FF302821FF302821FF302821FF302821FF302821
310
FF302821FF302821FF302821FF302821FF302821FF302821FF302821FF302821FF302821FF302821FF302821FF302821FF302821FF302821FF302821FF302821FF302821FF302821FF302821FF302821FF302821FF302821FF302821FF302821FF302821FF302821FF302821FF302821FF302821FF302821FF302821FF3028
310
21FF302821FF302821FF302821FF302821FF302821FF302821FF302821FF302821FF302821FF302821FF302821FF302821FF302821FF302821FF302821FF302821FF302821FF302821FF302821FF302821FF302821FF302821FF302821FF302821FF302821FF302821FF302821FF302821FF302821FF302821FF302821FF30
310
2821FF302821FF302821FF302821FF302821FF302821FF302821FF302821FF302821FF302821FF302821FF302821FF302821FF302821FF302821FF302821FF302821FF302821FF302821FF302821FF302821FF302821FF302821FF302821FF302821FF302821FF302821FF302821FF302821FF302821FF302821FF302821FF
310
302821FF302821FF302821FF302821FF302821FF302821FF302821FF302821FF302821FF302821FF302821FF302821FF302821FF302821FF302821FF302821FF302821FF302821FF302821FF302821FF302821FF302821FF302821FF302821FF302821FF302821FF302821FF302821FF302821FF302821FF302821FF302821
310
FF302821FF302821FF302821FF302821FF302821FF302821FF302821FF302821FF302821FF302821FF302821FF302821FF302821FF302821FF302821FF302821FF302821FF302821FF302821FF302821FF302821FF302821FF302821FF302821FF302821FF302821FF302821FF302821FF302821FF302821FF302821FF3028
310
21FF302821FF302821FF302821FF302821FF302821FF302821FF302821FF302821FF302821FF302821FF302821FF302821FF302821FF302821FF302821FF302821FF302821FF302821FF302821FF302821FF302821FF302821FF302821FF302821FF302821FF302821FF302821FF302821FF302821FF302821FF302821FF30
310
2821FF302821FF302821FF302821FF302821FF302821FF302821FF302821FF302821FF302821FF302821FF302821FF302821FF302821FF302821FF302821FF302821FF302821FF302821FF302821FF302821FF302821FF302821FF302821FF302821FF302821FF302821FF302821FF302821FF302821FF302821FF302821FF
310
302821FF302821FF302821FF302821FF302821FF302821FF302821FF302821FF302821FF302821FF302821FF302821FF302821FF302821FF302821FF302821FF302821FF302821FF
102
{BLKREFS
331
149
102
}
 70
     1
280
     1
281
     0
  0
BLOCK_RECORD
  5
14A
330
1
100
AcDbSymbolTableRecord
100
AcDbBlockTableRecord
  2
Shower_Arm-DXV-Oak_Hill-D35700316_Series - Front View
340
0
310
2800000020000000200000000100200000000000001000000100000001000000000000000000000000009F0F302821FF302821FF302821FF302821FF302821FF302821FF302821FF302821FF302821FF302821FF302821FF302821FF302821FF302821FF302821FF302821FF302821FF302821FF302821FF302821FF302821
310
FF302821FF302821FF302821FF302821FF302821FF302821FF302821FF302821FF302821FF302821FF302821FF302821FF302821FF302821FF302821FF302821FF302821FF302821FF302821FF302821FF302821FF302821FF302821FF302821FFFFFFFFFFFFFFFFFFFFFFFFFFFFFFFFFFFFFFFFFFFFFFFFFF302821FF3028
310
21FF302821FF302821FF302821FF302821FF302821FF302821FF302821FF302821FF302821FF302821FF302821FF302821FF302821FF302821FF302821FF302821FF302821FF302821FF302821FF302821FF302821FF302821FF302821FF302821FFFFFFFFFF302821FF302821FF302821FF302821FFFFFFFFFF302821FF30
310
2821FF302821FF302821FF302821FF302821FF302821FF302821FF302821FF302821FF302821FF302821FF302821FF302821FF302821FF302821FF302821FF302821FF302821FF302821FF302821FF302821FF302821FF302821FF302821FF302821FFFFFFFFFF302821FF302821FF302821FF302821FFFFFFFFFF302821FF
310
302821FF302821FF302821FF302821FF302821FF302821FF302821FF302821FF302821FF302821FF302821FF302821FF302821FF302821FF302821FF302821FF302821FF302821FF302821FF302821FF302821FF302821FF302821FF302821FF302821FFFFFFFFFF302821FF302821FF302821FF302821FFFFFFFFFF302821
310
FF302821FF302821FF302821FF302821FF302821FF302821FF302821FF302821FF302821FF302821FF302821FF302821FF302821FF302821FF302821FF302821FF302821FF302821FF302821FF302821FF302821FF302821FFFFFFFFFFFFFFFFFFFFFFFFFFFFFFFFFF302821FF302821FF302821FF302821FFFFFFFFFFFFFF
310
FFFFFFFFFFFF302821FF302821FF302821FF302821FF302821FF302821FF302821FF302821FF302821FF302821FF302821FF302821FF302821FF302821FF302821FF302821FF302821FF302821FF302821FF302821FFFFFFFFFFFFFFFFFF302821FF302821FFFFFFFFFF302821FF302821FF302821FF302821FFFFFFFFFF30
310
2821FF302821FFFFFFFFFFFFFFFFFF302821FF302821FF302821FF302821FF302821FF302821FF302821FF302821FF302821FF302821FF302821FF302821FF302821FF302821FF302821FF302821FFFFFFFFFFFFFFFFFF302821FF302821FF302821FF302821FFFFFFFFFF302821FF302821FF302821FF302821FFFFFFFFFF
310
302821FF302821FF302821FF302821FFFFFFFFFF302821FF302821FF302821FF302821FF302821FF302821FF302821FF302821FF302821FF302821FF302821FF302821FF302821FF302821FFFFFFFFFFFFFFFFFF302821FF302821FF302821FF302821FF302821FFFFFFFFFF302821FF302821FF302821FF302821FFFFFFFF
310
FF302821FF302821FF302821FF302821FF302821FFFFFFFFFFFFFFFFFF302821FF302821FF302821FF302821FF302821FF302821FF302821FF302821FF302821FF302821FF302821FF302821FFFFFFFFFF302821FF302821FF302821FF302821FF302821FF302821FFFFFFFFFF302821FF302821FF302821FF302821FFFFFF
310
FFFF302821FF302821FF302821FF302821FF302821FF302821FFFFFFFFFFFFFFFFFF302821FF302821FF302821FF302821FF302821FF302821FF302821FF302821FF302821FF302821FFFFFFFFFF302821FF302821FF302821FF302821FF302821FF302821FF302821FFFFFFFFFF302821FF302821FF302821FF302821FFFF
310
FFFFFF302821FF302821FF302821FF302821FF302821FF302821FF302821FFFFFFFFFF302821FF302821FF302821FF302821FF302821FF302821FF302821FF302821FF302821FFFFFFFFFF302821FF302821FF302821FF302821FF302821FF302821FF302821FF302821FFFFFFFFFF302821FF302821FF302821FF302821FF
310
FFFFFFFF302821FF302821FF302821FF302821FF302821FF302821FF302821FFFFFFFFFFFFFFFFFF302821FF302821FF302821FF302821FF302821FF302821FF302821FF302821FFFFFFFFFF302821FF302821FF302821FF302821FF302821FF302821FF302821FF302821FFFFFFFFFF302821FF302821FF302821FF302821
310
FFFFFFFFFF302821FF302821FF302821FF302821FF302821FF302821FF302821FF302821FFFFFFFFFF302821FF302821FF302821FF302821FF302821FF302821FF302821FFFFFFFFFFFFFFFFFF302821FF302821FF302821FF302821FF302821FF302821FF302821FF302821FFFFFFFFFF302821FF302821FF302821FF3028
310
21FFFFFFFFFF302821FF302821FF302821FF302821FF302821FF302821FF302821FF302821FFFFFFFFFFFFFFFFFF302821FF302821FF302821FF302821FF302821FF302821FFFFFFFFFF302821FF302821FF302821FF302821FF302821FF302821FF302821FF302821FF302821FFFFFFFFFF302821FF302821FF302821FF30
310
2821FFFFFFFFFF302821FF302821FF302821FF302821FF302821FF302821FF302821FF302821FF302821FFFFFFFFFF302821FF302821FF302821FF302821FF302821FF302821FFFFFFFFFF302821FF302821FF302821FF302821FF302821FF302821FF302821FF302821FF302821FFFFFFFFFF302821FF302821FF302821FF
310
302821FFFFFFFFFF302821FF302821FF302821FF302821FF302821FF302821FF302821FF302821FF302821FFFFFFFFFF302821FF302821FF302821FF302821FF302821FF302821FFFFFFFFFF302821FF302821FF302821FF302821FF302821FF302821FF302821FF302821FF302821FFFFFFFFFF302821FF302821FF302821
310
FF302821FFFFFFFFFF302821FF302821FF302821FF302821FF302821FF302821FF302821FF302821FF302821FFFFFFFFFF302821FF302821FF302821FF302821FF302821FF302821FFFFFFFFFF302821FF302821FF302821FF302821FF302821FF302821FF302821FF302821FF302821FFFFFFFFFF302821FF302821FF3028
310
21FF302821FFFFFFFFFF302821FF302821FF302821FF302821FF302821FF302821FF302821FF302821FF302821FFFFFFFFFF302821FF302821FF302821FF302821FF302821FF302821FFFFFFFFFF302821FF302821FF302821FF302821FF302821FF302821FF302821FF302821FF302821FFFFFFFFFF302821FF302821FF30
310
2821FF302821FFFFFFFFFF302821FF302821FF302821FF302821FF302821FF302821FF302821FF302821FF302821FFFFFFFFFF302821FF302821FF302821FF302821FF302821FF302821FFFFFFFFFF302821FF302821FF302821FF302821FF302821FF302821FF302821FF302821FF302821FFFFFFFFFFFFFFFFFF302821FF
310
302821FFFFFFFFFFFFFFFFFF302821FF302821FF302821FF302821FF302821FF302821FF302821FF302821FF302821FFFFFFFFFF302821FF302821FF302821FF302821FF302821FF302821FFFFFFFFFF302821FF302821FF302821FF302821FF302821FF302821FF302821FF302821FF302821FF302821FFFFFFFFFFFFFFFF
310
FFFFFFFFFFFFFFFFFF302821FF302821FF302821FF302821FF302821FF302821FF302821FF302821FF302821FF302821FFFFFFFFFF302821FF302821FF302821FF302821FF302821FF302821FFFFFFFFFFFFFFFFFF302821FF302821FF302821FF302821FF302821FF302821FF302821FF302821FF302821FF302821FF3028
310
21FF302821FF302821FF302821FF302821FF302821FF302821FF302821FF302821FF302821FF302821FF302821FFFFFFFFFFFFFFFFFF302821FF302821FF302821FF302821FF302821FF302821FF302821FFFFFFFFFF302821FF302821FF302821FF302821FF302821FF302821FF302821FF302821FF302821FF302821FF30
310
2821FF302821FF302821FF302821FF302821FF302821FF302821FF302821FF302821FF302821FF302821FF302821FFFFFFFFFF302821FF302821FF302821FF302821FF302821FF302821FF302821FF302821FFFFFFFFFFFFFFFFFF302821FF302821FF302821FF302821FF302821FF302821FF302821FF302821FF302821FF
310
302821FF302821FF302821FF302821FF302821FF302821FF302821FF302821FF302821FF302821FF302821FF302821FFFFFFFFFF302821FF302821FF302821FF302821FF302821FF302821FF302821FF302821FF302821FFFFFFFFFF302821FF302821FF302821FF302821FF302821FF302821FF302821FF302821FF302821
310
FF302821FF302821FF302821FF302821FF302821FF302821FF302821FF302821FF302821FF302821FF302821FFFFFFFFFF302821FF302821FF302821FF302821FF302821FF302821FF302821FF302821FF302821FF302821FFFFFFFFFFFFFFFFFF302821FF302821FF302821FF302821FF302821FF302821FF302821FF3028
310
21FF302821FF302821FF302821FF302821FF302821FF302821FF302821FF302821FF302821FF302821FFFFFFFFFF302821FF302821FF302821FF302821FF302821FF302821FF302821FF302821FF302821FF302821FF302821FF302821FFFFFFFFFFFFFFFFFF302821FF302821FF302821FF302821FF302821FF302821FF30
310
2821FF302821FF302821FF302821FF302821FF302821FF302821FF302821FF302821FF302821FFFFFFFFFFFFFFFFFF302821FF302821FF302821FF302821FF302821FF302821FF302821FF302821FF302821FF302821FF302821FF302821FF302821FF302821FFFFFFFFFF302821FF302821FF302821FF302821FF302821FF
310
302821FF302821FF302821FF302821FF302821FF302821FF302821FF302821FF302821FFFFFFFFFFFFFFFFFF302821FF302821FF302821FF302821FF302821FF302821FF302821FF302821FF302821FF302821FF302821FF302821FF302821FF302821FF302821FF302821FFFFFFFFFFFFFFFFFF302821FF302821FF302821
310
FF302821FF302821FF302821FF302821FF302821FF302821FF302821FFFFFFFFFFFFFFFFFF302821FF302821FF302821FF302821FF302821FF302821FF302821FF302821FF302821FF302821FF302821FF302821FF302821FF302821FF302821FF302821FF302821FF302821FF302821FF302821FFFFFFFFFFFFFFFFFFFFFF
310
FFFF302821FF302821FF302821FFFFFFFFFFFFFFFFFFFFFFFFFFFFFFFFFF302821FF302821FF302821FF302821FF302821FF302821FF302821FF302821FF302821FF302821FF302821FF302821FF302821FF302821FF302821FF302821FF302821FF302821FF302821FF302821FF302821FF302821FF302821FF302821FF30
310
2821FFFFFFFFFFFFFFFFFFFFFFFFFFFFFFFFFF302821FF302821FF302821FF302821FF302821FF302821FF302821FF302821FF302821FF302821FF302821FF302821FF302821FF302821FF302821FF302821FF302821FF302821FF302821FF302821FF302821FF302821FF302821FF302821FF302821FF302821FF302821FF
310
302821FF302821FF302821FF302821FF302821FF302821FF302821FF302821FF302821FF302821FF302821FF302821FF302821FF302821FF302821FF302821FF302821FF302821FF
102
{BLKREFS
331
153
102
}
 70
     1
280
     1
281
     0
  0
BLOCK_RECORD
  5
154
330
1
100
AcDbSymbolTableRecord
100
AcDbBlockTableRecord
  2
Shower_Arm-DXV-Oak_Hill-D35700316_Series - Top View
340
0
310
2800000020000000200000000100200000000000001000000100000001000000000000000000000001000000302821FF302821FF302821FF302821FF302821FF302821FF302821FF302821FF302821FF302821FF302821FF302821FF302821FF302821FF302821FF302821FF302821FF302821FF302821FF302821FF302821
310
FF302821FF302821FF302821FF302821FF302821FF302821FF302821FF302821FF302821FF302821FF302821FF302821FF302821FF302821FF302821FF302821FF302821FF302821FF302821FF302821FF302821FF302821FF302821FF302821FF302821FF302821FFFFFFFFFFFFFFFFFF302821FF302821FF302821FF3028
310
21FF302821FF302821FF302821FF302821FF302821FF302821FF302821FF302821FF302821FF302821FF302821FF302821FF302821FF302821FF302821FF302821FF302821FF302821FF302821FF302821FF302821FF302821FF302821FF302821FF302821FF302821FFFFFFFFFFFFFFFFFF302821FF302821FF302821FF30
310
2821FF302821FF302821FF302821FF302821FF302821FF302821FF302821FF302821FF302821FF302821FF302821FF302821FF302821FF302821FF302821FF302821FF302821FF302821FF302821FF302821FF302821FF302821FF302821FF302821FF302821FF302821FFFFFFFFFFFFFFFFFF302821FF302821FF302821FF
310
302821FF302821FF302821FF302821FF302821FF302821FF302821FF302821FF302821FF302821FF302821FF302821FF302821FF302821FF302821FF302821FF302821FF302821FF302821FF302821FF302821FF302821FF302821FF302821FF302821FF302821FF302821FFFFFFFFFFFFFFFFFF302821FF302821FF302821
310
FF302821FF302821FF302821FF302821FF302821FF302821FF302821FF302821FF302821FF302821FF302821FF302821FF302821FF302821FF302821FF302821FF302821FF302821FF302821FF302821FF302821FF302821FF302821FF302821FF302821FF302821FF302821FFFFFFFFFFFFFFFFFF302821FF302821FF3028
310
21FF302821FF302821FF302821FF302821FF302821FF302821FF302821FF302821FF302821FF302821FF302821FF302821FF302821FF302821FF302821FF302821FF302821FF302821FF302821FF302821FF302821FF302821FF302821FF302821FF302821FF302821FF302821FFFFFFFFFFFFFFFFFF302821FF302821FF30
310
2821FF302821FF302821FF302821FF302821FF302821FF302821FF302821FF302821FF302821FF302821FF302821FF302821FF302821FF302821FF302821FF302821FF302821FF302821FF302821FF302821FF302821FF302821FF302821FF302821FF302821FF302821FF302821FFFFFFFFFFFFFFFFFF302821FF302821FF
310
302821FF302821FF302821FF302821FF302821FF302821FF302821FF302821FF302821FF302821FF302821FF302821FF302821FF302821FF302821FF302821FF302821FF302821FF302821FF302821FF302821FF302821FF302821FF302821FF302821FF302821FF302821FF302821FFFFFFFFFFFFFFFFFF302821FF302821
310
FF302821FF302821FF302821FF302821FF302821FF302821FF302821FF302821FF302821FF302821FF302821FF302821FF302821FF302821FF302821FF302821FF302821FF302821FF302821FF302821FF302821FF302821FF302821FF302821FF302821FF302821FF302821FF302821FFFFFFFFFFFFFFFFFF302821FF3028
310
21FF302821FF302821FF302821FF302821FF302821FF302821FF302821FF302821FF302821FF302821FF302821FF302821FF302821FF302821FF302821FF302821FF302821FF302821FF302821FF302821FF302821FF302821FF302821FF302821FF302821FF302821FF302821FF302821FFFFFFFFFFFFFFFFFF302821FF30
310
2821FF302821FF302821FF302821FF302821FF302821FF302821FF302821FF302821FF302821FF302821FF302821FF302821FF302821FF302821FF302821FF302821FF302821FF302821FF302821FF302821FF302821FF302821FF302821FF302821FF302821FF302821FF302821FF302821FFFFFFFFFFFFFFFFFF302821FF
310
302821FF302821FF302821FF302821FF302821FF302821FF302821FF302821FF302821FF302821FF302821FF302821FF302821FF302821FF302821FF302821FF302821FF302821FF302821FF302821FF302821FF302821FF302821FF302821FF302821FF302821FF302821FF302821FF302821FFFFFFFFFFFFFFFFFF302821
310
FF302821FF302821FF302821FF302821FF302821FF302821FF302821FF302821FF302821FF302821FF302821FF302821FF302821FF302821FF302821FF302821FF302821FF302821FF302821FF302821FF302821FF302821FF302821FF302821FF302821FF302821FF302821FF302821FF302821FFFFFFFFFFFFFFFFFF3028
310
21FF302821FF302821FF302821FF302821FF302821FF302821FF302821FF302821FF302821FF302821FF302821FF302821FF302821FF302821FF302821FF302821FF302821FF302821FF302821FF302821FF302821FF302821FF302821FF302821FF302821FF302821FF302821FF302821FF302821FFFFFFFFFFFFFFFFFF30
310
2821FF302821FF302821FF302821FF302821FF302821FF302821FF302821FF302821FF302821FF302821FF302821FF302821FF302821FF302821FF302821FF302821FF302821FF302821FF302821FF302821FF302821FF302821FF302821FF302821FF302821FF302821FF302821FF302821FF302821FFFFFFFFFFFFFFFFFF
310
302821FF302821FF302821FF302821FF302821FF302821FF302821FF302821FF302821FF302821FF302821FF302821FF302821FF302821FF302821FF302821FF302821FF302821FF302821FF302821FF302821FF302821FF302821FF302821FF302821FF302821FF302821FF302821FF302821FF302821FFFFFFFFFFFFFFFF
310
FF302821FF302821FF302821FF302821FF302821FF302821FF302821FF302821FF302821FF302821FF302821FF302821FF302821FF302821FF302821FF302821FF302821FF302821FF302821FF302821FF302821FF302821FF302821FF302821FF302821FF302821FF302821FF302821FF302821FF302821FFFFFFFFFFFFFF
310
FFFF302821FF302821FF302821FF302821FF302821FF302821FF302821FF302821FF302821FF302821FF302821FF302821FF302821FF302821FF302821FF302821FF302821FF302821FF302821FF302821FF302821FF302821FF302821FF302821FF302821FF302821FF302821FF302821FF302821FF302821FFFFFFFFFFFF
310
FFFFFF302821FF302821FF302821FF302821FF302821FF302821FF302821FF302821FF302821FF302821FF302821FF302821FF302821FF302821FF302821FF302821FF302821FF302821FF302821FF302821FF302821FF302821FF302821FF302821FF302821FF302821FF302821FF302821FF302821FF302821FFFFFFFFFF
310
FFFFFFFF302821FF302821FF302821FF302821FF302821FF302821FF302821FF302821FF302821FF302821FF302821FF302821FF302821FF302821FF302821FF302821FF302821FF302821FF302821FF302821FF302821FF302821FF302821FF302821FF302821FF302821FF302821FF302821FF302821FF302821FFFFFFFF
310
FFFFFFFFFF302821FF302821FF302821FF302821FF302821FF302821FF302821FF302821FF302821FF302821FF302821FF302821FF302821FF302821FF302821FF302821FF302821FF302821FF302821FF302821FF302821FF302821FF302821FF302821FF302821FF302821FF302821FF302821FF302821FF302821FFFFFF
310
FFFFFFFFFFFF302821FF302821FF302821FF302821FF302821FF302821FF302821FF302821FF302821FF302821FF302821FF302821FF302821FF302821FF302821FF302821FF302821FF302821FF302821FF302821FF302821FF302821FF302821FF302821FF302821FF302821FF302821FF302821FF302821FF302821FFFF
310
FFFFFFFFFFFFFF302821FF302821FF302821FF302821FF302821FF302821FF302821FF302821FF302821FF302821FF302821FF302821FF302821FF302821FF302821FF302821FF302821FF302821FF302821FF302821FF302821FF302821FF302821FF302821FF302821FF302821FF302821FF302821FF302821FF302821FF
310
FFFFFFFFFFFFFFFF302821FF302821FF302821FF302821FF302821FF302821FF302821FF302821FF302821FF302821FF302821FF302821FF302821FF302821FF302821FF302821FF302821FF302821FF302821FF302821FF302821FF302821FF302821FF302821FF302821FF302821FF302821FF302821FF302821FF302821
310
FFFFFFFFFFFFFFFFFF302821FF302821FF302821FF302821FF302821FF302821FF302821FF302821FF302821FF302821FF302821FF302821FF302821FF302821FF302821FF302821FF302821FF302821FF302821FF302821FF302821FF302821FF302821FF302821FF302821FF302821FF302821FF302821FF302821FF3028
310
21FFFFFFFFFFFFFFFFFF302821FF302821FF302821FF302821FF302821FF302821FF302821FF302821FF302821FF302821FF302821FF302821FF302821FF302821FF302821FF302821FF302821FF302821FF302821FF302821FF302821FF302821FF302821FF302821FF302821FF302821FF302821FF302821FF302821FF30
310
2821FFFFFFFFFFFFFFFFFF302821FF302821FF302821FF302821FF302821FF302821FF302821FF302821FF302821FF302821FF302821FF302821FF302821FF302821FF302821FF302821FF302821FF302821FF302821FF302821FF302821FF302821FF302821FF302821FF302821FF302821FF302821FF302821FF302821FF
310
302821FFFFFFFFFFFFFFFFFF302821FF302821FF302821FF302821FF302821FF302821FF302821FF302821FF302821FF302821FF302821FF302821FF302821FF302821FF302821FF302821FF302821FF302821FF302821FF302821FF302821FF302821FF302821FF302821FF302821FF302821FF302821FF302821FF302821
310
FF302821FFFFFFFFFFFFFFFFFF302821FF302821FF302821FF302821FF302821FF302821FF302821FF302821FF302821FF302821FF302821FF302821FF302821FF302821FF302821FF302821FF302821FF302821FF302821FF302821FF302821FF302821FF302821FF302821FF302821FF302821FF302821FF302821FF3028
310
21FFFFFFFFFFFFFFFFFFFFFFFFFFFFFFFFFF302821FF302821FF302821FF302821FF302821FF302821FF302821FF302821FF302821FF302821FF302821FF302821FF302821FF302821FF302821FF302821FF302821FF302821FF302821FF302821FF302821FF302821FF302821FF302821FF302821FF302821FF302821FF30
310
2821FF302821FFFFFFFFFFFFFFFFFF302821FF302821FF302821FF302821FF302821FF302821FF302821FF302821FF302821FF302821FF302821FF302821FF302821FF302821FF302821FF302821FF302821FF302821FF302821FF302821FF302821FF302821FF302821FF302821FF302821FF302821FF302821FF302821FF
310
302821FF302821FF302821FF302821FF302821FF302821FF302821FF302821FF302821FF302821FF302821FF302821FF302821FF302821FF302821FF302821FF302821FF302821FF
102
{BLKREFS
331
165
102
}
 70
     1
280
     1
281
     0
  0
ENDTAB
  0
ENDSEC
  0
SECTION
  2
BLOCKS
  0
BLOCK
  5
71
330
70
100
AcDbEntity
  8
0
100
AcDbBlockBegin
  2
*Model_Space
 70
     0
 10
0.0
 20
0.0
 30
0.0
  3
*Model_Space
  1

  0
ENDBLK
  5
72
330
70
100
AcDbEntity
  8
0
100
AcDbBlockEnd
  0
BLOCK
  5
6D
330
6C
100
AcDbEntity
 67
     1
  8
0
100
AcDbBlockBegin
  2
*Paper_Space
 70
     0
 10
0.0
 20
0.0
 30
0.0
  3
*Paper_Space
  1

  0
ENDBLK
  5
6E
330
6C
100
AcDbEntity
 67
     1
  8
0
100
AcDbBlockEnd
  0
BLOCK
  5
75
330
74
100
AcDbEntity
 67
     1
  8
0
100
AcDbBlockBegin
  2
*Paper_Space0
 70
     0
 10
0.0
 20
0.0
 30
0.0
  3
*Paper_Space0
  1

  0
ENDBLK
  5
76
330
74
100
AcDbEntity
 67
     1
  8
0
100
AcDbBlockEnd
  0
BLOCK
  5
83
330
82
100
AcDbEntity
  8
0
100
AcDbBlockBegin
  2
FamilyGeomCombination_7445-Ref_ Level
 70
     0
 10
0.0
 20
0.0
 30
0.0
  3
FamilyGeomCombination_7445-Ref_ Level
  1

  0
LWPOLYLINE
  5
8B
330
82
100
AcDbEntity
  8
P-SANR-FIXT
100
AcDbPolyline
 90
       74
 70
   128
 43
0.0
 10
0.0000000000002505
 20
1.062499999999715
 10
-0.0424886675730498
 20
1.061650113326997
 10
-0.0849093623419996
 20
1.059101812946238
 10
-0.127194220244232
 20
1.054859175594444
 10
-0.1692755945273938
 20
1.048928988586304
 10
-0.211086163969512
 20
1.041320738956038
 10
-0.2525590405785909
 20
1.03204659827999
 10
-0.293627876599134
 20
1.021121403204908
 10
-0.3342269706543903
 20
1.008562631712308
 10
-0.3742913728545493
 20
0.9943903751575218
 10
-0.4137569887027106
 20
0.9786273061277695
 10
-0.452560681632395
 20
0.9612986421709093
 10
-0.4906403740125977
 20
0.9424321054527096
 10
-0.5279351464587445
 20
0.9220578784071944
 10
-0.5643853352907141
 20
0.9002085554514705
 10
-0.5999326279820027
 20
0.876919090841241
 10
-0.6345201564473206
 20
0.8522267427517602
 10
-0.6680925880194036
 20
0.8261710136725637
 10
-0.7005962139694729
 20
0.7987935872118967
 10
-0.7319790354297448
 20
0.7701382614119225
 10
-0.7621908465805282
 20
0.7402508786810599
 10
-0.7911833149688247
 20
0.7091792524560815
 10
-0.8189100588299426
 20
0.6769730907106819
 10
-0.8453267212884279
 20
0.6436839164333818
 10
-0.8703910413196011
 20
0.6093649852016653
 10
-0.8940629213581811
 20
0.5740711999845942
 10
-0.9163044914458394
 20
0.5378590233095152
 10
-0.9370801698150497
 20
0.5007863869342727
 10
-0.9563567198123307
 20
0.4629125991686819
 10
-0.9741033030697968
 20
0.4242982499938605
 10
-0.9902915288399739
 20
0.3850051141311467
 10
-1.004895499414931
 20
0.3450960522158723
 10
-1.017891851557099
 20
0.3046349102336236
 10
-1.029259793875454
 20
0.2636864173803346
 10
-1.038981140087321
 20
0.2223160825093017
 10
-1.047040338112537
 20
0.1805900893311758
 10
-1.053424494953465
 20
0.1385751905339418
 10
-1.058123397321041
 20
0.0963386009929934
 10
-1.061129527973856
 20
0.0539478902415951
 10
-1.062438077744138
 20
0.0114708743740764
 10
-1.062046953231398
 20
-0.0310244924454537
 10
-1.05995678015142
 20
-0.0734702266952922
 10
-1.056170902335255
 20
-0.1157984242552032
 10
-1.050695376379793
 20
-0.1579413690386673
 10
-1.043538961958517
 20
-0.1998316413240388
 10
-1.03471310780788
 20
-0.2414022256117576
 10
-1.024231933411773
 20
-0.2825866178348874
 10
-1.012112206413366
 20
-0.3233189317514302
 10
-0.9983733157904538
 20
-0.3635340043481818
 10
-0.9830372408372241
 20
-0.4031675000877754
 10
-0.966128516002081
 20
-0.4421560138316849
 10
-0.9476741916377594
 20
-0.4804371722750744
 10
-0.9277037907265283
 20
-0.5179497337306173
 10
-0.9062492616497227
 20
-0.5546336861022425
 10
-0.883344927077141
 20
-0.5904303428916435
 10
-0.859027429058104
 20
-0.6252824370841807
 10
-0.8333356704019841
 20
-0.6591342127638313
 10
-0.8063107524420157
 20
-0.6919315143108946
 10
-0.7779959092819265
 20
-0.723621873039228
 10
-0.7484364386305957
 20
-0.7541545911351192
 10
-0.7176796293353797
 20
-0.7834808227629466
 10
-0.6857746857300495
 20
-0.8115536522080047
 10
-0.6527726489183471
 20
-0.8383281689317525
 10
-0.6187263151191142
 20
-0.8637615394190019
 10
-0.5836901512035971
 20
-0.887813075702496
 10
-0.5477202075600802
 20
-0.9104443004548839
 10
-0.5108740284252109
 20
-0.9316190085443023
 10
-0.4732105598255085
 20
-0.9513033249548497
 10
-0.4347900552762862
 20
-0.9694657589793321
 10
-0.3956739793888885
 20
-0.986077254597802
 10
-0.3559249095404144
 20
-1.001111236960823
 10
-0.3156064357632715
 20
-1.014543654903732
 10
-0.2747830590146911
 20
-1.026353019423225
 10
-0.2499999999995847
 20
-1.032459698843687
1001
REVIT
1002
{
1070
     2
1000
-2001160
1002
}
  0
LWPOLYLINE
  5
8C
330
82
100
AcDbEntity
  8
P-SANR-FIXT
100
AcDbPolyline
 90
       74
 70
   128
 43
0.0
 10
0.2525590405790905
 20
-1.032046598280672
 10
0.2936278765996322
 20
-1.021121403205569
 10
0.3342269706548885
 20
-1.008562631712969
 10
0.3742913728550489
 20
-0.9943903751581826
 10
0.4137569887032088
 20
-0.9786273061284516
 10
0.4525606816328933
 20
-0.9612986421715914
 10
0.490640374013096
 20
-0.9424321054533704
 10
0.5279351464592427
 20
-0.9220578784078766
 10
0.5643853352912131
 20
-0.9002085554521313
 10
0.599932627982501
 20
-0.8769190908419018
 10
0.6345201564478202
 20
-0.8522267427524424
 10
0.6680925880199026
 20
-0.8261710136732459
 10
0.7005962139699719
 20
-0.7987935872125788
 10
0.7319790354302431
 20
-0.7701382614125833
 10
0.7621908465810278
 20
-0.7402508786817421
 10
0.7911833149693237
 20
-0.7091792524567637
 10
0.8189100588304414
 20
-0.676973090711364
 10
0.8453267212889276
 20
-0.6436839164340426
 10
0.8703910413201006
 20
-0.6093649852023474
 10
0.8940629213586806
 20
-0.574071199985255
 10
0.9163044914463384
 20
-0.5378590233101974
 10
0.9370801698155506
 20
-0.5007863869349549
 10
0.9563567198128309
 20
-0.4629125991693641
 10
0.9741033030702984
 20
-0.4242982499945213
 10
0.9902915288404734
 20
-0.3850051141318289
 10
1.004895499415432
 20
-0.3450960522165544
 10
1.017891851557598
 20
-0.3046349102343057
 10
1.029259793875954
 20
-0.2636864173809954
 10
1.038981140087821
 20
-0.2223160825099839
 10
1.047040338113038
 20
-0.1805900893318579
 10
1.053424494953966
 20
-0.1385751905346239
 10
1.058123397321542
 20
-0.0963386009936755
 10
1.061129527974357
 20
-0.0539478902422772
 10
1.06243807774464
 20
-0.0114708743747585
 10
1.062046953231899
 20
0.0310244924447716
 10
1.059956780151922
 20
0.0734702266946101
 10
1.056170902335755
 20
0.1157984242545424
 10
1.050695376380294
 20
0.1579413690379851
 10
1.04353896195902
 20
0.1998316413233567
 10
1.034713107808382
 20
0.2414022256110754
 10
1.024231933412274
 20
0.2825866178342266
 10
1.012112206413868
 20
0.3233189317507481
 10
0.9983733157909554
 20
0.3635340043474997
 10
0.983037240837725
 20
0.4031675000870933
 10
0.9661285160025839
 20
0.442156013831024
 10
0.9476741916382616
 20
0.4804371722743923
 10
0.9277037907270319
 20
0.5179497337299352
 10
0.9062492616502256
 20
0.5546336861015603
 10
0.8833449270776439
 20
0.5904303428909614
 10
0.8590274290586069
 20
0.6252824370834986
 10
0.833335670402487
 20
0.6591342127631492
 10
0.8063107524425186
 20
0.6919315143102124
 10
0.7779959092824308
 20
0.7236218730385459
 10
0.7484364386310993
 20
0.7541545911344584
 10
0.7176796293358833
 20
0.7834808227622858
 10
0.6857746857305531
 20
0.8115536522073439
 10
0.6527726489188507
 20
0.8383281689310704
 10
0.6187263151196185
 20
0.8637615394183411
 10
0.5836901512041015
 20
0.8878130757018352
 10
0.5477202075605838
 20
0.9104443004542018
 10
0.5108740284257144
 20
0.9316190085436202
 10
0.4732105598260121
 20
0.9513033249541676
 10
0.4347900552767898
 20
0.9694657589786713
 10
0.3956739793893921
 20
0.9860772545971199
 10
0.355924909540918
 20
1.001111236960163
 10
0.3156064357637764
 20
1.014543654903071
 10
0.2747830590151947
 20
1.026353019422564
 10
0.2335200879894494
 20
1.036520438054622
 10
0.1918835346378831
 20
1.045029645098352
 10
0.1499400085638673
 20
1.05186702763769
 10
0.1077566104616458
 20
1.057021647319139
 10
0.0654008247695375
 20
1.060485257850792
 10
0.0229404117092291
 20
1.062252318194687
 10
0.0000000000002571
 20
1.062499999999715
1001
REVIT
1002
{
1070
     2
1000
-2001160
1002
}
  0
LWPOLYLINE
  5
8D
330
82
100
AcDbEntity
  8
P-SANR-FIXT
100
AcDbPolyline
 90
       41
 70
   128
 43
0.0
 10
0.2500000000004161
 20
-0.9075866430572785
 10
0.2500000000004161
 20
-0.8712928574847465
 10
0.2500000000004161
 20
-0.8350571342268507
 10
0.2500000000004161
 20
-0.798937442710951
 10
0.2500000000004161
 20
-0.7629915667383642
 10
0.2500000000004161
 20
-0.7272770120425562
 10
0.2500000000004161
 20
-0.6918509142923738
 10
0.2500000000004161
 20
-0.65676994768706
 10
0.2500000000004161
 20
-0.6220902342896224
 10
0.2500000000004161
 20
-0.5878672542435694
 10
0.2500000000004147
 20
-0.5541557570164314
 10
0.2500000000004147
 20
-0.521009673812415
 10
0.2500000000004147
 20
-0.4884820312938344
 10
0.2500000000004147
 20
-0.4566248667498342
 10
0.2500000000004147
 20
-0.4254891448479085
 10
0.2500000000004147
 20
-0.3951246761011049
 10
0.2500000000004147
 20
-0.3655800371820703
 10
0.2500000000004147
 20
-0.3369024932105162
 10
0.2500000000004134
 20
-0.30913792213925
 10
0.2500000000004134
 20
-0.2823307413592317
 10
0.2500000000004134
 20
-0.2565238366410866
 10
0.2500000000004134
 20
-0.2317584935272236
 10
0.2500000000004121
 20
-0.2080743312836332
 10
0.2500000000004121
 20
-0.1855092395175432
 10
0.2500000000004121
 20
-0.1640993175621403
 10
0.2500000000004121
 20
-0.1438788167253903
 10
0.2500000000004121
 20
-0.1248800854950858
 10
0.2500000000004107
 20
-0.1071335177884123
 10
0.2500000000004107
 20
-0.0906675043279321
 10
0.2500000000004107
 20
-0.0755083872226408
 10
0.2500000000004094
 20
-0.0616804178261035
 10
0.2500000000004094
 20
-0.0492057179395857
 10
0.2500000000004094
 20
-0.0381042444217599
 10
0.2500000000004094
 20
-0.0283937572620516
 10
0.2500000000004081
 20
-0.0200897911684663
 10
0.2500000000004081
 20
-0.0132056307153619
 10
0.2500000000004081
 20
-0.007752289090881
 10
0.2500000000004081
 20
-0.0037384904783195
 10
0.2500000000004081
 20
-0.0011706560992266
 10
0.2500000000004067
 20
-0.0000528939408326
 10
0.2500000000004067
 20
0.0
1001
REVIT
1002
{
1070
     2
1000
-2001160
1002
}
  0
LWPOLYLINE
  5
8E
330
82
100
AcDbEntity
  8
P-SANR-FIXT
100
AcDbPolyline
 90
       41
 70
   128
 43
0.0
 10
-0.2499999999995941
 20
0.0
 10
-0.2499999999995941
 20
-0.0007259725103737
 10
-0.2499999999995927
 20
-0.002902728640322
 10
-0.2499999999995927
 20
-0.0065267860443825
 10
-0.2499999999995927
 20
-0.0115923470038339
 10
-0.2499999999995927
 20
-0.0180913077017095
 10
-0.2499999999995914
 20
-0.0260132711872743
 10
-0.2499999999995914
 20
-0.035345564008864
 10
-0.2499999999995901
 20
-0.0460732564887607
 10
-0.2499999999995901
 20
-0.0581791866074468
 10
-0.2499999999995901
 20
-0.0716439874592112
 10
-0.2499999999995901
 20
-0.0864461182349814
 10
-0.2499999999995901
 20
-0.1025618986831844
 10
-0.2499999999995887
 20
-0.1199655469929155
 10
-0.2499999999995887
 20
-0.1386292210394728
 10
-0.2499999999995887
 20
-0.158523062925795
 10
-0.2499999999995874
 20
-0.1796152467485825
 10
-0.2499999999995874
 20
-0.201872029513197
 10
-0.2499999999995874
 20
-0.2252578051150777
 10
-0.2499999999995874
 20
-0.2497351613018992
 10
-0.2499999999995874
 20
-0.2752649395254067
 10
-0.2499999999995874
 20
-0.301806297586431
 10
-0.2499999999995861
 20
-0.3293167749739822
 10
-0.2499999999995861
 20
-0.3577523607928014
 10
-0.2499999999995861
 20
-0.3870675641715308
 10
-0.2499999999995861
 20
-0.4172154870382911
 10
-0.2499999999995861
 20
-0.4481478991477914
 10
-0.2499999999995861
 20
-0.4798153152391506
 10
-0.2499999999995861
 20
-0.5121670742020114
 10
-0.2499999999995861
 20
-0.5451514201233678
 10
-0.2499999999995861
 20
-0.5787155850860159
 10
-0.2499999999995847
 20
-0.6128058735860193
 10
-0.2499999999995847
 20
-0.6473677484339361
 10
-0.2499999999995847
 20
-0.6823459180028734
 10
-0.2499999999995847
 20
-0.7176844246831066
 10
-0.2499999999995847
 20
-0.7533267344024068
 10
-0.2499999999995847
 20
-0.7892158270685527
 10
-0.2499999999995847
 20
-0.8252942877891625
 10
-0.2499999999995847
 20
-0.861504398723447
 10
-0.2499999999995847
 20
-0.8977882314183103
 10
-0.2499999999995847
 20
-0.9075866430572785
1001
REVIT
1002
{
1070
     2
1000
-2001160
1002
}
  0
LINE
  5
8F
330
82
100
AcDbEntity
  8
P-SANR-FIXT
100
AcDbLine
 10
0.2500000000004161
 20
-1.312500000000639
 30
0.0
 11
0.2500000000004161
 21
-0.9075866430572785
 31
0.0
1001
REVIT
1002
{
1070
     2
1000
-2001160
1002
}
  0
LINE
  5
90
330
82
100
AcDbEntity
  8
P-SANR-FIXT
100
AcDbLine
 10
-0.2499999999995847
 20
-0.9075866430572785
 30
0.0
 11
-0.2499999999995847
 21
-1.312500000000617
 31
0.0
1001
REVIT
1002
{
1070
     2
1000
-2001160
1002
}
  0
LINE
  5
91
330
82
100
AcDbEntity
  8
P-SANR-FIXT
100
AcDbLine
 10
0.000000000000419
 20
-1.312500000000627
 30
0.0
 11
-0.2499999999995845
 21
-1.312500000000628
 31
0.0
1001
REVIT
1002
{
1070
     2
1000
-2001160
1002
}
  0
LINE
  5
92
330
82
100
AcDbEntity
  8
P-SANR-FIXT
100
AcDbLine
 10
0.2500000000004155
 20
-1.31250000000063
 30
0.0
 11
0.0000000000004189
 21
-1.312500000000629
 31
0.0
1001
REVIT
1002
{
1070
     2
1000
-2001160
1002
}
  0
ENDBLK
  5
84
330
82
100
AcDbEntity
  8
0
100
AcDbBlockEnd
  0
BLOCK
  5
A4
330
A3
100
AcDbEntity
  8
0
100
AcDbBlockBegin
  2
FamilyGeomCombination_7445-Left
 70
     0
 10
0.0
 20
0.0
 30
0.0
  3
FamilyGeomCombination_7445-Left
  1

  0
LWPOLYLINE
  5
A5
330
A3
100
AcDbEntity
  8
P-SANR-FIXT
100
AcDbPolyline
 90
       80
 70
   128
 43
0.0
 10
-1.031249999999701
 20
-0.0000000000000666
 10
-1.030425109993842
 20
-0.0000000000000666
 10
-1.027951759624293
 20
-0.0000000000000666
 10
-1.023833905724018
 20
-0.0000000000000639
 10
-1.018078135980829
 20
-0.0000000000000639
 10
-1.010693658398494
 20
-0.0000000000000639
 10
-1.001692286565862
 20
-0.0000000000000639
 10
-0.9910884207576982
 20
-0.0000000000000639
 10
-0.9788990248972167
 20
-0.0000000000000639
 10
-0.9651435994175797
 20
-0.0000000000000639
 10
-0.9498441500651749
 20
-0.0000000000000639
 10
-0.9330251526953075
 20
-0.0000000000000639
 10
-0.9147135141158313
 20
-0.0000000000000639
 10
-0.8949385290422851
 20
-0.0000000000000639
 10
-0.8737318332322983
 20
-0.0000000000000639
 10
-0.8511273528753021
 20
-0.0000000000000639
 10
-0.8271612503178642
 20
-0.0000000000000639
 10
-0.8018718662115984
 20
-0.0000000000000639
 10
-0.7752996581762445
 20
-0.0000000000000639
 10
-0.747487136076252
 20
-0.0000000000000639
 10
-0.7184787940139756
 20
-0.0000000000000639
 10
-0.6883210391485334
 20
-0.0000000000000639
 10
-0.6570621174544797
 20
-0.0000000000000639
 10
-0.6247520365382541
 20
-0.0000000000000639
 10
-0.5914424856368967
 20
-0.0000000000000639
 10
-0.5571867529261993
 20
-0.0000000000000639
 10
-0.5220396402709894
 20
-0.0000000000000639
 10
-0.486057375553841
 20
-0.0000000000000639
 10
-0.4492975227225386
 20
-0.0000000000000639
 10
-0.4118188896999015
 20
-0.0000000000000639
 10
-0.3736814343037551
 20
-0.0000000000000666
 10
-0.334946168327157
 20
-0.0000000000000666
 10
-0.295675059932634
 20
-0.0000000000000666
 10
-0.2559309345161864
 20
-0.0000000000000666
 10
-0.2157773742002078
 20
-0.0000000000000666
 10
-0.1752786161155342
 20
-0.0000000000000666
 10
-0.1344994496358822
 20
-0.0000000000000666
 10
-0.0935051127284936
 20
-0.0000000000000719
 10
-0.0523611875874224
 20
-0.0000000000000719
 10
-0.0111334957160096
 20
-0.0000000000000719
 10
0.0301120073735461
 20
-0.0000000000000719
 10
0.0713093376748475
 20
-0.0000000000000719
 10
0.112392588247701
 20
-0.0000000000000719
 10
0.1532960346551846
 20
-0.0000000000000746
 10
0.1939542401086385
 20
-0.0000000000000746
 10
0.2343021601525876
 20
-0.0000000000000746
 10
0.2742752467221123
 20
-0.0000000000000746
 10
0.3138095514058036
 20
-0.0000000000000746
 10
0.3528418277497209
 20
-0.0000000000000773
 10
0.3913096324381299
 20
-0.0000000000000773
 10
0.4291514251895947
 20
-0.0000000000000773
 10
0.4663066672081654
 20
-0.0000000000000773
 10
0.5027159180326705
 20
-0.0000000000000773
 10
0.5383209306286502
 20
-0.0000000000000799
 10
0.5730647445713117
 20
-0.0000000000000799
 10
0.6068917771699275
 20
-0.0000000000000799
 10
0.6397479123884295
 20
-0.0000000000000799
 10
0.6715805874193989
 20
-0.0000000000000799
 10
0.7023388767733678
 20
-0.0000000000000853
 10
0.7319735737488173
 20
-0.0000000000000853
 10
0.7604372691522698
 20
-0.0000000000000853
 10
0.7876844271430698
 20
-0.0000000000000853
 10
0.8136714580808186
 20
-0.0000000000000879
 10
0.8383567882596308
 20
-0.0000000000000879
 10
0.8617009264171285
 20
-0.0000000000000879
 10
0.8836665269121082
 20
-0.0000000000000879
 10
0.9042184494694749
 20
-0.0000000000000879
 10
0.9233238153973529
 20
-0.0000000000000906
 10
0.9409520601858217
 20
-0.0000000000000906
 10
0.9570749824037603
 20
-0.0000000000000906
 10
0.9716667888149286
 20
-0.0000000000000906
 10
0.9847041356418769
 20
-0.0000000000000906
 10
0.996166165910793
 20
-0.0000000000000906
 10
1.006034542818369
 20
-0.0000000000000933
 10
1.014293479066693
 20
-0.0000000000000933
 10
1.020929762119592
 20
-0.0000000000000933
 10
1.025932775339832
 20
-0.0000000000000933
 10
1.029294514973507
 20
-0.0000000000000933
 10
1.031009602954327
 20
-0.0000000000000933
 10
1.031250000000383
 20
-0.0000000000000933
1001
REVIT
1002
{
1070
     2
1000
-2001160
1002
}
  0
LWPOLYLINE
  5
A6
330
A3
100
AcDbEntity
  8
P-SANR-FIXT
100
AcDbPolyline
 90
       41
 70
   128
 43
0.0
 10
-1.031249999999701
 20
-0.0000000000000666
 10
-1.032499666693048
 20
0.0000249966667765
 10
-1.033747334186251
 20
0.0000999466779765
 10
-1.034991006477482
 20
0.0002247301295002
 10
-1.036228693956409
 20
0.0003991473944431
 10
-1.037458416587057
 20
0.0006229194423932
 10
-1.038678207075555
 20
0.0008956882858069
 10
-1.039886114017342
 20
0.0012170175527215
 10
-1.041080205018971
 20
0.0015863931848559
 10
-1.042258569789552
 20
0.0020032242599974
 10
-1.043419323196864
 20
0.0024668439373423
 10
-1.044560608283013
 20
0.0029765105243085
 10
-1.045680599235389
 20
0.00353140866308
 10
-1.046777504307335
 20
0.0041306506350063
 10
-1.047849568684725
 20
0.0047732777807648
 10
-1.048895077293309
 20
0.005458262034006
 10
-1.049912357542275
 20
0.0061845075660463
 10
-1.050899782000292
 20
0.0069508525389663
 10
-1.051855770998826
 20
0.0077560709642794
 10
-1.052778795159418
 20
0.0085988746642798
 10
-1.053667377840326
 20
0.0094779153328313
 10
-1.054520097498794
 20
0.0103917866923915
 10
-1.055335589965309
 20
0.0113390267437268
 10
-1.056112550625854
 20
0.0123181201048253
 10
-1.056849736509114
 20
0.0133275004351683
 10
-1.057545968274965
 20
0.0143655529415554
 10
-1.05820013210107
 20
0.0154306169614085
 10
-1.058811181464861
 20
0.0165209886195053
 10
-1.059378138817734
 20
0.0176349235537856
 10
-1.05990009714884
 20
0.0187706397059886
 10
-1.060376221436186
 20
0.0199263201725373
 10
-1.060805749982506
 20
0.0211001161112217
 10
-1.061187995633744
 20
0.0222901496989341
 10
-1.061522346878419
 20
0.0234945171357968
 10
-1.061808268825806
 20
0.024711291690827
 10
-1.062045304061854
 20
0.0259385267843006
 10
-1.062233073380688
 20
0.027174259101864
 10
-1.062371276391516
 20
0.0284165117354212
 10
-1.062459691998938
 20
0.0296632973457589
 10
-1.062498178756889
 20
0.0309126213418622
 10
-1.062499999999715
 20
0.0312499999999343
1001
REVIT
1002
{
1070
     2
1000
-2001160
1002
}
  0
LWPOLYLINE
  5
A7
330
A3
100
AcDbEntity
  8
P-SANR-FIXT
100
AcDbPolyline
 90
       41
 70
   128
 43
0.0
 10
1.062500000000376
 20
0.0312499999999023
 10
1.062475003333538
 20
0.030000333306571
 10
1.062400053322327
 20
0.0287526658133652
 10
1.062275269870809
 20
0.027508993522126
 10
1.062100852605858
 20
0.0262713060432098
 10
1.061877080557927
 20
0.0250415834125573
 10
1.06160431171451
 20
0.0238217929240561
 10
1.061282982447593
 20
0.0226138859822749
 10
1.060913606815453
 20
0.0214197949806509
 10
1.060496775740325
 20
0.0202414302100564
 10
1.060033156062956
 20
0.0190806768027603
 10
1.059523489476006
 20
0.01793939171659
 10
1.05896859133724
 20
0.0168194007642333
 10
1.058369349365292
 20
0.0157224956922892
 10
1.057726722219555
 20
0.0146504313148759
 10
1.057041737966301
 20
0.0136049227063078
 10
1.056315492434258
 20
0.0125876424573281
 10
1.055549147461348
 20
0.0116002179993267
 10
1.054743929036035
 20
0.0106442290007953
 10
1.053901125336032
 20
0.0097212048402007
 10
1.053022084667467
 20
0.0088326221592956
 10
1.052108213307931
 20
0.0079799025008169
 10
1.051160973256585
 20
0.00716441003431
 10
1.050181879895489
 20
0.0063874493737677
 10
1.049172499565152
 20
0.0056502634904971
 10
1.048134447058757
 20
0.0049540317246572
 10
1.047069383038909
 20
0.0042998678985491
 10
1.045979011380815
 20
0.0036888185347479
 10
1.044865076446526
 20
0.0031218611818877
 10
1.043729360294321
 20
0.002599902850787
 10
1.042573679827775
 20
0.002123778563428
 10
1.041399883889098
 20
0.0016942500171053
 10
1.040209850301373
 20
0.0013120043658672
 10
1.03900548286451
 20
0.0009776531212058
 10
1.037788708309477
 20
0.0006917311738022
 10
1.036561473216003
 20
0.0004546959377656
 10
1.035325740898443
 20
0.0002669266189121
 10
1.034083488264883
 20
0.0001287236081033
 10
1.032836702654556
 20
0.0000403080006652
 10
1.03158737865845
 20
0.0000018212427193
 10
1.031250000000383
 20
-0.0000000000000933
1001
REVIT
1002
{
1070
     2
1000
-2001160
1002
}
  0
LWPOLYLINE
  5
A8
330
A3
100
AcDbEntity
  8
P-SANR-FIXT
100
AcDbPolyline
 90
        9
 70
   128
 43
0.0
 10
1.031250000000383
 20
-0.0000000000000933
 10
1.030425109994503
 20
-0.0000000000000933
 10
1.027951759624954
 20
-0.0000000000000986
 10
1.023833905724678
 20
-0.0000000000000986
 10
1.018078135981489
 20
-0.0000000000000986
 10
1.010693658399155
 20
-0.0000000000000986
 10
1.001692286566544
 20
-0.0000000000000986
 10
0.991088420758359
 20
-0.0000000000000986
 10
0.9845041604953335
 20
-0.0000000000000986
1001
REVIT
1002
{
1070
     2
1000
-2001160
1002
}
  0
LWPOLYLINE
  5
A9
330
A3
100
AcDbEntity
  8
P-SANR-FIXT
100
AcDbPolyline
 90
        9
 70
   128
 43
0.0
 10
-0.9847041356411947
 20
-0.0000000000000719
 10
-0.9961661659101109
 20
-0.0000000000000719
 10
-1.006034542817708
 20
-0.0000000000000719
 10
-1.014293479066033
 20
-0.0000000000000666
 10
-1.02092976211891
 20
-0.0000000000000666
 10
-1.02593277533915
 20
-0.0000000000000666
 10
-1.029294514972825
 20
-0.0000000000000666
 10
-1.031009602953666
 20
-0.0000000000000666
 10
-1.031249999999701
 20
-0.0000000000000666
1001
REVIT
1002
{
1070
     2
1000
-2001160
1002
}
  0
LINE
  5
AA
330
A3
100
AcDbEntity
  8
P-SANR-FIXT
100
AcDbLine
 10
1.062500000000376
 20
0.0312499999999023
 30
0.0
 11
1.062500000000376
 21
0.3437499999998925
 31
0.0
1001
REVIT
1002
{
1070
     2
1000
-2001160
1002
}
  0
LINE
  5
AB
330
A3
100
AcDbEntity
  8
P-SANR-FIXT
100
AcDbLine
 10
-1.062499999999694
 20
0.3437499999999218
 30
0.0
 11
-1.062499999999694
 21
0.0312499999999343
 31
0.0
1001
REVIT
1002
{
1070
     2
1000
-2001160
1002
}
  0
LWPOLYLINE
  5
AC
330
A3
100
AcDbEntity
  8
P-SANR-FIXT
100
AcDbPolyline
 90
       80
 70
   128
 43
0.0
 10
1.031250000000383
 20
0.3749999999998934
 10
1.030425109994524
 20
0.3749999999998934
 10
1.027951759624954
 20
0.3749999999998934
 10
1.023833905724678
 20
0.374999999999896
 10
1.018078135981489
 20
0.374999999999896
 10
1.010693658399176
 20
0.374999999999896
 10
1.001692286566544
 20
0.374999999999896
 10
0.991088420758359
 20
0.374999999999896
 10
0.9788990248978988
 20
0.374999999999896
 10
0.9651435994182618
 20
0.3749999999999014
 10
0.949844150065857
 20
0.3749999999999014
 10
0.9330251526959683
 20
0.3749999999999014
 10
0.9147135141165135
 20
0.3749999999999014
 10
0.8949385290429459
 20
0.3749999999999014
 10
0.8737318332329591
 20
0.3749999999999014
 10
0.8511273528759842
 20
0.374999999999904
 10
0.8271612503185677
 20
0.374999999999904
 10
0.8018718662122592
 20
0.374999999999904
 10
0.7752996581769266
 20
0.374999999999904
 10
0.7474871360769341
 20
0.3749999999999067
 10
0.7184787940146364
 20
0.3749999999999067
 10
0.6883210391492156
 20
0.3749999999999067
 10
0.6570621174551618
 20
0.3749999999999067
 10
0.6247520365389362
 20
0.3749999999999067
 10
0.5914424856376001
 20
0.3749999999999094
 10
0.5571867529268814
 20
0.3749999999999094
 10
0.5220396402716502
 20
0.3749999999999094
 10
0.4860573755545232
 20
0.3749999999999094
 10
0.4492975227232207
 20
0.3749999999999094
 10
0.4118188897005623
 20
0.3749999999999147
 10
0.3736814343044372
 20
0.3749999999999147
 10
0.3349461683278391
 20
0.3749999999999147
 10
0.2956750599332949
 20
0.3749999999999147
 10
0.2559309345168472
 20
0.3749999999999147
 10
0.2157773742008686
 20
0.3749999999999173
 10
0.1752786161162163
 20
0.3749999999999173
 10
0.1344994496365643
 20
0.3749999999999173
 10
0.0935051127291544
 20
0.3749999999999173
 10
0.0523611875881045
 20
0.3749999999999173
 10
0.0111334957166705
 20
0.37499999999992
 10
-0.030112007372864
 20
0.37499999999992
 10
-0.0713093376741654
 20
0.37499999999992
 10
-0.1123925882470402
 20
0.37499999999992
 10
-0.1532960346545238
 20
0.37499999999992
 10
-0.1939542401079563
 20
0.37499999999992
 10
-0.2343021601519268
 20
0.37499999999992
 10
-0.2742752467214515
 20
0.3749999999999227
 10
-0.3138095514051428
 20
0.3749999999999227
 10
-0.3528418277490388
 20
0.3749999999999227
 10
-0.3913096324374691
 20
0.3749999999999227
 10
-0.4291514251889338
 20
0.3749999999999227
 10
-0.4663066672075046
 20
0.3749999999999227
 10
-0.5027159180319884
 20
0.3749999999999227
 10
-0.5383209306279681
 20
0.3749999999999227
 10
-0.5730647445706296
 20
0.3749999999999227
 10
-0.6068917771692667
 20
0.374999999999928
 10
-0.6397479123877687
 20
0.374999999999928
 10
-0.6715805874187381
 20
0.374999999999928
 10
-0.702338876772707
 20
0.374999999999928
 10
-0.7319735737481352
 20
0.374999999999928
 10
-0.760437269151609
 20
0.374999999999928
 10
-0.787684427142409
 20
0.374999999999928
 10
-0.8136714580801578
 20
0.374999999999928
 10
-0.83835678825897
 20
0.374999999999928
 10
-0.8617009264164677
 20
0.374999999999928
 10
-0.8836665269114261
 20
0.374999999999928
 10
-0.9042184494688141
 20
0.374999999999928
 10
-0.9233238153966707
 20
0.374999999999928
 10
-0.9409520601851609
 20
0.374999999999928
 10
-0.9570749824030782
 20
0.374999999999928
 10
-0.9716667888142678
 20
0.374999999999928
 10
-0.9847041356411947
 20
0.374999999999928
 10
-0.9961661659101109
 20
0.3749999999999227
 10
-1.006034542817708
 20
0.3749999999999227
 10
-1.014293479066033
 20
0.3749999999999227
 10
-1.02092976211891
 20
0.3749999999999227
 10
-1.02593277533915
 20
0.3749999999999227
 10
-1.029294514972825
 20
0.3749999999999227
 10
-1.031009602953666
 20
0.3749999999999227
 10
-1.031249999999701
 20
0.3749999999999227
1001
REVIT
1002
{
1070
     2
1000
-2001160
1002
}
  0
LWPOLYLINE
  5
AD
330
A3
100
AcDbEntity
  8
P-SANR-FIXT
100
AcDbPolyline
 90
       41
 70
   128
 43
0.0
 10
-1.062499999999715
 20
0.3437499999999218
 10
-1.062475003332856
 20
0.3449996666932531
 10
-1.062400053321667
 20
0.3462473341864615
 10
-1.062275269870148
 20
0.3474910064777008
 10
-1.062100852605197
 20
0.3487286939566169
 10
-1.061877080557245
 20
0.3499584165872695
 10
-1.061604311713828
 20
0.3511782070757707
 10
-1.061282982446932
 20
0.3523861140175492
 10
-1.060913606814771
 20
0.3535802050191758
 10
-1.060496775739643
 20
0.3547585697897677
 10
-1.060033156062295
 20
0.3559193231970665
 10
-1.059523489475345
 20
0.3570606082832368
 10
-1.058968591336558
 20
0.3581805992355935
 10
-1.058369349364632
 20
0.3592775043075402
 10
-1.057726722218873
 20
0.3603495686849482
 10
-1.05704173796564
 20
0.3613950772935163
 10
-1.056315492433597
 20
0.362412357542496
 10
-1.055549147460666
 20
0.3633997820005001
 10
-1.054743929035374
 20
0.3643557709990314
 10
-1.053901125335371
 20
0.3652787951596287
 10
-1.053022084666807
 20
0.3661673778405312
 10
-1.052108213307249
 20
0.3670200974990125
 10
-1.051160973255924
 20
0.3678355899655167
 10
-1.050181879894807
 20
0.3686125506260591
 10
-1.04917249956447
 20
0.3693497365093296
 10
-1.048134447058096
 20
0.3700459682751695
 10
-1.047069383038227
 20
0.3707001321012777
 10
-1.045979011380133
 20
0.3713111814650762
 10
-1.044865076445866
 20
0.371878138817939
 10
-1.04372936029366
 20
0.3724000971490424
 10
-1.042573679827093
 20
0.3728762214363987
 10
-1.041399883888416
 20
0.3733057499827188
 10
-1.040209850300712
 20
0.3736879956339622
 10
-1.039005482863849
 20
0.3740223468786183
 10
-1.037788708308816
 20
0.3743082688260273
 10
-1.036561473215342
 20
0.3745453040620638
 10
-1.035325740897782
 20
0.3747330733809119
 10
-1.034083488264222
 20
0.3748712763917234
 10
-1.032836702653895
 20
0.3749596919991589
 10
-1.031587378657768
 20
0.3749981787571101
 10
-1.031249999999701
 20
0.3749999999999227
1001
REVIT
1002
{
1070
     2
1000
-2001160
1002
}
  0
LWPOLYLINE
  5
AE
330
A3
100
AcDbEntity
  8
P-SANR-FIXT
100
AcDbPolyline
 90
       41
 70
   128
 43
0.0
 10
1.031250000000383
 20
0.3749999999998934
 10
1.03249966669373
 20
0.3749750033330476
 10
1.033747334186933
 20
0.3749000533218529
 10
1.034991006478165
 20
0.3747752698703292
 10
1.036228693957091
 20
0.3746008526053836
 10
1.037458416587739
 20
0.3743770805574335
 10
1.038678207076237
 20
0.3741043117140199
 10
1.039886114018024
 20
0.3737829824471079
 10
1.041080205019632
 20
0.3734136068149709
 10
1.042258569790234
 20
0.3729967757398293
 10
1.043419323197525
 20
0.3725331560624818
 10
1.044560608283695
 20
0.3720234894755156
 10
1.045680599236049
 20
0.3714685913367468
 10
1.046777504307996
 20
0.3708693493648205
 10
1.047849568685407
 20
0.370226722219062
 10
1.048895077293991
 20
0.3695417379658181
 10
1.049912357542957
 20
0.3688154924337778
 10
1.050899782000953
 20
0.3680491474608604
 10
1.051855770999487
 20
0.3672439290355473
 10
1.052778795160079
 20
0.366401125335547
 10
1.053667377841008
 20
0.3655220846669928
 10
1.054520097499476
 20
0.3646082133074353
 10
1.05533558996597
 20
0.3636609732561
 10
1.056112550626515
 20
0.3626818798949988
 10
1.056849736509796
 20
0.3616724995646585
 10
1.057545968275625
 20
0.3606344470582714
 10
1.058200132101752
 20
0.3595693830384156
 10
1.058811181465543
 20
0.3584790113803215
 10
1.059378138818395
 20
0.3573650764460412
 10
1.059900097149501
 20
0.3562293602938408
 10
1.060376221436868
 20
0.3550736798272895
 10
1.060805749983188
 20
0.3538998838886051
 10
1.061187995634426
 20
0.35270985030089
 10
1.061522346879079
 20
0.35150548286403
 10
1.061808268826488
 20
0.3502887083089998
 10
1.062045304062514
 20
0.3490614732155261
 10
1.06223307338137
 20
0.3478257408979601
 10
1.062371276392198
 20
0.3465834882644029
 10
1.06245969199962
 20
0.3453367026540652
 10
1.062498178757571
 20
0.3440873786579645
 10
1.062500000000397
 20
0.3437499999998925
1001
REVIT
1002
{
1070
     2
1000
-2001160
1002
}
  0
LWPOLYLINE
  5
AF
330
A3
100
AcDbEntity
  8
P-SANR-FIXT
100
AcDbPolyline
 90
        9
 70
   128
 43
0.0
 10
-1.031249999999701
 20
0.3749999999999227
 10
-1.030425109993842
 20
0.3749999999999227
 10
-1.027951759624293
 20
0.37499999999992
 10
-1.023833905724018
 20
0.37499999999992
 10
-1.018078135980829
 20
0.37499999999992
 10
-1.010693658398494
 20
0.37499999999992
 10
-1.001692286565862
 20
0.37499999999992
 10
-0.9910884207576982
 20
0.37499999999992
 10
-0.9845041604948219
 20
0.37499999999992
1001
REVIT
1002
{
1070
     2
1000
-2001160
1002
}
  0
LWPOLYLINE
  5
B0
330
A3
100
AcDbEntity
  8
P-SANR-FIXT
100
AcDbPolyline
 90
        9
 70
   128
 43
0.0
 10
0.9847041356418769
 20
0.3749999999998907
 10
0.9961661659108143
 20
0.3749999999998934
 10
1.00603454281839
 20
0.3749999999998934
 10
1.014293479066715
 20
0.3749999999998934
 10
1.020929762119592
 20
0.3749999999998934
 10
1.025932775339832
 20
0.3749999999998934
 10
1.029294514973507
 20
0.3749999999998934
 10
1.031009602954348
 20
0.3749999999998934
 10
1.031250000000383
 20
0.3749999999998934
1001
REVIT
1002
{
1070
     2
1000
-2001160
1002
}
  0
LINE
  5
B1
330
A3
100
AcDbEntity
  8
P-SANR-FIXT
100
AcDbLine
 10
-0.2499999999999857
 20
15.52991335694265
 30
0.0
 11
-0.2499999999999857
 21
0.37499999999992
 31
0.0
1001
REVIT
1002
{
1070
     2
1000
-2001160
1002
}
  0
LINE
  5
B2
330
A3
100
AcDbEntity
  8
P-SANR-FIXT
100
AcDbLine
 10
-0.2499999999999857
 20
-0.0000000000000666
 30
0.0
 11
-0.2499999999999857
 21
-0.1875000000000692
 31
0.0
1001
REVIT
1002
{
1070
     2
1000
-2001160
1002
}
  0
LINE
  5
B3
330
A3
100
AcDbEntity
  8
P-SANR-FIXT
100
AcDbLine
 10
0.2500000000000071
 20
-0.1875000000000692
 30
0.0
 11
0.2500000000000071
 21
-0.0000000000000746
 31
0.0
1001
REVIT
1002
{
1070
     2
1000
-2001160
1002
}
  0
LINE
  5
B4
330
A3
100
AcDbEntity
  8
P-SANR-FIXT
100
AcDbLine
 10
0.2500000000000071
 20
0.3749999999999173
 30
0.0
 11
0.2500000000000071
 21
15.52991335694265
 31
0.0
1001
REVIT
1002
{
1070
     2
1000
-2001160
1002
}
  0
LWPOLYLINE
  5
B5
330
A3
100
AcDbEntity
  8
P-SANR-FIXT
100
AcDbPolyline
 90
       41
 70
   128
 43
0.0
 10
0.9075866430572785
 20
16.68749999999994
 10
0.8612955239380964
 20
16.68657405415482
 10
0.8150784607345753
 20
16.68379769793527
 10
0.7690093908887192
 20
16.67917537291901
 10
0.7231620150847817
 20
16.67271447384001
 10
0.6776096793437957
 20
16.66442533675854
 10
0.6324252576855826
 20
16.65432122252568
 10
0.5876810355460406
 20
16.64241829556877
 10
0.5434485941355902
 20
16.62873559803179
 10
0.4997986959248024
 20
16.61329501931197
 10
0.4568011714392739
 20
16.59612126104146
 10
0.4145248075459164
 20
16.57724179756995
 10
0.3730372374084609
 20
16.55668683201158
 10
0.3324048322889083
 20
16.53448924792643
 10
0.2926925953676757
 20
16.5106845567138
 10
0.2539640577523698
 20
16.48531084080157
 10
0.2162811768414769
 20
16.45840869272242
 10
0.179704237205911
 20
16.43002115017447
 10
0.1442917541463941
 20
16.4001936271701
 10
0.1101003800815974
 20
16.36897384138325
 10
0.0771848139162117
 20
16.33641173781133
 10
0.0455977135345194
 20
16.30255940887382
 10
0.015389611558895
 20
16.2674710110756
 10
-0.0133911654915551
 20
16.23120267836799
 10
-0.040698574513101
 20
16.19381243234653
 10
-0.0664889294765914
 20
16.15536008942866
 10
-0.09072097131574
 20
16.11590716516034
 10
-0.1133559339328229
 20
16.07551677580422
 10
-0.1343576062162057
 20
16.0342535373671
 10
-0.1536923899703026
 20
15.99218346222814
 10
-0.1713293536656905
 20
15.94937385353308
 10
-0.18724028192279
 20
15.90589319752362
 10
-0.2013997206505635
 20
15.86181105397398
 10
-0.2137850177675204
 20
15.81719794491015
 10
-0.224376359440356
 20
15.77212524178969
 10
-0.2331568017817531
 20
15.72666505132258
 10
-0.2401122979570402
 20
15.68089010011592
 10
-0.2452317206560934
 20
15.63487361832685
 10
-0.2485068798946699
 20
15.58868922250988
 10
-0.2499325361166526
 20
15.54241079784619
 10
-0.2499999999999857
 20
15.52991335694265
1001
REVIT
1002
{
1070
     2
1000
-2001160
1002
}
  0
LWPOLYLINE
  5
B6
330
A3
100
AcDbEntity
  8
P-SANR-FIXT
100
AcDbPolyline
 90
       41
 70
   128
 43
0.0
 10
0.2500000000000071
 20
15.52991335694265
 10
0.2505259991756147
 20
15.55620980896853
 10
0.2521031552159627
 20
15.58246419228079
 10
0.2547289450078551
 20
15.60863450546675
 10
0.2583991678477417
 20
15.63467888160802
 10
0.2631079521620165
 20
15.66055565525861
 10
0.268847764900272
 20
15.68622342910077
 10
0.2756094235865447
 20
15.71164114017185
 10
0.2833821110093666
 20
15.73676812555628
 10
0.2921533925269415
 20
15.7615641874376
 10
0.3019092359599255
 20
15.78598965740633
 10
0.3126340340399664
 20
15.81000545992102
 10
0.3243106293779973
 20
15.83357317482074
 10
0.3369203419123394
 20
15.85665509878916
 10
0.3504429987928503
 20
15.87921430567181
 10
0.3648569666531997
 20
15.90121470555005
 10
0.3801391862196652
 20
15.92262110247726
 10
0.3962652092009406
 20
15.94339925078479
 10
0.4132092374002951
 20
15.9635159098678
 10
0.4309441639871351
 20
15.98293889736307
 10
0.4494416168622095
 20
16.00163714063397
 10
0.4686720040467733
 20
16.01958072648
 10
0.4886045610236209
 20
16.03674094899156
 10
0.5092073999536737
 20
16.0530903554733
 10
0.5304475606896374
 20
16.06860279036254
 10
0.5522910635053435
 20
16.08325343707258
 10
0.5747029634559766
 20
16.09701885769401
 10
0.5976474062826042
 20
16.10987703049029
 10
0.6210876857711795
 20
16.12180738512788
 10
0.6449863024749333
 20
16.13279083558436
 10
0.669305023705192
 20
16.14280981068202
 10
0.6940049446957203
 20
16.15184828219797
 10
0.7190465508419379
 20
16.15989179050588
 10
0.7443897809159736
 20
16.16692746770833
 10
0.769994091155965
 20
16.17294405822264
 10
0.7958185201274758
 20
16.17793193678747
 10
0.8218217542530934
 20
16.18188312386114
 10
0.8479621939052462
 20
16.18479129838721
 10
0.87419801995685
 20
16.18665180790682
 10
0.9004872606828866
 20
16.18746167600161
 10
0.9075866430572785
 20
16.18749999999994
1001
REVIT
1002
{
1070
     2
1000
-2001160
1002
}
  0
LINE
  5
B7
330
A3
100
AcDbEntity
  8
P-SANR-FIXT
100
AcDbLine
 10
1.312500000000639
 20
16.68749999999994
 30
0.0
 11
0.9075866430572785
 21
16.68749999999994
 31
0.0
1001
REVIT
1002
{
1070
     2
1000
-2001160
1002
}
  0
LINE
  5
B8
330
A3
100
AcDbEntity
  8
P-SANR-FIXT
100
AcDbLine
 10
0.9075866430572785
 20
16.18749999999994
 30
0.0
 11
1.312500000000639
 21
16.18749999999994
 31
0.0
1001
REVIT
1002
{
1070
     2
1000
-2001160
1002
}
  0
LINE
  5
B9
330
A3
100
AcDbEntity
  8
P-SANR-FIXT
100
AcDbLine
 10
0.25
 20
-0.1875000000000689
 30
0.0
 11
-0.25
 21
-0.1875000000000689
 31
0.0
1001
REVIT
1002
{
1070
     2
1000
-2001160
1002
}
  0
LINE
  5
BA
330
A3
100
AcDbEntity
  8
P-SANR-FIXT
100
AcDbLine
 10
1.312500000000627
 20
16.68749999999993
 30
0.0
 11
1.312500000000629
 21
16.18749999999993
 31
0.0
1001
REVIT
1002
{
1070
     2
1000
-2001160
1002
}
  0
ENDBLK
  5
BB
330
A3
100
AcDbEntity
  8
0
100
AcDbBlockEnd
  0
BLOCK
  5
C6
330
C5
100
AcDbEntity
  8
0
100
AcDbBlockBegin
  2
FamilyGeomCombination_7445-Back
 70
     0
 10
0.0
 20
0.0
 30
0.0
  3
FamilyGeomCombination_7445-Back
  1

  0
LWPOLYLINE
  5
C7
330
C5
100
AcDbEntity
  8
P-SANR-FIXT
100
AcDbPolyline
 90
       41
 70
   128
 43
0.0
 10
1.0624999999998
 20
0.0312499999999316
 10
1.062475003332963
 20
0.0300003333065977
 10
1.062400053321752
 20
0.0287526658133919
 10
1.062275269870234
 20
0.0275089935221526
 10
1.062100852605283
 20
0.0262713060432365
 10
1.06187708055733
 20
0.0250415834125839
 10
1.061604311713935
 20
0.0238217929240801
 10
1.061282982446996
 20
0.0226138859822989
 10
1.060913606814878
 20
0.0214197949806749
 10
1.060496775739728
 20
0.0202414302100831
 10
1.060033156062381
 20
0.0190806768027843
 10
1.059523489475431
 20
0.0179393917166166
 10
1.058968591336643
 20
0.0168194007642573
 10
1.058369349364738
 20
0.0157224956923132
 10
1.057726722218958
 20
0.0146504313149025
 10
1.057041737965725
 20
0.0136049227063371
 10
1.056315492433682
 20
0.0125876424573548
 10
1.055549147460751
 20
0.0116002179993506
 10
1.054743929035438
 20
0.010644229000822
 10
1.053901125335457
 20
0.0097212048402247
 10
1.053022084666892
 20
0.0088326221593196
 10
1.052108213307334
 20
0.0079799025008409
 10
1.05116097325601
 20
0.0071644100343367
 10
1.050181879894914
 20
0.0063874493737943
 10
1.049172499564555
 20
0.0056502634905238
 10
1.048134447058181
 20
0.0049540317246812
 10
1.047069383038312
 20
0.0042998678985784
 10
1.045979011380218
 20
0.0036888185347772
 10
1.044865076445951
 20
0.0031218611819144
 10
1.043729360293745
 20
0.0025999028508137
 10
1.042573679827199
 20
0.0021237785634547
 10
1.041399883888501
 20
0.0016942500171293
 10
1.040209850300797
 20
0.0013120043658912
 10
1.039005482863934
 20
0.0009776531212324
 10
1.037788708308901
 20
0.0006917311738235
 10
1.036561473215428
 20
0.0004546959377896
 10
1.035325740897867
 20
0.0002669266189388
 10
1.034083488264307
 20
0.0001287236081273
 10
1.03283670265398
 20
0.0000403080006919
 10
1.031587378657874
 20
0.0000018212427433
 10
1.031249999999786
 20
-0.0000000000000693
1001
REVIT
1002
{
1070
     2
1000
-2001160
1002
}
  0
LWPOLYLINE
  5
C8
330
C5
100
AcDbEntity
  8
P-SANR-FIXT
100
AcDbPolyline
 90
       41
 70
   128
 43
0.0
 10
-0.0000000000002345
 20
-0.0000000000000666
 10
0.0412390008797345
 20
-0.0000000000000666
 10
0.0824120281554599
 20
-0.0000000000000666
 10
0.123453213766453
 20
-0.0000000000000639
 10
0.1642969005706973
 20
-0.0000000000000639
 10
0.204877747382163
 20
-0.0000000000000639
 10
0.245130833502742
 20
-0.0000000000000639
 10
0.2849917625815052
 20
-0.0000000000000639
 10
0.3243967656351429
 20
-0.0000000000000639
 10
0.3632828030647061
 20
-0.0000000000000639
 10
0.4015876655055592
 20
-0.0000000000000639
 10
0.439250073349072
 20
-0.0000000000000639
 10
0.476209774776926
 20
-0.0000000000000639
 10
0.512407642151146
 20
-0.0000000000000639
 10
0.5477857666056991
 20
-0.0000000000000639
 10
0.5822875506883988
 20
-0.0000000000000639
 10
0.6158577989047557
 20
-0.0000000000000639
 10
0.6484428060188207
 20
-0.0000000000000639
 10
0.6799904429703786
 20
-0.0000000000000639
 10
0.7104502402700418
 20
-0.0000000000000639
 10
0.7397734687399122
 20
-0.0000000000000639
 10
0.76791321746974
 20
-0.0000000000000639
 10
0.7948244688643484
 20
-0.0000000000000639
 10
0.8204641706622906
 20
-0.0000000000000639
 10
0.8447913048102078
 20
-0.0000000000000639
 10
0.8677669530829346
 20
-0.0000000000000639
 10
0.8893543593445015
 20
-0.0000000000000639
 10
0.9095189883498873
 20
-0.0000000000000639
 10
0.9282285809943074
 20
-0.0000000000000639
 10
0.9454532059206782
 20
-0.0000000000000639
 10
0.9611653074034903
 20
-0.0000000000000666
 10
0.9753397494321374
 20
-0.0000000000000666
 10
0.9879538559230594
 20
-0.0000000000000666
 10
0.9989874469967501
 20
-0.0000000000000666
 10
1.008422871261224
 20
-0.0000000000000666
 10
1.016245034050399
 20
-0.0000000000000666
 10
1.02244142157248
 20
-0.0000000000000666
 10
1.027002120929253
 20
-0.0000000000000693
 10
1.029919835974631
 20
-0.0000000000000693
 10
1.031189898986937
 20
-0.0000000000000693
 10
1.031249999999786
 20
-0.0000000000000693
1001
REVIT
1002
{
1070
     2
1000
-2001160
1002
}
  0
LWPOLYLINE
  5
C9
330
C5
100
AcDbEntity
  8
P-SANR-FIXT
100
AcDbPolyline
 90
       35
 70
   128
 43
0.0
 10
1.031249999999786
 20
-0.0000000000000693
 10
1.030425109993927
 20
-0.0000000000000693
 10
1.027951759624379
 20
-0.0000000000000693
 10
1.023833905724103
 20
-0.0000000000000693
 10
1.018078135980914
 20
-0.0000000000000746
 10
1.010693658398579
 20
-0.0000000000000746
 10
1.001692286565947
 20
-0.0000000000000746
 10
0.9910884207577835
 20
-0.0000000000000746
 10
0.978899024897302
 20
-0.0000000000000746
 10
0.9651435994176649
 20
-0.0000000000000773
 10
0.9498441500652601
 20
-0.0000000000000773
 10
0.9330251526953714
 20
-0.0000000000000773
 10
0.9147135141159379
 20
-0.0000000000000773
 10
0.8949385290423704
 20
-0.0000000000000773
 10
0.8737318332323836
 20
-0.0000000000000799
 10
0.8511273528754086
 20
-0.0000000000000799
 10
0.8271612503179708
 20
-0.0000000000000799
 10
0.8018718662116837
 20
-0.0000000000000799
 10
0.7752996581763298
 20
-0.0000000000000826
 10
0.7474871360763373
 20
-0.0000000000000826
 10
0.7184787940140395
 20
-0.0000000000000826
 10
0.6883210391486187
 20
-0.0000000000000826
 10
0.6570621174545649
 20
-0.0000000000000826
 10
0.6247520365383394
 20
-0.0000000000000879
 10
0.5914424856370033
 20
-0.0000000000000879
 10
0.5571867529262846
 20
-0.0000000000000879
 10
0.5220396402710747
 20
-0.0000000000000879
 10
0.4860573755539476
 20
-0.0000000000000879
 10
0.4492975227226239
 20
-0.0000000000000906
 10
0.4118188896999868
 20
-0.0000000000000906
 10
0.3736814343038403
 20
-0.0000000000000906
 10
0.3349461683272636
 20
-0.0000000000000906
 10
0.2956750599327193
 20
-0.0000000000000906
 10
0.2559309345162716
 20
-0.0000000000000906
 10
0.2499999999997513
 20
-0.0000000000000906
1001
REVIT
1002
{
1070
     2
1000
-2001160
1002
}
  0
LWPOLYLINE
  5
CA
330
C5
100
AcDbEntity
  8
P-SANR-FIXT
100
AcDbPolyline
 90
       41
 70
   128
 43
0.0
 10
-1.031250000000276
 20
-0.0000000000000906
 10
-1.032499666693624
 20
0.0000249966667552
 10
-1.033747334186827
 20
0.0000999466779525
 10
-1.034991006478079
 20
0.0002247301294735
 10
-1.036228693956985
 20
0.0003991473944218
 10
-1.037458416587632
 20
0.0006229194423693
 10
-1.038678207076152
 20
0.0008956882857829
 10
-1.039886114017917
 20
0.0012170175526975
 10
-1.041080205019546
 20
0.0015863931848319
 10
-1.042258569790149
 20
0.0020032242599735
 10
-1.043419323197418
 20
0.0024668439373183
 10
-1.04456060828361
 20
0.0029765105242845
 10
-1.045680599235964
 20
0.003531408663056
 10
-1.046777504307911
 20
0.0041306506349823
 10
-1.047849568685321
 20
0.0047732777807381
 10
-1.048895077293884
 20
0.005458262033982
 10
-1.049912357542872
 20
0.006184507566025
 10
-1.050899782000868
 20
0.0069508525389423
 10
-1.051855770999402
 20
0.0077560709642555
 10
-1.052778795159994
 20
0.0085988746642558
 10
-1.053667377840902
 20
0.0094779153328099
 10
-1.054520097499391
 20
0.0103917866923675
 10
-1.055335589965885
 20
0.0113390267437028
 10
-1.05611255062643
 20
0.0123181201048013
 10
-1.05684973650969
 20
0.0133275004351443
 10
-1.05754596827554
 20
0.0143655529415288
 10
-1.058200132101646
 20
0.0154306169613845
 10
-1.058811181465436
 20
0.0165209886194786
 10
-1.05937813881831
 20
0.0176349235537616
 10
-1.059900097149416
 20
0.0187706397059646
 10
-1.060376221436761
 20
0.0199263201725133
 10
-1.060805749983081
 20
0.021100116111195
 10
-1.061187995634341
 20
0.0222901496989101
 10
-1.061522346878973
 20
0.0234945171357701
 10
-1.061808268826403
 20
0.0247112916908003
 10
-1.062045304062429
 20
0.0259385267842767
 10
-1.062233073381285
 20
0.0271742591018427
 10
-1.062371276392091
 20
0.0284165117353972
 10
-1.062459691999535
 20
0.0296632973457323
 10
-1.062498178757465
 20
0.0309126213418356
 10
-1.062500000000291
 20
0.0312499999999076
1001
REVIT
1002
{
1070
     2
1000
-2001160
1002
}
  0
LWPOLYLINE
  5
CB
330
C5
100
AcDbEntity
  8
P-SANR-FIXT
100
AcDbPolyline
 90
       35
 70
   128
 43
0.0
 10
-0.2500000000002415
 20
-0.0000000000000959
 10
-0.2849917625819955
 20
-0.0000000000000959
 10
-0.3243967656356332
 20
-0.0000000000000959
 10
-0.3632828030651964
 20
-0.0000000000000959
 10
-0.4015876655060495
 20
-0.0000000000000959
 10
-0.4392500733495836
 20
-0.0000000000000959
 10
-0.4762097747774163
 20
-0.0000000000000959
 10
-0.512407642151615
 20
-0.0000000000000959
 10
-0.5477857666061893
 20
-0.0000000000000959
 10
-0.5822875506888891
 20
-0.0000000000000959
 10
-0.615857798905246
 20
-0.0000000000000959
 10
-0.648442806019311
 20
-0.0000000000000959
 10
-0.6799904429708689
 20
-0.0000000000000959
 10
-0.7104502402705321
 20
-0.0000000000000959
 10
-0.7397734687404025
 20
-0.0000000000000959
 10
-0.7679132174702303
 20
-0.0000000000000959
 10
-0.7948244688648387
 20
-0.0000000000000959
 10
-0.8204641706627809
 20
-0.0000000000000959
 10
-0.8447913048106768
 20
-0.0000000000000959
 10
-0.8677669530834249
 20
-0.0000000000000959
 10
-0.8893543593449704
 20
-0.0000000000000959
 10
-0.9095189883503776
 20
-0.0000000000000959
 10
-0.9282285809947977
 20
-0.0000000000000959
 10
-0.9454532059211684
 20
-0.0000000000000959
 10
-0.9611653074039805
 20
-0.0000000000000959
 10
-0.9753397494326277
 20
-0.0000000000000933
 10
-0.9879538559235497
 20
-0.0000000000000933
 10
-0.9989874469972617
 20
-0.0000000000000933
 10
-1.008422871261714
 20
-0.0000000000000933
 10
-1.016245034050889
 20
-0.0000000000000933
 10
-1.02244142157297
 20
-0.0000000000000933
 10
-1.027002120929743
 20
-0.0000000000000933
 10
-1.029919835975121
 20
-0.0000000000000906
 10
-1.031189898987449
 20
-0.0000000000000906
 10
-1.031250000000276
 20
-0.0000000000000906
1001
REVIT
1002
{
1070
     2
1000
-2001160
1002
}
  0
LWPOLYLINE
  5
CC
330
C5
100
AcDbEntity
  8
P-SANR-FIXT
100
AcDbPolyline
 90
       41
 70
   128
 43
0.0
 10
-1.031250000000276
 20
-0.0000000000000906
 10
-1.030425109994417
 20
-0.0000000000000906
 10
-1.027951759624869
 20
-0.0000000000000906
 10
-1.023833905724593
 20
-0.0000000000000906
 10
-1.018078135981404
 20
-0.0000000000000906
 10
-1.010693658399069
 20
-0.0000000000000879
 10
-1.001692286566438
 20
-0.0000000000000879
 10
-0.9910884207582737
 20
-0.0000000000000879
 10
-0.9788990248977922
 20
-0.0000000000000879
 10
-0.9651435994181552
 20
-0.0000000000000879
 10
-0.9498441500657717
 20
-0.0000000000000826
 10
-0.9330251526958617
 20
-0.0000000000000826
 10
-0.9147135141164282
 20
-0.0000000000000826
 10
-0.8949385290428606
 20
-0.0000000000000826
 10
-0.8737318332328738
 20
-0.0000000000000826
 10
-0.8511273528758989
 20
-0.0000000000000799
 10
-0.8271612503184611
 20
-0.0000000000000799
 10
-0.801871866212174
 20
-0.0000000000000799
 10
-0.7752996581768201
 20
-0.0000000000000799
 10
-0.7474871360768275
 20
-0.0000000000000773
 10
-0.7184787940145511
 20
-0.0000000000000773
 10
-0.6883210391491303
 20
-0.0000000000000773
 10
-0.6570621174550552
 20
-0.0000000000000773
 10
-0.624752036538851
 20
-0.0000000000000773
 10
-0.5914424856374935
 20
-0.0000000000000746
 10
-0.5571867529267962
 20
-0.0000000000000746
 10
-0.5220396402715863
 20
-0.0000000000000746
 10
-0.4860573755544379
 20
-0.0000000000000746
 10
-0.4492975227231355
 20
-0.0000000000000746
 10
-0.4118188897004984
 20
-0.0000000000000693
 10
-0.3736814343043519
 20
-0.0000000000000693
 10
-0.3349461683277539
 20
-0.0000000000000693
 10
-0.2956750599332096
 20
-0.0000000000000693
 10
-0.2559309345167832
 20
-0.0000000000000693
 10
-0.2157773742007833
 20
-0.0000000000000693
 10
-0.175278616116131
 20
-0.0000000000000666
 10
-0.1344994496364791
 20
-0.0000000000000666
 10
-0.0935051127290905
 20
-0.0000000000000666
 10
-0.0523611875880192
 20
-0.0000000000000666
 10
-0.0111334957165852
 20
-0.0000000000000666
 10
-0.0000000000002558
 20
-0.0000000000000666
1001
REVIT
1002
{
1070
     2
1000
-2001160
1002
}
  0
LINE
  5
CD
330
C5
100
AcDbEntity
  8
P-SANR-FIXT
100
AcDbLine
 10
1.062499999999779
 20
0.0312499999999316
 30
0.0
 11
1.062499999999779
 21
0.3437499999999191
 31
0.0
1001
REVIT
1002
{
1070
     2
1000
-2001160
1002
}
  0
LINE
  5
CE
330
C5
100
AcDbEntity
  8
P-SANR-FIXT
100
AcDbLine
 10
-1.062500000000291
 20
0.3437499999998978
 30
0.0
 11
-1.062500000000291
 21
0.0312499999999076
 31
0.0
1001
REVIT
1002
{
1070
     2
1000
-2001160
1002
}
  0
LWPOLYLINE
  5
CF
330
C5
100
AcDbEntity
  8
P-SANR-FIXT
100
AcDbPolyline
 90
       41
 70
   128
 43
0.0
 10
1.031249999999807
 20
0.37499999999992
 10
1.032499666693133
 20
0.3749750033330743
 10
1.033747334186337
 20
0.3749000533218769
 10
1.034991006477589
 20
0.3747752698703532
 10
1.036228693956495
 20
0.3746008526054076
 10
1.037458416587142
 20
0.3743770805574575
 10
1.03867820707564
 20
0.3741043117140465
 10
1.039886114017427
 20
0.3737829824471292
 10
1.041080205019056
 20
0.3734136068149949
 10
1.042258569789637
 20
0.3729967757398533
 10
1.043419323196949
 20
0.3725331560625111
 10
1.04456060828312
 20
0.3720234894755423
 10
1.045680599235474
 20
0.3714685913367707
 10
1.046777504307421
 20
0.3708693493648471
 10
1.047849568684831
 20
0.3702267222190886
 10
1.048895077293394
 20
0.3695417379658474
 10
1.049912357542382
 20
0.3688154924338018
 10
1.050899782000378
 20
0.3680491474608871
 10
1.051855770998912
 20
0.367243929035574
 10
1.052778795159504
 20
0.366401125335571
 10
1.053667377840411
 20
0.3655220846670168
 10
1.054520097498901
 20
0.3646082133074592
 10
1.055335589965394
 20
0.363660973256124
 10
1.056112550625939
 20
0.3626818798950255
 10
1.056849736509199
 20
0.3616724995646825
 10
1.05754596827505
 20
0.360634447058298
 10
1.058200132101155
 20
0.3595693830384423
 10
1.058811181464946
 20
0.3584790113803482
 10
1.059378138817819
 20
0.3573650764460678
 10
1.059900097148925
 20
0.3562293602938675
 10
1.060376221436271
 20
0.3550736798273135
 10
1.060805749982591
 20
0.3538998838886318
 10
1.061187995633829
 20
0.3527098503009193
 10
1.061522346878483
 20
0.3515054828640566
 10
1.061808268825913
 20
0.3502887083090264
 10
1.062045304061939
 20
0.3490614732155528
 10
1.062233073380795
 20
0.3478257408979867
 10
1.062371276391601
 20
0.3465834882644296
 10
1.062459691999044
 20
0.3453367026540918
 10
1.062498178756996
 20
0.3440873786579912
 10
1.0624999999998
 20
0.3437499999999191
1001
REVIT
1002
{
1070
     2
1000
-2001160
1002
}
  0
LWPOLYLINE
  5
D0
330
C5
100
AcDbEntity
  8
P-SANR-FIXT
100
AcDbPolyline
 90
       35
 70
   128
 43
0.0
 10
0.2499999999997513
 20
0.374999999999896
 10
0.2849917625815265
 20
0.374999999999896
 10
0.3243967656351429
 20
0.3749999999999014
 10
0.3632828030647061
 20
0.3749999999999014
 10
0.4015876655055592
 20
0.3749999999999014
 10
0.439250073349072
 20
0.3749999999999014
 10
0.476209774776926
 20
0.3749999999999014
 10
0.512407642151146
 20
0.374999999999904
 10
0.5477857666056991
 20
0.374999999999904
 10
0.5822875506883988
 20
0.374999999999904
 10
0.6158577989047557
 20
0.374999999999904
 10
0.6484428060188207
 20
0.374999999999904
 10
0.6799904429703786
 20
0.3749999999999067
 10
0.7104502402700418
 20
0.3749999999999067
 10
0.7397734687399335
 20
0.3749999999999067
 10
0.76791321746974
 20
0.3749999999999067
 10
0.7948244688643484
 20
0.3749999999999067
 10
0.8204641706622906
 20
0.3749999999999094
 10
0.8447913048102078
 20
0.3749999999999094
 10
0.8677669530829346
 20
0.3749999999999094
 10
0.8893543593445015
 20
0.3749999999999094
 10
0.9095189883498873
 20
0.3749999999999094
 10
0.9282285809943074
 20
0.3749999999999147
 10
0.9454532059206782
 20
0.3749999999999147
 10
0.9611653074034903
 20
0.3749999999999147
 10
0.9753397494321374
 20
0.3749999999999147
 10
0.9879538559230594
 20
0.3749999999999147
 10
0.9989874469967501
 20
0.3749999999999173
 10
1.008422871261224
 20
0.3749999999999173
 10
1.016245034050399
 20
0.3749999999999173
 10
1.02244142157248
 20
0.3749999999999173
 10
1.027002120929253
 20
0.3749999999999173
 10
1.029919835974631
 20
0.37499999999992
 10
1.031189898986937
 20
0.37499999999992
 10
1.031249999999786
 20
0.37499999999992
1001
REVIT
1002
{
1070
     2
1000
-2001160
1002
}
  0
LWPOLYLINE
  5
D1
330
C5
100
AcDbEntity
  8
P-SANR-FIXT
100
AcDbPolyline
 90
       41
 70
   128
 43
0.0
 10
1.031249999999786
 20
0.37499999999992
 10
1.030425109993927
 20
0.37499999999992
 10
1.027951759624379
 20
0.37499999999992
 10
1.023833905724103
 20
0.37499999999992
 10
1.018078135980914
 20
0.37499999999992
 10
1.010693658398579
 20
0.3749999999999227
 10
1.001692286565947
 20
0.3749999999999227
 10
0.9910884207577835
 20
0.3749999999999227
 10
0.978899024897302
 20
0.3749999999999227
 10
0.9651435994176649
 20
0.3749999999999227
 10
0.9498441500652814
 20
0.3749999999999227
 10
0.9330251526953714
 20
0.3749999999999227
 10
0.9147135141159379
 20
0.3749999999999227
 10
0.8949385290423704
 20
0.374999999999928
 10
0.8737318332323836
 20
0.374999999999928
 10
0.8511273528754086
 20
0.374999999999928
 10
0.8271612503179708
 20
0.374999999999928
 10
0.8018718662116837
 20
0.374999999999928
 10
0.7752996581763298
 20
0.374999999999928
 10
0.7474871360763373
 20
0.374999999999928
 10
0.7184787940140395
 20
0.374999999999928
 10
0.6883210391486187
 20
0.374999999999928
 10
0.6570621174545649
 20
0.374999999999928
 10
0.6247520365383394
 20
0.374999999999928
 10
0.5914424856370033
 20
0.374999999999928
 10
0.5571867529262846
 20
0.374999999999928
 10
0.5220396402710747
 20
0.374999999999928
 10
0.4860573755539476
 20
0.374999999999928
 10
0.4492975227226239
 20
0.374999999999928
 10
0.4118188896999868
 20
0.374999999999928
 10
0.3736814343038403
 20
0.374999999999928
 10
0.3349461683272636
 20
0.374999999999928
 10
0.2956750599327193
 20
0.374999999999928
 10
0.2559309345162716
 20
0.374999999999928
 10
0.215777374200293
 20
0.374999999999928
 10
0.1752786161156194
 20
0.3749999999999227
 10
0.1344994496359675
 20
0.3749999999999227
 10
0.0935051127285789
 20
0.3749999999999227
 10
0.0523611875875076
 20
0.3749999999999227
 10
0.0111334957160949
 20
0.3749999999999227
 10
-0.0000000000002558
 20
0.3749999999999227
1001
REVIT
1002
{
1070
     2
1000
-2001160
1002
}
  0
LWPOLYLINE
  5
D2
330
C5
100
AcDbEntity
  8
P-SANR-FIXT
100
AcDbPolyline
 90
       41
 70
   128
 43
0.0
 10
-1.062500000000312
 20
0.3437499999998978
 10
-1.062475003333453
 20
0.3449996666932317
 10
-1.062400053322242
 20
0.3462473341864349
 10
-1.062275269870724
 20
0.3474910064776768
 10
-1.062100852605773
 20
0.348728693956593
 10
-1.061877080557841
 20
0.3499584165872429
 10
-1.061604311714425
 20
0.3511782070757467
 10
-1.061282982447508
 20
0.3523861140175279
 10
-1.060913606815368
 20
0.3535802050191518
 10
-1.06049677574024
 20
0.3547585697897437
 10
-1.060033156062892
 20
0.3559193231970425
 10
-1.059523489475921
 20
0.3570606082832101
 10
-1.058968591337155
 20
0.3581805992355695
 10
-1.058369349365228
 20
0.3592775043075135
 10
-1.05772672221947
 20
0.3603495686849242
 10
-1.057041737966237
 20
0.3613950772934924
 10
-1.056315492434194
 20
0.3624123575424746
 10
-1.055549147461263
 20
0.3633997820004761
 10
-1.05474392903595
 20
0.3643557709990075
 10
-1.053901125335947
 20
0.3652787951596021
 10
-1.053022084667403
 20
0.3661673778405072
 10
-1.052108213307846
 20
0.3670200974989858
 10
-1.0511609732565
 20
0.3678355899654901
 10
-1.050181879895404
 20
0.3686125506260324
 10
-1.049172499565066
 20
0.369349736509303
 10
-1.048134447058671
 20
0.3700459682751429
 10
-1.047069383038824
 20
0.3707001321012537
 10
-1.045979011380729
 20
0.3713111814650522
 10
-1.044865076446441
 20
0.3718781388179124
 10
-1.043729360294257
 20
0.3724000971490157
 10
-1.042573679827689
 20
0.3728762214363747
 10
-1.041399883889013
 20
0.3733057499826948
 10
-1.040209850301309
 20
0.3736879956339382
 10
-1.039005482864446
 20
0.3740223468785917
 10
-1.037788708309392
 20
0.3743082688260006
 10
-1.036561473215918
 20
0.3745453040620372
 10
-1.035325740898357
 20
0.374733073380888
 10
-1.034083488264819
 20
0.3748712763916994
 10
-1.03283670265447
 20
0.3749596919991349
 10
-1.031587378658364
 20
0.3749981787570835
 10
-1.031250000000298
 20
0.3749999999999014
1001
REVIT
1002
{
1070
     2
1000
-2001160
1002
}
  0
LWPOLYLINE
  5
D3
330
C5
100
AcDbEntity
  8
P-SANR-FIXT
100
AcDbPolyline
 90
       41
 70
   128
 43
0.0
 10
-0.0000000000002558
 20
0.3749999999999227
 10
-0.0412390008802248
 20
0.3749999999999227
 10
-0.0824120281559715
 20
0.3749999999999227
 10
-0.1234532137669646
 20
0.3749999999999227
 10
-0.1642969005712089
 20
0.37499999999992
 10
-0.2048777473826746
 20
0.37499999999992
 10
-0.2451308335032535
 20
0.37499999999992
 10
-0.2849917625820168
 20
0.37499999999992
 10
-0.3243967656356545
 20
0.37499999999992
 10
-0.3632828030651964
 20
0.37499999999992
 10
-0.4015876655060708
 20
0.3749999999999173
 10
-0.4392500733495836
 20
0.3749999999999173
 10
-0.4762097747774376
 20
0.3749999999999173
 10
-0.5124076421516363
 20
0.3749999999999173
 10
-0.5477857666061893
 20
0.3749999999999173
 10
-0.5822875506889104
 20
0.3749999999999147
 10
-0.6158577989052673
 20
0.3749999999999147
 10
-0.6484428060193323
 20
0.3749999999999147
 10
-0.6799904429708689
 20
0.3749999999999147
 10
-0.7104502402705534
 20
0.3749999999999147
 10
-0.7397734687404238
 20
0.3749999999999094
 10
-0.7679132174702516
 20
0.3749999999999094
 10
-0.79482446886486
 20
0.3749999999999094
 10
-0.8204641706628022
 20
0.3749999999999094
 10
-0.8447913048106981
 20
0.3749999999999094
 10
-0.8677669530834462
 20
0.3749999999999067
 10
-0.8893543593449917
 20
0.3749999999999067
 10
-0.9095189883503989
 20
0.3749999999999067
 10
-0.928228580994819
 20
0.3749999999999067
 10
-0.9454532059211897
 20
0.374999999999904
 10
-0.9611653074040019
 20
0.374999999999904
 10
-0.9753397494326277
 20
0.374999999999904
 10
-0.9879538559235497
 20
0.374999999999904
 10
-0.9989874469972617
 20
0.374999999999904
 10
-1.008422871261714
 20
0.3749999999999014
 10
-1.01624503405091
 20
0.3749999999999014
 10
-1.02244142157297
 20
0.3749999999999014
 10
-1.027002120929743
 20
0.3749999999999014
 10
-1.029919835975121
 20
0.3749999999999014
 10
-1.031189898987449
 20
0.3749999999999014
 10
-1.031250000000298
 20
0.3749999999999014
1001
REVIT
1002
{
1070
     2
1000
-2001160
1002
}
  0
LWPOLYLINE
  5
D4
330
C5
100
AcDbEntity
  8
P-SANR-FIXT
100
AcDbPolyline
 90
       35
 70
   128
 43
0.0
 10
-1.031250000000298
 20
0.3749999999999014
 10
-1.030425109994439
 20
0.374999999999896
 10
-1.027951759624869
 20
0.374999999999896
 10
-1.023833905724593
 20
0.374999999999896
 10
-1.018078135981404
 20
0.374999999999896
 10
-1.010693658399069
 20
0.374999999999896
 10
-1.001692286566438
 20
0.374999999999896
 10
-0.9910884207582737
 20
0.3749999999998934
 10
-0.9788990248978135
 20
0.3749999999998934
 10
-0.9651435994181552
 20
0.3749999999998934
 10
-0.9498441500657717
 20
0.3749999999998934
 10
-0.933025152695883
 20
0.3749999999998934
 10
-0.9147135141164282
 20
0.3749999999998934
 10
-0.8949385290428606
 20
0.3749999999998934
 10
-0.8737318332328738
 20
0.3749999999998934
 10
-0.8511273528758989
 20
0.3749999999998934
 10
-0.8271612503184611
 20
0.3749999999998934
 10
-0.801871866212174
 20
0.3749999999998934
 10
-0.7752996581768201
 20
0.3749999999998934
 10
-0.7474871360768275
 20
0.3749999999998907
 10
-0.7184787940145511
 20
0.3749999999998907
 10
-0.6883210391491303
 20
0.3749999999998907
 10
-0.6570621174550552
 20
0.3749999999998907
 10
-0.624752036538851
 20
0.3749999999998907
 10
-0.5914424856374935
 20
0.3749999999998907
 10
-0.5571867529267748
 20
0.3749999999998907
 10
-0.522039640271565
 20
0.3749999999998907
 10
-0.4860573755544379
 20
0.3749999999998907
 10
-0.4492975227231141
 20
0.3749999999998907
 10
-0.4118188897004984
 20
0.3749999999998934
 10
-0.3736814343043306
 20
0.3749999999998934
 10
-0.3349461683277539
 20
0.3749999999998934
 10
-0.2956750599332096
 20
0.3749999999998934
 10
-0.2559309345167619
 20
0.3749999999998934
 10
-0.2500000000002629
 20
0.3749999999998934
1001
REVIT
1002
{
1070
     2
1000
-2001160
1002
}
  0
LINE
  5
D5
330
C5
100
AcDbEntity
  8
P-SANR-FIXT
100
AcDbLine
 10
-0.2500000000003907
 20
15.52991335694264
 30
0.0
 11
-0.2500000000002629
 21
0.37499999999992
 31
0.0
1001
REVIT
1002
{
1070
     2
1000
-2001160
1002
}
  0
LINE
  5
D6
330
C5
100
AcDbEntity
  8
P-SANR-FIXT
100
AcDbLine
 10
-0.2500000000002415
 20
-0.0000000000000693
 30
0.0
 11
-0.2500000000002415
 21
-0.1875000000000692
 31
0.0
1001
REVIT
1002
{
1070
     2
1000
-2001160
1002
}
  0
LINE
  5
D7
330
C5
100
AcDbEntity
  8
P-SANR-FIXT
100
AcDbLine
 10
0.2499999999997513
 20
-0.1875000000000666
 30
0.0
 11
0.2499999999997513
 21
-0.0000000000000639
 31
0.0
1001
REVIT
1002
{
1070
     2
1000
-2001160
1002
}
  0
LINE
  5
D8
330
C5
100
AcDbEntity
  8
P-SANR-FIXT
100
AcDbLine
 10
0.2499999999997513
 20
0.374999999999928
 30
0.0
 11
0.249999999999602
 21
15.52991335694265
 31
0.0
1001
REVIT
1002
{
1070
     2
1000
-2001160
1002
}
  0
LWPOLYLINE
  5
D9
330
C5
100
AcDbEntity
  8
P-SANR-FIXT
100
AcDbPolyline
 90
       41
 70
   128
 43
0.0
 10
-0.2500000000004121
 20
16.43749999999994
 10
-0.2500000000004121
 20
16.43677402748957
 10
-0.2500000000004121
 20
16.43459727135962
 10
-0.2500000000004121
 20
16.43097321395554
 10
-0.2500000000004121
 20
16.4259076529961
 10
-0.2500000000004121
 20
16.41940869229823
 10
-0.2500000000004121
 20
16.41148672881267
 10
-0.2500000000004121
 20
16.40215443599107
 10
-0.2500000000004121
 20
16.39142674351117
 10
-0.2500000000004121
 20
16.37932081339248
 10
-0.2500000000004121
 20
16.36585601254074
 10
-0.2500000000004121
 20
16.35105388176495
 10
-0.2500000000004121
 20
16.33493810131676
 10
-0.2500000000004121
 20
16.31753445300702
 10
-0.2500000000004121
 20
16.29887077896044
 10
-0.2500000000004121
 20
16.27897693707415
 10
-0.2500000000004121
 20
16.25788475325134
 10
-0.2500000000004121
 20
16.23562797048673
 10
-0.2500000000004121
 20
16.21224219488487
 10
-0.2500000000004121
 20
16.18776483869802
 10
-0.2500000000004121
 20
16.16223506047453
 10
-0.2500000000004121
 20
16.13569370241349
 10
-0.2500000000004121
 20
16.10818322502595
 10
-0.2500000000004121
 20
16.07974763920713
 10
-0.2500000000004121
 20
16.05043243582841
 10
-0.2500000000004121
 20
16.02028451296163
 10
-0.2500000000004121
 20
15.98935210085214
 10
-0.2500000000004121
 20
15.95768468476078
 10
-0.2500000000004121
 20
15.92533292579791
 10
-0.2500000000004121
 20
15.89234857987657
 10
-0.2500000000004121
 20
15.85878441491391
 10
-0.2500000000004121
 20
15.82469412641392
 10
-0.2500000000004121
 20
15.79013225156598
 10
-0.2500000000004121
 20
15.75515408199705
 10
-0.2500000000004121
 20
15.71981557531683
 10
-0.2500000000004121
 20
15.68417326559752
 10
-0.2500000000004121
 20
15.64828417293138
 10
-0.2500000000004121
 20
15.61220571221076
 10
-0.2500000000003907
 20
15.57599560127648
 10
-0.2500000000003907
 20
15.53971176858161
 10
-0.2500000000003907
 20
15.52991335694265
1001
REVIT
1002
{
1070
     2
1000
-2001160
1002
}
  0
LWPOLYLINE
  5
DA
330
C5
100
AcDbEntity
  8
P-SANR-FIXT
100
AcDbPolyline
 90
       41
 70
   128
 43
0.0
 10
0.249999999999602
 20
15.52991335694265
 10
0.249999999999602
 20
15.56620714251519
 10
0.2499999999995807
 20
15.60244286577308
 10
0.2499999999995807
 20
15.63856255728898
 10
0.2499999999995807
 20
15.67450843326158
 10
0.2499999999995807
 20
15.71022298795738
 10
0.2499999999995807
 20
15.74564908570756
 10
0.2499999999995807
 20
15.78073005231288
 10
0.2499999999995807
 20
15.81540976571031
 10
0.2499999999995807
 20
15.84963274575637
 10
0.2499999999995807
 20
15.88334424298349
 10
0.2499999999995807
 20
15.91649032618752
 10
0.2499999999995807
 20
15.94901796870611
 10
0.2499999999995807
 20
15.98087513325009
 10
0.2499999999995807
 20
16.01201085515203
 10
0.2499999999995807
 20
16.04237532389882
 10
0.2499999999995807
 20
16.07191996281786
 10
0.2499999999995807
 20
16.10059750678941
 10
0.2499999999995807
 20
16.12836207786067
 10
0.2499999999995807
 20
16.15516925864071
 10
0.2499999999995807
 20
16.18097616335885
 10
0.2499999999995807
 20
16.20574150647271
 10
0.2499999999995807
 20
16.2294256687163
 10
0.2499999999995807
 20
16.2519907604824
 10
0.2499999999995807
 20
16.27340068243779
 10
0.2499999999995807
 20
16.29362118327456
 10
0.2499999999995807
 20
16.31261991450485
 10
0.2499999999995807
 20
16.33036648221153
 10
0.2499999999995807
 20
16.34683249567201
 10
0.2499999999995807
 20
16.3619916127773
 10
0.2499999999995807
 20
16.37581958217383
 10
0.2499999999995807
 20
16.38829428206036
 10
0.2499999999995807
 20
16.39939575557819
 10
0.2499999999995807
 20
16.40910624273789
 10
0.2499999999995807
 20
16.41741020883147
 10
0.2499999999995807
 20
16.42429436928459
 10
0.2499999999995807
 20
16.42974771090907
 10
0.2499999999995807
 20
16.43376150952163
 10
0.2499999999995807
 20
16.43632934390072
 10
0.2499999999995807
 20
16.4374471060591
 10
0.2499999999995807
 20
16.43749999999994
1001
REVIT
1002
{
1070
     2
1000
-2001160
1002
}
  0
LINE
  5
DB
330
C5
100
AcDbEntity
  8
P-SANR-FIXT
100
AcDbLine
 10
-0.0000000000002439
 20
-0.1875000000000689
 30
0.0
 11
-0.2500000000002447
 21
-0.1875000000000715
 31
0.0
1001
REVIT
1002
{
1070
     2
1000
-2001160
1002
}
  0
LINE
  5
DC
330
C5
100
AcDbEntity
  8
P-SANR-FIXT
100
AcDbLine
 10
0.2499999999997553
 20
-0.1875000000000664
 30
0.0
 11
-0.000000000000244
 21
-0.1875000000000689
 31
0.0
1001
REVIT
1002
{
1070
     2
1000
-2001160
1002
}
  0
ENDBLK
  5
DD
330
C5
100
AcDbEntity
  8
0
100
AcDbBlockEnd
  0
BLOCK
  5
135
330
134
100
AcDbEntity
  8
0
100
AcDbBlockBegin
  2
Shower_Arm-DXV-Oak_Hill-D35700316_Series - Left View
 70
     0
 10
0.0
 20
0.0
 30
0.0
  3
Shower_Arm-DXV-Oak_Hill-D35700316_Series - Left View
  1

  0
LWPOLYLINE
  5
137
330
134
100
AcDbEntity
  8
P-SANR-FIXT
 62
     0
100
AcDbPolyline
 90
        2
 70
   128
 43
0.0
 10
-24.0462091954487
 20
1.031249999999704
 10
-24.04620919544872
 20
-1.03125000000038
1001
REVIT
1002
{
1070
     2
1000
-2001160
1002
}
  0
LWPOLYLINE
  5
138
330
134
100
AcDbEntity
  8
P-SANR-FIXT
 62
     0
100
AcDbPolyline
 90
       41
 70
   128
 43
0.0
 10
-24.0462091954487
 20
1.031249999999704
 10
-24.04618419878185
 20
1.032499666693051
 10
-24.04610924877065
 20
1.033747334186254
 10
-24.04598446531913
 20
1.034991006477485
 10
-24.04581004805419
 20
1.036228693956412
 10
-24.04558627600624
 20
1.037458416587059
 10
-24.04531350716282
 20
1.038678207075558
 10
-24.0449921778959
 20
1.039886114017344
 10
-24.04462280226377
 20
1.041080205018974
 10
-24.04420597118863
 20
1.042258569789555
 10
-24.04374235151129
 20
1.043419323196867
 10
-24.04323268492432
 20
1.044560608283016
 10
-24.04267778678555
 20
1.045680599235391
 10
-24.04207854481362
 20
1.046777504307338
 10
-24.04143591766786
 20
1.047849568684727
 10
-24.04075093341462
 20
1.048895077293311
 10
-24.04002468788258
 20
1.049912357542278
 10
-24.03925834290966
 20
1.050899782000295
 10
-24.03845312448435
 20
1.051855770998829
 10
-24.03761032078435
 20
1.052778795159421
 10
-24.03673128011579
 20
1.053667377840329
 10
-24.03581740875623
 20
1.054520097498797
 10
-24.0348701687049
 20
1.055335589965312
 10
-24.0338910753438
 20
1.056112550625857
 10
-24.03288169501346
 20
1.056849736509117
 10
-24.03184364250707
 20
1.057545968274967
 10
-24.03077857848721
 20
1.058200132101073
 10
-24.02968820682912
 20
1.058811181464863
 10
-24.02857427189484
 20
1.059378138817737
 10
-24.02743855574264
 20
1.059900097148843
 10
-24.02628287527609
 20
1.060376221436188
 10
-24.02510907933741
 20
1.060805749982508
 10
-24.02391904574969
 20
1.061187995633747
 10
-24.02271467831283
 20
1.061522346878421
 10
-24.0214979037578
 20
1.061808268825809
 10
-24.02027066866433
 20
1.062045304061856
 10
-24.01903493634676
 20
1.062233073380691
 10
-24.01779268371321
 20
1.062371276391518
 10
-24.01654589810287
 20
1.062459691998941
 10
-24.01529657410677
 20
1.062498178756892
 10
-24.01495919544869
 20
1.062499999999718
1001
REVIT
1002
{
1070
     2
1000
-2001160
1002
}
  0
LWPOLYLINE
  5
139
330
134
100
AcDbEntity
  8
P-SANR-FIXT
 62
     0
100
AcDbPolyline
 90
       41
 70
   128
 43
0.0
 10
-24.01495919544873
 20
-1.062500000000373
 10
-24.01620886214205
 20
-1.062475003333535
 10
-24.01745652963526
 20
-1.062400053322325
 10
-24.0187002019265
 20
-1.062275269870806
 10
-24.01993788940542
 20
-1.062100852605855
 10
-24.02116761203607
 20
-1.061877080557924
 10
-24.02238740252457
 20
-1.061604311714508
 10
-24.02359530946635
 20
-1.06128298244759
 10
-24.02478940046798
 20
-1.060913606815451
 10
-24.02596776523857
 20
-1.060496775740322
 10
-24.02712851864587
 20
-1.060033156062954
 10
-24.02826980373204
 20
-1.059523489476003
 10
-24.02938979468439
 20
-1.058968591337237
 10
-24.03048669975634
 20
-1.05836934936529
 10
-24.03155876413375
 20
-1.057726722219552
 10
-24.03260427274232
 20
-1.057041737966298
 10
-24.0336215529913
 20
-1.056315492434255
 10
-24.0346089774493
 20
-1.055549147461346
 10
-24.03556496644783
 20
-1.054743929036032
 10
-24.03648799060843
 20
-1.053901125336029
 10
-24.03737657328933
 20
-1.053022084667465
 10
-24.03822929294781
 20
-1.052108213307928
 10
-24.03904478541432
 20
-1.051160973256582
 10
-24.03982174607486
 20
-1.050181879895487
 10
-24.04055893195813
 20
-1.049172499565149
 10
-24.04125516372397
 20
-1.048134447058754
 10
-24.04190932755008
 20
-1.047069383038906
 10
-24.04252037691388
 20
-1.045979011380812
 10
-24.04308733426674
 20
-1.044865076446524
 10
-24.04360929259784
 20
-1.043729360294318
 10
-24.0440854168852
 20
-1.042573679827772
 10
-24.04451494543152
 20
-1.041399883889096
 10
-24.04489719108276
 20
-1.04020985030137
 10
-24.04523154232742
 20
-1.039005482864507
 10
-24.04551746427483
 20
-1.037788708309474
 10
-24.04575449951086
 20
-1.036561473216001
 10
-24.04594226882971
 20
-1.03532574089844
 10
-24.04608047184052
 20
-1.03408348826488
 10
-24.04616888744796
 20
-1.032836702654553
 10
-24.04620737420591
 20
-1.031587378658447
 10
-24.04620919544872
 20
-1.03125000000038
1001
REVIT
1002
{
1070
     2
1000
-2001160
1002
}
  0
LINE
  5
13A
330
134
100
AcDbEntity
  8
P-SANR-FIXT
 62
     0
100
AcDbLine
 10
-24.01495919544873
 20
-1.062500000000373
 30
0.0
 11
-23.70245919544873
 21
-1.062500000000373
 31
0.0
1001
REVIT
1002
{
1070
     2
1000
-2001160
1002
}
  0
LINE
  5
13B
330
134
100
AcDbEntity
  8
P-SANR-FIXT
 62
     0
100
AcDbLine
 10
-23.70245919544871
 20
1.062499999999696
 30
0.0
 11
-24.01495919544869
 21
1.062499999999696
 31
0.0
1001
REVIT
1002
{
1070
     2
1000
-2001160
1002
}
  0
LWPOLYLINE
  5
13C
330
134
100
AcDbEntity
  8
P-SANR-FIXT
 62
     0
100
AcDbPolyline
 90
        2
 70
   128
 43
0.0
 10
-23.67120919544873
 20
-1.03125000000038
 10
-23.6712091954487
 20
1.031249999999704
1001
REVIT
1002
{
1070
     2
1000
-2001160
1002
}
  0
LWPOLYLINE
  5
13D
330
134
100
AcDbEntity
  8
P-SANR-FIXT
 62
     0
100
AcDbPolyline
 90
       41
 70
   128
 43
0.0
 10
-23.70245919544871
 20
1.062499999999718
 10
-23.70120952875537
 20
1.062475003332859
 10
-23.69996186126217
 20
1.062400053321669
 10
-23.69871818897093
 20
1.062275269870151
 10
-23.69748050149201
 20
1.0621008526052
 10
-23.69625077886135
 20
1.061877080557247
 10
-23.69503098837285
 20
1.061604311713831
 10
-23.69382308143108
 20
1.061282982446935
 10
-23.69262899042945
 20
1.060913606814774
 10
-23.69145062565886
 20
1.060496775739646
 10
-23.69028987225156
 20
1.060033156062298
 10
-23.68914858716539
 20
1.059523489475348
 10
-23.68802859621303
 20
1.05896859133656
 10
-23.68693169114108
 20
1.058369349364634
 10
-23.68585962676368
 20
1.057726722218876
 10
-23.68481411815511
 20
1.057041737965642
 10
-23.68379683790613
 20
1.0563154924336
 10
-23.68280941344813
 20
1.055549147460669
 10
-23.68185342444959
 20
1.054743929035377
 10
-23.680930400289
 20
1.053901125335374
 10
-23.68004181760809
 20
1.053022084666809
 10
-23.67918909794962
 20
1.052108213307252
 10
-23.67837360548311
 20
1.051160973255927
 10
-23.67759664482257
 20
1.05018187989481
 10
-23.6768594589393
 20
1.049172499564472
 10
-23.67616322717346
 20
1.048134447058098
 10
-23.67550906334735
 20
1.047069383038229
 10
-23.67489801398355
 20
1.045979011380135
 10
-23.67433105663069
 20
1.044865076445868
 10
-23.67380909829958
 20
1.043729360293663
 10
-23.67333297401223
 20
1.042573679827095
 10
-23.6729034454659
 20
1.041399883888419
 10
-23.67252119981467
 20
1.040209850300714
 10
-23.67218684857001
 20
1.039005482863852
 10
-23.6719009266226
 20
1.037788708308819
 10
-23.67166389138656
 20
1.036561473215345
 10
-23.67147612206771
 20
1.035325740897784
 10
-23.6713379190569
 20
1.034083488264225
 10
-23.67124950344947
 20
1.032836702653898
 10
-23.67121101669152
 20
1.03158737865777
 10
-23.6712091954487
 20
1.031249999999704
1001
REVIT
1002
{
1070
     2
1000
-2001160
1002
}
  0
LWPOLYLINE
  5
13E
330
134
100
AcDbEntity
  8
P-SANR-FIXT
 62
     0
100
AcDbPolyline
 90
       41
 70
   128
 43
0.0
 10
-23.67120919544873
 20
-1.03125000000038
 10
-23.67123419211558
 20
-1.032499666693728
 10
-23.67130914212677
 20
-1.033747334186931
 10
-23.6714339255783
 20
-1.034991006478162
 10
-23.67160834284324
 20
-1.036228693957089
 10
-23.67183211489119
 20
-1.037458416587736
 10
-23.6721048837346
 20
-1.038678207076235
 10
-23.67242621300152
 20
-1.039886114018021
 10
-23.67279558863366
 20
-1.041080205019629
 10
-23.6732124197088
 20
-1.042258569790232
 10
-23.67367603938614
 20
-1.043419323197522
 10
-23.67418570597311
 20
-1.044560608283693
 10
-23.67474060411188
 20
-1.045680599236047
 10
-23.6753398460838
 20
-1.046777504307993
 10
-23.67598247322956
 20
-1.047849568685404
 10
-23.67666745748281
 20
-1.048895077293988
 10
-23.67739370301485
 20
-1.049912357542954
 10
-23.67816004798777
 20
-1.050899782000951
 10
-23.67896526641308
 20
-1.051855770999485
 10
-23.67980807011308
 20
-1.052778795160077
 10
-23.68068711078163
 20
-1.053667377841006
 10
-23.68160098214119
 20
-1.054520097499474
 10
-23.68254822219252
 20
-1.055335589965967
 10
-23.68352731555363
 20
-1.056112550626512
 10
-23.68453669588397
 20
-1.056849736509793
 10
-23.68557474839036
 20
-1.057545968275623
 10
-23.68663981241021
 20
-1.05820013210175
 10
-23.6877301840683
 20
-1.05881118146554
 10
-23.68884411900259
 20
-1.059378138818392
 10
-23.68997983515479
 20
-1.059900097149498
 10
-23.69113551562134
 20
-1.060376221436865
 10
-23.69230931156002
 20
-1.060805749983185
 10
-23.69349934514774
 20
-1.061187995634423
 10
-23.6947037125846
 20
-1.061522346879077
 10
-23.69592048713963
 20
-1.061808268826486
 10
-23.6971477222331
 20
-1.062045304062512
 10
-23.69838345455066
 20
-1.062233073381368
 10
-23.69962570718422
 20
-1.062371276392195
 10
-23.70087249279456
 20
-1.062459691999617
 10
-23.70212181679066
 20
-1.062498178757569
 10
-23.70245919544873
 20
-1.062500000000395
1001
REVIT
1002
{
1070
     2
1000
-2001160
1002
}
  0
LINE
  5
13F
330
134
100
AcDbEntity
  8
P-SANR-FIXT
 62
     0
100
AcDbLine
 10
-8.516295838505975
 20
0.249999999999985
 30
0.0
 11
-23.6712091954487
 21
0.2499999999999884
 31
0.0
1001
REVIT
1002
{
1070
     2
1000
-2001160
1002
}
  0
LINE
  5
140
330
134
100
AcDbEntity
  8
P-SANR-FIXT
 62
     0
100
AcDbLine
 10
-24.0462091954487
 20
0.2499999999999884
 30
0.0
 11
-24.23370919544869
 21
0.2499999999999885
 31
0.0
1001
REVIT
1002
{
1070
     2
1000
-2001160
1002
}
  0
LINE
  5
141
330
134
100
AcDbEntity
  8
P-SANR-FIXT
 62
     0
100
AcDbLine
 10
-24.2337091954487
 20
-0.2500000000000043
 30
0.0
 11
-24.0462091954487
 21
-0.2500000000000044
 31
0.0
1001
REVIT
1002
{
1070
     2
1000
-2001160
1002
}
  0
LINE
  5
142
330
134
100
AcDbEntity
  8
P-SANR-FIXT
 62
     0
100
AcDbLine
 10
-23.67120919544871
 20
-0.2500000000000044
 30
0.0
 11
-8.516295838505975
 21
-0.2500000000000078
 31
0.0
1001
REVIT
1002
{
1070
     2
1000
-2001160
1002
}
  0
LWPOLYLINE
  5
143
330
134
100
AcDbEntity
  8
P-SANR-FIXT
 62
     0
100
AcDbPolyline
 90
       41
 70
   128
 43
0.0
 10
-7.358709195448682
 20
-0.9075866430572796
 10
-7.359635141293804
 20
-0.8612955239380974
 10
-7.362411497513349
 20
-0.8150784607345764
 10
-7.367033822529609
 20
-0.7690093908887202
 10
-7.373494721608611
 20
-0.7231620150847827
 10
-7.381783858690084
 20
-0.6776096793437967
 10
-7.391887972922944
 20
-0.6324252576855836
 10
-7.403790899879858
 20
-0.5876810355460416
 10
-7.417473597416837
 20
-0.5434485941355911
 10
-7.432914176136652
 20
-0.4997986959248034
 10
-7.450087934407164
 20
-0.4568011714392749
 10
-7.468967397878675
 20
-0.4145248075459175
 10
-7.489522363437039
 20
-0.3730372374084619
 10
-7.511719947522191
 20
-0.3324048322889093
 10
-7.53552463873482
 20
-0.2926925953676767
 10
-7.560898354647054
 20
-0.2539640577523708
 10
-7.587800502726199
 20
-0.2162811768414779
 10
-7.616188045274153
 20
-0.1797042372059119
 10
-7.646015568278528
 20
-0.1442917541463951
 10
-7.677235354065373
 20
-0.1101003800815983
 10
-7.709797457637293
 20
-0.0771848139162126
 10
-7.743649786574799
 20
-0.0455977135345203
 10
-7.778738184373025
 20
-0.0153896115588959
 10
-7.815006517080629
 20
0.0133911654915541
 10
-7.852396763102095
 20
0.0406985745131001
 10
-7.89084910601996
 20
0.0664889294765904
 10
-7.930302030288284
 20
0.0907209713157391
 10
-7.970692419644407
 20
0.113355933932822
 10
-8.011955658081522
 20
0.1343576062162048
 10
-8.054025733220488
 20
0.1536923899703017
 10
-8.096835341915543
 20
0.1713293536656897
 10
-8.140315997925005
 20
0.1872402819227892
 10
-8.184398141474646
 20
0.2013997206505627
 10
-8.229011250538471
 20
0.2137850177675196
 10
-8.274083953658935
 20
0.2243763594403552
 10
-8.319544144126044
 20
0.2331568017817523
 10
-8.365319095332699
 20
0.2401122979570394
 10
-8.411335577121777
 20
0.2452317206560926
 10
-8.457519972938746
 20
0.2485068798946691
 10
-8.503798397602437
 20
0.2499325361166519
 10
-8.516295838505977
 20
0.249999999999985
1001
REVIT
1002
{
1070
     2
1000
-2001160
1002
}
  0
LWPOLYLINE
  5
144
330
134
100
AcDbEntity
  8
P-SANR-FIXT
 62
     0
100
AcDbPolyline
 90
       41
 70
   128
 43
0.0
 10
-8.516295838505975
 20
-0.2500000000000078
 10
-8.489999386480089
 20
-0.2505259991756155
 10
-8.463745003167835
 20
-0.2521031552159634
 10
-8.437574689981875
 20
-0.2547289450078559
 10
-8.411530313840605
 20
-0.2583991678477425
 10
-8.385653540190013
 20
-0.2631079521620173
 10
-8.35998576634785
 20
-0.2688477649002729
 10
-8.334568055276776
 20
-0.2756094235865455
 10
-8.309441069892345
 20
-0.2833821110093674
 10
-8.284645008011024
 20
-0.2921533925269423
 10
-8.260219538042296
 20
-0.3019092359599264
 10
-8.236203735527604
 20
-0.3126340340399673
 10
-8.212636020627885
 20
-0.3243106293779982
 10
-8.189554096659467
 20
-0.3369203419123402
 10
-8.166994889776812
 20
-0.3504429987928512
 10
-8.14499448989857
 20
-0.3648569666532006
 10
-8.123588092971365
 20
-0.3801391862196661
 10
-8.10280994466383
 20
-0.3962652092009415
 10
-8.08269328558082
 20
-0.413209237400296
 10
-8.063270298085551
 20
-0.430944163987136
 10
-8.044572054814658
 20
-0.4494416168622104
 10
-8.026628468968628
 20
-0.4686720040467742
 10
-8.009468246457061
 20
-0.4886045610236218
 10
-7.99311883997532
 20
-0.5092073999536745
 10
-7.977606405086081
 20
-0.5304475606896383
 10
-7.96295575837604
 20
-0.5522910635053444
 10
-7.949190337754611
 20
-0.5747029634559774
 10
-7.936332164958336
 20
-0.5976474062826051
 10
-7.924401810320745
 20
-0.6210876857711804
 10
-7.913418359864262
 20
-0.6449863024749342
 10
-7.903399384766601
 20
-0.6693050237051929
 10
-7.89436091325065
 20
-0.6940049446957212
 10
-7.88631740494274
 20
-0.7190465508419388
 10
-7.879281727740298
 20
-0.7443897809159745
 10
-7.873265137225981
 20
-0.7699940911559659
 10
-7.868277258661148
 20
-0.7958185201274767
 10
-7.86432607158748
 20
-0.8218217542530943
 10
-7.861417897061407
 20
-0.8479621939052471
 10
-7.859557387541808
 20
-0.8741980199568509
 10
-7.858747519447017
 20
-0.9004872606828875
 10
-7.858709195448682
 20
-0.9075866430572794
1001
REVIT
1002
{
1070
     2
1000
-2001160
1002
}
  0
LINE
  5
145
330
134
100
AcDbEntity
  8
P-SANR-FIXT
 62
     0
100
AcDbLine
 10
-7.358709195448682
 20
-1.31250000000064
 30
0.0
 11
-7.358709195448682
 21
-0.9075866430572796
 31
0.0
1001
REVIT
1002
{
1070
     2
1000
-2001160
1002
}
  0
LINE
  5
146
330
134
100
AcDbEntity
  8
P-SANR-FIXT
 62
     0
100
AcDbLine
 10
-7.858709195448682
 20
-0.9075866430572794
 30
0.0
 11
-7.858709195448682
 21
-1.31250000000064
 31
0.0
1001
REVIT
1002
{
1070
     2
1000
-2001160
1002
}
  0
LINE
  5
147
330
134
100
AcDbEntity
  8
P-SANR-FIXT
 62
     0
100
AcDbLine
 10
-24.23370919544869
 20
-0.2499999999999973
 30
0.0
 11
-24.23370919544869
 21
0.2500000000000027
 31
0.0
1001
REVIT
1002
{
1070
     2
1000
-2001160
1002
}
  0
LINE
  5
148
330
134
100
AcDbEntity
  8
P-SANR-FIXT
 62
     0
100
AcDbLine
 10
-7.358709195448696
 20
-1.312500000000628
 30
0.0
 11
-7.858709195448696
 21
-1.31250000000063
 31
0.0
1001
REVIT
1002
{
1070
     2
1000
-2001160
1002
}
  0
ENDBLK
  5
136
330
134
100
AcDbEntity
  8
0
100
AcDbBlockEnd
  0
BLOCK
  5
14B
330
14A
100
AcDbEntity
  8
0
100
AcDbBlockBegin
  2
Shower_Arm-DXV-Oak_Hill-D35700316_Series - Front View
 70
     0
 10
0.0
 20
0.0
 30
0.0
  3
Shower_Arm-DXV-Oak_Hill-D35700316_Series - Front View
  1

  0
LWPOLYLINE
  5
14D
330
14A
100
AcDbEntity
  8
P-SANR-FIXT
 62
     0
100
AcDbPolyline
 90
       74
 70
   128
 43
0.0
 10
0.0000000000002505
 20
1.062499999999715
 10
-0.0424886675730498
 20
1.061650113326997
 10
-0.0849093623419996
 20
1.059101812946238
 10
-0.127194220244232
 20
1.054859175594444
 10
-0.1692755945273938
 20
1.048928988586304
 10
-0.211086163969512
 20
1.041320738956038
 10
-0.2525590405785909
 20
1.03204659827999
 10
-0.293627876599134
 20
1.021121403204908
 10
-0.3342269706543903
 20
1.008562631712308
 10
-0.3742913728545493
 20
0.9943903751575218
 10
-0.4137569887027106
 20
0.9786273061277695
 10
-0.452560681632395
 20
0.9612986421709093
 10
-0.4906403740125977
 20
0.9424321054527096
 10
-0.5279351464587445
 20
0.9220578784071944
 10
-0.5643853352907141
 20
0.9002085554514705
 10
-0.5999326279820027
 20
0.876919090841241
 10
-0.6345201564473206
 20
0.8522267427517602
 10
-0.6680925880194036
 20
0.8261710136725637
 10
-0.7005962139694729
 20
0.7987935872118967
 10
-0.7319790354297448
 20
0.7701382614119225
 10
-0.7621908465805282
 20
0.7402508786810599
 10
-0.7911833149688247
 20
0.7091792524560815
 10
-0.8189100588299426
 20
0.6769730907106819
 10
-0.8453267212884279
 20
0.6436839164333818
 10
-0.8703910413196011
 20
0.6093649852016653
 10
-0.8940629213581811
 20
0.5740711999845942
 10
-0.9163044914458394
 20
0.5378590233095152
 10
-0.9370801698150497
 20
0.5007863869342727
 10
-0.9563567198123307
 20
0.4629125991686819
 10
-0.9741033030697968
 20
0.4242982499938605
 10
-0.9902915288399739
 20
0.3850051141311467
 10
-1.004895499414931
 20
0.3450960522158723
 10
-1.017891851557099
 20
0.3046349102336236
 10
-1.029259793875454
 20
0.2636864173803346
 10
-1.038981140087321
 20
0.2223160825093017
 10
-1.047040338112537
 20
0.1805900893311758
 10
-1.053424494953465
 20
0.1385751905339418
 10
-1.058123397321041
 20
0.0963386009929934
 10
-1.061129527973856
 20
0.0539478902415951
 10
-1.062438077744138
 20
0.0114708743740764
 10
-1.062046953231398
 20
-0.0310244924454537
 10
-1.05995678015142
 20
-0.0734702266952922
 10
-1.056170902335255
 20
-0.1157984242552032
 10
-1.050695376379793
 20
-0.1579413690386673
 10
-1.043538961958517
 20
-0.1998316413240388
 10
-1.03471310780788
 20
-0.2414022256117576
 10
-1.024231933411773
 20
-0.2825866178348874
 10
-1.012112206413366
 20
-0.3233189317514302
 10
-0.9983733157904538
 20
-0.3635340043481818
 10
-0.9830372408372241
 20
-0.4031675000877754
 10
-0.966128516002081
 20
-0.4421560138316849
 10
-0.9476741916377594
 20
-0.4804371722750744
 10
-0.9277037907265283
 20
-0.5179497337306173
 10
-0.9062492616497227
 20
-0.5546336861022425
 10
-0.883344927077141
 20
-0.5904303428916435
 10
-0.859027429058104
 20
-0.6252824370841807
 10
-0.8333356704019841
 20
-0.6591342127638313
 10
-0.8063107524420157
 20
-0.6919315143108946
 10
-0.7779959092819265
 20
-0.723621873039228
 10
-0.7484364386305957
 20
-0.7541545911351192
 10
-0.7176796293353797
 20
-0.7834808227629466
 10
-0.6857746857300495
 20
-0.8115536522080047
 10
-0.6527726489183471
 20
-0.8383281689317525
 10
-0.6187263151191142
 20
-0.8637615394190019
 10
-0.5836901512035971
 20
-0.887813075702496
 10
-0.5477202075600802
 20
-0.9104443004548839
 10
-0.5108740284252109
 20
-0.9316190085443023
 10
-0.4732105598255085
 20
-0.9513033249548497
 10
-0.4347900552762862
 20
-0.9694657589793321
 10
-0.3956739793888885
 20
-0.986077254597802
 10
-0.3559249095404144
 20
-1.001111236960823
 10
-0.3156064357632715
 20
-1.014543654903732
 10
-0.2747830590146911
 20
-1.026353019423225
 10
-0.2499999999995847
 20
-1.032459698843687
1001
REVIT
1002
{
1070
     2
1000
-2001160
1002
}
  0
LWPOLYLINE
  5
14E
330
14A
100
AcDbEntity
  8
P-SANR-FIXT
 62
     0
100
AcDbPolyline
 90
       74
 70
   128
 43
0.0
 10
0.2525590405790905
 20
-1.032046598280672
 10
0.2936278765996322
 20
-1.021121403205569
 10
0.3342269706548885
 20
-1.008562631712969
 10
0.3742913728550489
 20
-0.9943903751581826
 10
0.4137569887032088
 20
-0.9786273061284516
 10
0.4525606816328933
 20
-0.9612986421715914
 10
0.490640374013096
 20
-0.9424321054533704
 10
0.5279351464592427
 20
-0.9220578784078766
 10
0.5643853352912131
 20
-0.9002085554521313
 10
0.599932627982501
 20
-0.8769190908419018
 10
0.6345201564478202
 20
-0.8522267427524424
 10
0.6680925880199026
 20
-0.8261710136732459
 10
0.7005962139699719
 20
-0.7987935872125788
 10
0.7319790354302431
 20
-0.7701382614125833
 10
0.7621908465810278
 20
-0.7402508786817421
 10
0.7911833149693237
 20
-0.7091792524567637
 10
0.8189100588304414
 20
-0.676973090711364
 10
0.8453267212889276
 20
-0.6436839164340426
 10
0.8703910413201006
 20
-0.6093649852023474
 10
0.8940629213586806
 20
-0.574071199985255
 10
0.9163044914463384
 20
-0.5378590233101974
 10
0.9370801698155506
 20
-0.5007863869349549
 10
0.9563567198128309
 20
-0.4629125991693641
 10
0.9741033030702984
 20
-0.4242982499945213
 10
0.9902915288404734
 20
-0.3850051141318289
 10
1.004895499415432
 20
-0.3450960522165544
 10
1.017891851557598
 20
-0.3046349102343057
 10
1.029259793875954
 20
-0.2636864173809954
 10
1.038981140087821
 20
-0.2223160825099839
 10
1.047040338113038
 20
-0.1805900893318579
 10
1.053424494953966
 20
-0.1385751905346239
 10
1.058123397321542
 20
-0.0963386009936755
 10
1.061129527974357
 20
-0.0539478902422772
 10
1.06243807774464
 20
-0.0114708743747585
 10
1.062046953231899
 20
0.0310244924447716
 10
1.059956780151922
 20
0.0734702266946101
 10
1.056170902335755
 20
0.1157984242545424
 10
1.050695376380294
 20
0.1579413690379851
 10
1.04353896195902
 20
0.1998316413233567
 10
1.034713107808382
 20
0.2414022256110754
 10
1.024231933412274
 20
0.2825866178342266
 10
1.012112206413868
 20
0.3233189317507481
 10
0.9983733157909554
 20
0.3635340043474997
 10
0.983037240837725
 20
0.4031675000870933
 10
0.9661285160025839
 20
0.442156013831024
 10
0.9476741916382616
 20
0.4804371722743923
 10
0.9277037907270319
 20
0.5179497337299352
 10
0.9062492616502256
 20
0.5546336861015603
 10
0.8833449270776439
 20
0.5904303428909614
 10
0.8590274290586069
 20
0.6252824370834986
 10
0.833335670402487
 20
0.6591342127631492
 10
0.8063107524425186
 20
0.6919315143102124
 10
0.7779959092824308
 20
0.7236218730385459
 10
0.7484364386310993
 20
0.7541545911344584
 10
0.7176796293358833
 20
0.7834808227622858
 10
0.6857746857305531
 20
0.8115536522073439
 10
0.6527726489188507
 20
0.8383281689310704
 10
0.6187263151196185
 20
0.8637615394183411
 10
0.5836901512041015
 20
0.8878130757018352
 10
0.5477202075605838
 20
0.9104443004542018
 10
0.5108740284257144
 20
0.9316190085436202
 10
0.4732105598260121
 20
0.9513033249541676
 10
0.4347900552767898
 20
0.9694657589786713
 10
0.3956739793893921
 20
0.9860772545971199
 10
0.355924909540918
 20
1.001111236960163
 10
0.3156064357637764
 20
1.014543654903071
 10
0.2747830590151947
 20
1.026353019422564
 10
0.2335200879894494
 20
1.036520438054622
 10
0.1918835346378831
 20
1.045029645098352
 10
0.1499400085638673
 20
1.05186702763769
 10
0.1077566104616458
 20
1.057021647319139
 10
0.0654008247695375
 20
1.060485257850792
 10
0.0229404117092291
 20
1.062252318194687
 10
0.0000000000002571
 20
1.062499999999715
1001
REVIT
1002
{
1070
     2
1000
-2001160
1002
}
  0
LINE
  5
14F
330
14A
100
AcDbEntity
  8
P-SANR-FIXT
 62
     0
100
AcDbLine
 10
0.2500000000004161
 20
-1.312500000000639
 30
0.0
 11
0.2500000000004067
 21
0.0
 31
0.0
1001
REVIT
1002
{
1070
     2
1000
-2001160
1002
}
  0
LINE
  5
150
330
14A
100
AcDbEntity
  8
P-SANR-FIXT
 62
     0
100
AcDbLine
 10
-0.2499999999995941
 20
0.0
 30
0.0
 11
-0.2499999999995847
 21
-1.312500000000617
 31
0.0
1001
REVIT
1002
{
1070
     2
1000
-2001160
1002
}
  0
LINE
  5
151
330
14A
100
AcDbEntity
  8
P-SANR-FIXT
 62
     0
100
AcDbLine
 10
0.2500000000004155
 20
-1.31250000000063
 30
0.0
 11
-0.2499999999995845
 21
-1.312500000000628
 31
0.0
1001
REVIT
1002
{
1070
     2
1000
-2001160
1002
}
  0
ARC
  5
152
330
14A
100
AcDbEntity
  8
0
 62
     0
100
AcDbCircle
 10
0.0000000000004063
 20
0.0
 30
0.0
 40
0.2500000000000004
100
AcDbArc
 50
0.0
 51
180.0
  0
ENDBLK
  5
14C
330
14A
100
AcDbEntity
  8
0
100
AcDbBlockEnd
  0
BLOCK
  5
155
330
154
100
AcDbEntity
  8
0
100
AcDbBlockBegin
  2
Shower_Arm-DXV-Oak_Hill-D35700316_Series - Top View
 70
     0
 10
0.0
 20
0.0
 30
0.0
  3
Shower_Arm-DXV-Oak_Hill-D35700316_Series - Top View
  1

  0
LWPOLYLINE
  5
157
330
154
100
AcDbEntity
  8
P-SANR-FIXT
 62
     0
100
AcDbPolyline
 90
       41
 70
   128
 43
0.0
 10
-1.062499999999794
 20
23.92018481484366
 10
-1.062475003332957
 20
23.92143448153699
 10
-1.062400053321746
 20
23.9226821490302
 10
-1.062275269870228
 20
23.92392582132144
 10
-1.062100852605277
 20
23.92516350880036
 10
-1.061877080557324
 20
23.92639323143101
 10
-1.061604311713929
 20
23.92761302191951
 10
-1.06128298244699
 20
23.92882092886129
 10
-1.060913606814872
 20
23.93001501986292
 10
-1.060496775739722
 20
23.93119338463351
 10
-1.060033156062375
 20
23.93235413804081
 10
-1.059523489475425
 20
23.93349542312698
 10
-1.058968591336637
 20
23.93461541407933
 10
-1.058369349364732
 20
23.93571231915128
 10
-1.057726722218952
 20
23.93678438352869
 10
-1.057041737965719
 20
23.93782989213725
 10
-1.056315492433676
 20
23.93884717238623
 10
-1.055549147460745
 20
23.93983459684424
 10
-1.054743929035432
 20
23.94079058584277
 10
-1.053901125335451
 20
23.94171361000337
 10
-1.053022084666886
 20
23.94260219268427
 10
-1.052108213307328
 20
23.94345491234275
 10
-1.051160973256004
 20
23.94427040480926
 10
-1.050181879894908
 20
23.9450473654698
 10
-1.049172499564549
 20
23.94578455135307
 10
-1.048134447058175
 20
23.94648078311891
 10
-1.047069383038306
 20
23.94713494694501
 10
-1.045979011380212
 20
23.94774599630881
 10
-1.044865076445945
 20
23.94831295366168
 10
-1.043729360293739
 20
23.94883491199278
 10
-1.042573679827193
 20
23.94931103628014
 10
-1.041399883888495
 20
23.94974056482646
 10
-1.040209850300791
 20
23.9501228104777
 10
-1.039005482863928
 20
23.95045716172236
 10
-1.037788708308895
 20
23.95074308366977
 10
-1.036561473215422
 20
23.9509801189058
 10
-1.035325740897861
 20
23.95116788822465
 10
-1.034083488264301
 20
23.95130609123546
 10
-1.032836702653974
 20
23.9513945068429
 10
-1.031587378657868
 20
23.95143299360085
 10
-1.03124999999978
 20
23.95143481484366
1001
REVIT
1002
{
1070
     2
1000
-2001160
1002
}
  0
LWPOLYLINE
  5
158
330
154
100
AcDbEntity
  8
P-SANR-FIXT
 62
     0
100
AcDbPolyline
 90
       41
 70
   128
 43
0.0
 10
1.031250000000282
 20
23.95143481484368
 10
1.03249966669363
 20
23.95140981817684
 10
1.033747334186833
 20
23.95133486816564
 10
1.034991006478085
 20
23.95121008471412
 10
1.036228693956991
 20
23.95103566744917
 10
1.037458416587638
 20
23.95081189540122
 10
1.038678207076158
 20
23.95053912655781
 10
1.039886114017923
 20
23.9502177972909
 10
1.041080205019552
 20
23.94984842165876
 10
1.042258569790155
 20
23.94943159058362
 10
1.043419323197424
 20
23.94896797090627
 10
1.044560608283616
 20
23.94845830431931
 10
1.04568059923597
 20
23.94790340618053
 10
1.046777504307917
 20
23.94730416420861
 10
1.047849568685327
 20
23.94666153706285
 10
1.04889507729389
 20
23.94597655280961
 10
1.049912357542878
 20
23.94525030727757
 10
1.050899782000874
 20
23.94448396230465
 10
1.051855770999408
 20
23.94367874387933
 10
1.05277879516
 20
23.94283594017934
 10
1.053667377840908
 20
23.94195689951078
 10
1.054520097499397
 20
23.94104302815122
 10
1.055335589965891
 20
23.94009578809989
 10
1.056112550626436
 20
23.93911669473879
 10
1.056849736509696
 20
23.93810731440844
 10
1.057545968275546
 20
23.93706926190206
 10
1.058200132101652
 20
23.93600419788221
 10
1.058811181465442
 20
23.93491382622411
 10
1.059378138818316
 20
23.93379989128983
 10
1.059900097149422
 20
23.93266417513762
 10
1.060376221436767
 20
23.93150849467108
 10
1.060805749983087
 20
23.93033469873239
 10
1.061187995634347
 20
23.92914466514468
 10
1.061522346878979
 20
23.92794029770782
 10
1.061808268826409
 20
23.92672352315279
 10
1.062045304062435
 20
23.92549628805932
 10
1.062233073381291
 20
23.92426055574174
 10
1.062371276392097
 20
23.92301830310819
 10
1.062459691999541
 20
23.92177151749786
 10
1.062498178757471
 20
23.92052219350175
 10
1.062500000000297
 20
23.92018481484369
1001
REVIT
1002
{
1070
     2
1000
-2001160
1002
}
  0
LINE
  5
159
330
154
100
AcDbEntity
  8
P-SANR-FIXT
 62
     0
100
AcDbLine
 10
-1.062499999999773
 20
23.92018481484366
 30
0.0
 11
-1.062499999999773
 21
23.60768481484367
 31
0.0
1001
REVIT
1002
{
1070
     2
1000
-2001160
1002
}
  0
LINE
  5
15A
330
154
100
AcDbEntity
  8
P-SANR-FIXT
 62
     0
100
AcDbLine
 10
1.062500000000297
 20
23.60768481484369
 30
0.0
 11
1.062500000000297
 21
23.92018481484369
 31
0.0
1001
REVIT
1002
{
1070
     2
1000
-2001160
1002
}
  0
LWPOLYLINE
  5
15B
330
154
100
AcDbEntity
  8
P-SANR-FIXT
 62
     0
100
AcDbPolyline
 90
       41
 70
   128
 43
0.0
 10
-1.031249999999801
 20
23.57643481484367
 10
-1.032499666693127
 20
23.57645981151052
 10
-1.033747334186331
 20
23.57653476152171
 10
-1.034991006477583
 20
23.57665954497324
 10
-1.036228693956489
 20
23.57683396223818
 10
-1.037458416587136
 20
23.57705773428613
 10
-1.038678207075634
 20
23.57733050312955
 10
-1.039886114017421
 20
23.57765183239646
 10
-1.04108020501905
 20
23.5780212080286
 10
-1.042258569789631
 20
23.57843803910374
 10
-1.043419323196943
 20
23.57890165878108
 10
-1.044560608283114
 20
23.57941132536805
 10
-1.045680599235468
 20
23.57996622350682
 10
-1.046777504307415
 20
23.58056546547874
 10
-1.047849568684825
 20
23.5812080926245
 10
-1.048895077293388
 20
23.58189307687775
 10
-1.049912357542376
 20
23.58261932240979
 10
-1.050899782000372
 20
23.5833856673827
 10
-1.051855770998906
 20
23.58419088580802
 10
-1.052778795159498
 20
23.58503368950802
 10
-1.053667377840405
 20
23.58591273017657
 10
-1.054520097498895
 20
23.58682660153613
 10
-1.055335589965388
 20
23.58777384158747
 10
-1.056112550625933
 20
23.58875293494857
 10
-1.056849736509193
 20
23.58976231527891
 10
-1.057545968275044
 20
23.59080036778529
 10
-1.058200132101149
 20
23.59186543180515
 10
-1.05881118146494
 20
23.59295580346325
 10
-1.059378138817813
 20
23.59406973839752
 10
-1.059900097148919
 20
23.59520545454973
 10
-1.060376221436265
 20
23.59636113501628
 10
-1.060805749982585
 20
23.59753493095496
 10
-1.061187995633823
 20
23.59872496454267
 10
-1.061522346878477
 20
23.59992933197954
 10
-1.061808268825907
 20
23.60114610653456
 10
-1.062045304061933
 20
23.60237334162804
 10
-1.062233073380789
 20
23.60360907394561
 10
-1.062371276391595
 20
23.60485132657916
 10
-1.062459691999039
 20
23.6060981121895
 10
-1.06249817875699
 20
23.6073474361856
 10
-1.062499999999794
 20
23.60768481484367
1001
REVIT
1002
{
1070
     2
1000
-2001160
1002
}
  0
LWPOLYLINE
  5
15C
330
154
100
AcDbEntity
  8
P-SANR-FIXT
 62
     0
100
AcDbPolyline
 90
       41
 70
   128
 43
0.0
 10
1.062500000000318
 20
23.60768481484369
 10
1.062475003333459
 20
23.60643514815036
 10
1.062400053322248
 20
23.60518748065715
 10
1.06227526987073
 20
23.60394380836591
 10
1.062100852605779
 20
23.602706120887
 10
1.061877080557847
 20
23.60147639825635
 10
1.061604311714431
 20
23.60025660776784
 10
1.061282982447514
 20
23.59904870082607
 10
1.060913606815374
 20
23.59785460982444
 10
1.060496775740246
 20
23.59667624505385
 10
1.060033156062898
 20
23.59551549164655
 10
1.059523489475927
 20
23.59437420656038
 10
1.058968591337161
 20
23.59325421560802
 10
1.058369349365234
 20
23.59215731053608
 10
1.057726722219476
 20
23.59108524615867
 10
1.057041737966243
 20
23.5900397375501
 10
1.0563154924342
 20
23.58902245730112
 10
1.055549147461269
 20
23.58803503284311
 10
1.054743929035956
 20
23.58707904384458
 10
1.053901125335953
 20
23.58615601968399
 10
1.053022084667409
 20
23.58526743700308
 10
1.052108213307852
 20
23.5844147173446
 10
1.051160973256506
 20
23.5835992248781
 10
1.05018187989541
 20
23.58282226421756
 10
1.049172499565072
 20
23.58208507833429
 10
1.048134447058677
 20
23.58138884656845
 10
1.04706938303883
 20
23.58073468274234
 10
1.045979011380735
 20
23.58012363337854
 10
1.044865076446447
 20
23.57955667602568
 10
1.043729360294263
 20
23.57903471769458
 10
1.042573679827695
 20
23.57855859340721
 10
1.041399883889019
 20
23.5781290648609
 10
1.040209850301315
 20
23.57774681920965
 10
1.039005482864452
 20
23.577412467965
 10
1.037788708309398
 20
23.57712654601759
 10
1.036561473215924
 20
23.57688951078155
 10
1.035325740898363
 20
23.5767017414627
 10
1.034083488264825
 20
23.57656353845189
 10
1.032836702654476
 20
23.57647512284446
 10
1.03158737865837
 20
23.57643663608651
 10
1.031250000000304
 20
23.57643481484369
1001
REVIT
1002
{
1070
     2
1000
-2001160
1002
}
  0
LINE
  5
15D
330
154
100
AcDbEntity
  8
P-SANR-FIXT
 62
     0
100
AcDbLine
 10
0.2500000000002474
 20
23.95143481484366
 30
0.0
 11
0.2500000000002474
 21
24.13893481484366
 31
0.0
1001
REVIT
1002
{
1070
     2
1000
-2001160
1002
}
  0
LINE
  5
15E
330
154
100
AcDbEntity
  8
P-SANR-FIXT
 62
     0
100
AcDbLine
 10
-0.2499999999997453
 20
24.13893481484366
 30
0.0
 11
-0.2499999999997454
 21
23.95143481484366
 31
0.0
1001
REVIT
1002
{
1070
     2
1000
-2001160
1002
}
  0
LINE
  5
15F
330
154
100
AcDbEntity
  8
P-SANR-FIXT
 62
     0
100
AcDbLine
 10
-0.2499999999997494
 20
24.13893481484366
 30
0.0
 11
0.2500000000002506
 21
24.13893481484366
 31
0.0
1001
REVIT
1002
{
1070
     2
1000
-2001160
1002
}
  0
ARC
  5
160
330
154
100
AcDbEntity
  8
0
 62
     0
100
AcDbCircle
 10
0.0000000000004196
 20
7.513934814843647
 30
0.0
 40
0.2499999999999964
100
AcDbArc
 50
180.0000000000008
 51
0.0000000000008142
  0
LINE
  5
161
330
154
100
AcDbEntity
  8
P-SANR-FIXT
 62
     0
100
AcDbLine
 10
-0.2499999999997454
 20
23.57643481484366
 30
0.0
 11
-0.2499999999995768
 21
7.513934814843644
 31
0.0
  0
LINE
  5
162
330
154
100
AcDbEntity
  8
P-SANR-FIXT
 62
     0
100
AcDbLine
 10
0.250000000000416
 20
7.513934814843651
 30
0.0
 11
0.2500000000002687
 21
23.57643481484367
 31
0.0
  0
LINE
  5
163
330
154
100
AcDbEntity
  8
P-SANR-FIXT
 62
     0
100
AcDbLine
 10
-1.03124999999978
 20
23.57643481484367
 30
0.0
 11
1.031250000000304
 21
23.57643481484369
 31
0.0
  0
LINE
  5
164
330
154
100
AcDbEntity
  8
P-SANR-FIXT
 62
     0
100
AcDbLine
 10
1.031250000000282
 20
23.95143481484368
 30
0.0
 11
-1.03124999999978
 21
23.95143481484366
 31
0.0
  0
ENDBLK
  5
156
330
154
100
AcDbEntity
  8
0
100
AcDbBlockEnd
  0
ENDSEC
  0
SECTION
  2
ENTITIES
  0
INSERT
  5
149
330
70
100
AcDbEntity
  8
0
100
AcDbBlockReference
  2
Shower_Arm-DXV-Oak_Hill-D35700316_Series - Left View
 10
0.0
 20
0.0
 30
0.0
  0
INSERT
  5
153
330
70
100
AcDbEntity
  8
0
100
AcDbBlockReference
  2
Shower_Arm-DXV-Oak_Hill-D35700316_Series - Front View
 10
0.0
 20
0.0
 30
0.0
  0
INSERT
  5
165
330
70
100
AcDbEntity
  8
0
100
AcDbBlockReference
  2
Shower_Arm-DXV-Oak_Hill-D35700316_Series - Top View
 10
0.0
 20
0.0
 30
0.0
  0
ENDSEC
  0
SECTION
  2
OBJECTS
  0
DICTIONARY
  5
C
330
0
100
AcDbDictionary
281
     1
  3
ACAD_CIP_PREVIOUS_PRODUCT_INFO
350
79
  3
ACAD_COLOR
350
63
  3
ACAD_DETAILVIEWSTYLE
350
6A
  3
ACAD_GROUP
350
D
  3
ACAD_IMAGE_VARS
350
7A
  3
ACAD_LAYOUT
350
62
  3
ACAD_MATERIAL
350
10
  3
ACAD_MLEADERSTYLE
350
66
  3
ACAD_MLINESTYLE
350
5F
  3
ACAD_PLOTSETTINGS
350
61
  3
ACAD_PLOTSTYLENAME
350
E
  3
ACAD_SCALELIST
350
42
  3
ACAD_SECTIONVIEWSTYLE
350
68
  3
ACAD_TABLESTYLE
350
64
  3
ACAD_VISUALSTYLE
350
29
  3
ACDB_RECOMPOSE_DATA
350
19E
  3
AcDbVariableDictionary
350
99
  3
REVIT_DICTIONARY
350
93
  0
DICTIONARY
  5
97
330
70
100
AcDbDictionary
280
     1
281
     1
  3
ACAD_SORTENTS
360
98
  0
XRECORD
  5
79
102
{ACAD_REACTORS
330
C
102
}
330
C
100
AcDbXrecord
280
     1
300
ACD
300
2019
300

  0
DICTIONARY
  5
63
102
{ACAD_REACTORS
330
C
102
}
330
C
100
AcDbDictionary
281
     1
  0
DICTIONARY
  5
6A
102
{ACAD_REACTORS
330
C
102
}
330
C
100
AcDbDictionary
281
     1
  3
Imperial24
350
6B
  0
DICTIONARY
  5
D
102
{ACAD_REACTORS
330
C
102
}
330
C
100
AcDbDictionary
281
     1
  0
RASTERVARIABLES
  5
7A
102
{ACAD_REACTORS
330
C
102
}
330
C
100
AcDbRasterVariables
 90
        0
 70
     0
 71
     1
 72
     5
  0
DICTIONARY
  5
62
102
{ACAD_REACTORS
330
C
102
}
330
C
100
AcDbDictionary
281
     1
  3
Layout1
350
6F
  3
Layout2
350
77
  3
Model
350
73
  0
DICTIONARY
  5
10
102
{ACAD_REACTORS
330
C
102
}
330
C
100
AcDbDictionary
281
     1
  3
ByBlock
350
19
  3
ByLayer
350
11
  3
Global
350
21
  0
DICTIONARY
  5
66
102
{ACAD_REACTORS
330
C
102
}
330
C
100
AcDbDictionary
281
     1
  3
Standard
350
67
  0
DICTIONARY
  5
5F
102
{ACAD_REACTORS
330
C
102
}
330
C
100
AcDbDictionary
281
     1
  3
Standard
350
60
  0
DICTIONARY
  5
61
102
{ACAD_REACTORS
330
C
102
}
330
C
100
AcDbDictionary
281
     1
  0
ACDBDICTIONARYWDFLT
  5
E
102
{ACAD_REACTORS
330
C
102
}
330
C
100
AcDbDictionary
281
     1
  3
Normal
350
F
100
AcDbDictionaryWithDefault
340
F
  0
DICTIONARY
  5
42
102
{ACAD_REACTORS
330
C
102
}
330
C
100
AcDbDictionary
281
     1
  3
A0
350
43
  3
A1
350
44
  3
A2
350
45
  3
A3
350
46
  3
A4
350
47
  3
A5
350
48
  3
A6
350
49
  3
A7
350
4A
  3
A8
350
4B
  3
A9
350
4C
  3
B0
350
4D
  3
B1
350
4E
  3
B2
350
4F
  3
B3
350
50
  3
B4
350
51
  3
B5
350
52
  3
B6
350
53
  0
DICTIONARY
  5
68
102
{ACAD_REACTORS
330
C
102
}
330
C
100
AcDbDictionary
281
     1
  3
Imperial24
350
69
  0
DICTIONARY
  5
64
102
{ACAD_REACTORS
330
C
102
}
330
C
100
AcDbDictionary
281
     1
  3
Standard
350
65
  0
DICTIONARY
  5
29
102
{ACAD_REACTORS
330
C
102
}
330
C
100
AcDbDictionary
281
     1
  3
2dWireframe
350
2F
  3
Basic
350
2E
  3
Brighten
350
35
  3
ColorChange
350
39
  3
Conceptual
350
32
  3
Dim
350
34
  3
EdgeColorOff
350
41
  3
Facepattern
350
38
  3
Flat
350
2A
  3
FlatWithEdges
350
2B
  3
Gouraud
350
2C
  3
GouraudWithEdges
350
2D
  3
Hidden
350
31
  3
JitterOff
350
3F
  3
Linepattern
350
37
  3
OverhangOff
350
40
  3
Realistic
350
33
  3
Shaded
350
3E
  3
Shaded with edges
350
3D
  3
Shades of Gray
350
3A
  3
Sketchy
350
3B
  3
Thicken
350
36
  3
Wireframe
350
30
  3
X-Ray
350
3C
  0
XRECORD
  5
19E
102
{ACAD_REACTORS
330
C
102
}
330
C
100
AcDbXrecord
280
     1
 90
        1
330
65
  0
DICTIONARY
  5
99
102
{ACAD_REACTORS
330
C
102
}
330
C
100
AcDbDictionary
281
     1
  3
CANNOSCALE
350
9E
  3
CMLEADERSTYLE
350
9B
  3
CTABLESTYLE
350
9A
  3
CVIEWDETAILSTYLE
350
9C
  3
CVIEWSECTIONSTYLE
350
9D
  0
DICTIONARY
  5
93
102
{ACAD_REACTORS
330
C
102
}
330
C
100
AcDbDictionary
281
     1
  3
DRAWING_TOOL
350
96
  3
REVIT_CATEGORY_MAPPING
350
94
  3
REVIT_SUB_CATEGORY_MAPPING
350
95
  0
SORTENTSTABLE
  5
98
102
{ACAD_REACTORS
330
97
102
}
330
97
100
AcDbSortentsTable
330
70
  0
ACDBDETAILVIEWSTYLE
  5
6B
102
{ACAD_XDICTIONARY
360
1D3
102
}
102
{ACAD_REACTORS
330
6A
102
}
330
6A
100
AcDbModelDocViewStyle
 70
     0
  3
Imperial24
290
     0
100
AcDbDetailViewStyle
 70
     0
 71
     0
 90
        3
 71
     1
340
55
 62
   256
 40
0.24
340
0
 62
   256
 40
0.24
300

 40
0.36
280
     3
 71
     2
340
5D
 90
       25
 62
   256
 71
     3
340
55
 62
   256
 40
0.24
 90
        1
 40
0.75
 90
        1
300
%<\AcVar ViewType \f "%tc1">% %<\AcVar ViewDetailId>%\PSCALE %<\AcVar ViewScale \f "%sn">%
 71
     4
340
5D
 90
       25
 62
   256
340
5D
 90
       25
 62
   256
280
     0
  0
LAYOUT
  5
6F
102
{ACAD_REACTORS
330
62
102
}
330
62
100
AcDbPlotSettings
  1

  2

  4

  6

 40
0.0
 41
0.0
 42
0.0
 43
0.0
 44
0.0
 45
0.0
 46
0.0
 47
0.0
 48
0.0
 49
0.0
140
0.0
141
0.0
142
1.0
143
1.0
 70
   688
 72
     0
 73
     0
 74
     5
  7

 75
    16
147
1.0
 76
     0
 77
     2
 78
   300
148
0.0
149
0.0
100
AcDbLayout
  1
Layout1
 70
     1
 71
     1
 10
0.0
 20
0.0
 11
12.0
 21
9.0
 12
0.0
 22
0.0
 32
0.0
 14
1.000000000000000E+20
 24
1.000000000000000E+20
 34
1.000000000000000E+20
 15
-1.000000000000000E+20
 25
-1.000000000000000E+20
 35
-1.000000000000000E+20
146
0.0
 13
0.0
 23
0.0
 33
0.0
 16
1.0
 26
0.0
 36
0.0
 17
0.0
 27
1.0
 37
0.0
 76
     0
330
6C
  0
LAYOUT
  5
77
102
{ACAD_REACTORS
330
62
102
}
330
62
100
AcDbPlotSettings
  1

  2

  4

  6

 40
0.0
 41
0.0
 42
0.0
 43
0.0
 44
0.0
 45
0.0
 46
0.0
 47
0.0
 48
0.0
 49
0.0
140
0.0
141
0.0
142
1.0
143
1.0
 70
   688
 72
     0
 73
     0
 74
     5
  7

 75
    16
147
1.0
 76
     0
 77
     2
 78
   300
148
0.0
149
0.0
100
AcDbLayout
  1
Layout2
 70
     1
 71
     2
 10
0.0
 20
0.0
 11
12.0
 21
9.0
 12
0.0
 22
0.0
 32
0.0
 14
0.0
 24
0.0
 34
0.0
 15
0.0
 25
0.0
 35
0.0
146
0.0
 13
0.0
 23
0.0
 33
0.0
 16
1.0
 26
0.0
 36
0.0
 17
0.0
 27
1.0
 37
0.0
 76
     0
330
74
  0
LAYOUT
  5
73
102
{ACAD_REACTORS
330
62
102
}
330
62
100
AcDbPlotSettings
  1

  2

  4

  6

 40
0.0
 41
0.0
 42
0.0
 43
0.0
 44
0.0
 45
0.0
 46
0.0
 47
0.0
 48
0.0
 49
0.0
140
0.0
141
0.0
142
1.0
143
1.0
 70
  1712
 72
     0
 73
     0
 74
     0
  7

 75
     0
147
1.0
 76
     0
 77
     2
 78
   300
148
0.0
149
0.0
100
AcDbLayout
  1
Model
 70
     1
 71
     0
 10
0.0
 20
0.0
 11
12.0
 21
9.0
 12
0.0
 22
0.0
 32
0.0
 14
0.0
 24
0.0
 34
0.0
 15
0.0
 25
0.0
 35
0.0
146
0.0
 13
0.0
 23
0.0
 33
0.0
 16
1.0
 26
0.0
 36
0.0
 17
0.0
 27
1.0
 37
0.0
 76
     0
330
70
331
57
  0
MATERIAL
  5
19
102
{ACAD_XDICTIONARY
360
1A
102
}
102
{ACAD_REACTORS
330
10
102
}
330
10
100
AcDbMaterial
  1
ByBlock
 72
     0
 43
0.0208333333333333
 43
0.0
 43
0.0
 43
0.0
 43
0.0
 43
0.0208333333333333
 43
0.0
 43
0.0
 43
0.0
 43
0.0
 43
1.0
 43
0.0
 43
0.0
 43
0.0
 43
0.0
 43
1.0
 77
     0
 47
0.0208333333333333
 47
0.0
 47
0.0
 47
0.0
 47
0.0
 47
0.0208333333333333
 47
0.0
 47
0.0
 47
0.0
 47
0.0
 47
1.0
 47
0.0
 47
0.0
 47
0.0
 47
0.0
 47
1.0
171
     0
 49
0.0208333333333333
 49
0.0
 49
0.0
 49
0.0
 49
0.0
 49
0.0208333333333333
 49
0.0
 49
0.0
 49
0.0
 49
0.0
 49
1.0
 49
0.0
 49
0.0
 49
0.0
 49
0.0
 49
1.0
175
     0
142
0.0208333333333333
142
0.0
142
0.0
142
0.0
142
0.0
142
0.0208333333333333
142
0.0
142
0.0
142
0.0
142
0.0
142
1.0
142
0.0
142
0.0
142
0.0
142
0.0
142
1.0
179
     0
144
0.0208333333333333
144
0.0
144
0.0
144
0.0
144
0.0
144
0.0208333333333333
144
0.0
144
0.0
144
0.0
144
0.0
144
1.0
144
0.0
144
0.0
144
0.0
144
0.0
144
1.0
147
0.0208333333333333
147
0.0
147
0.0
147
0.0
147
0.0
147
0.0208333333333333
147
0.0
147
0.0
147
0.0
147
0.0
147
1.0
147
0.0
147
0.0
147
0.0
147
0.0
147
1.0
  0
MATERIAL
  5
11
102
{ACAD_XDICTIONARY
360
12
102
}
102
{ACAD_REACTORS
330
10
102
}
330
10
100
AcDbMaterial
  1
ByLayer
 72
     0
 43
0.0208333333333333
 43
0.0
 43
0.0
 43
0.0
 43
0.0
 43
0.0208333333333333
 43
0.0
 43
0.0
 43
0.0
 43
0.0
 43
1.0
 43
0.0
 43
0.0
 43
0.0
 43
0.0
 43
1.0
 77
     0
 47
0.0208333333333333
 47
0.0
 47
0.0
 47
0.0
 47
0.0
 47
0.0208333333333333
 47
0.0
 47
0.0
 47
0.0
 47
0.0
 47
1.0
 47
0.0
 47
0.0
 47
0.0
 47
0.0
 47
1.0
171
     0
 49
0.0208333333333333
 49
0.0
 49
0.0
 49
0.0
 49
0.0
 49
0.0208333333333333
 49
0.0
 49
0.0
 49
0.0
 49
0.0
 49
1.0
 49
0.0
 49
0.0
 49
0.0
 49
0.0
 49
1.0
175
     0
142
0.0208333333333333
142
0.0
142
0.0
142
0.0
142
0.0
142
0.0208333333333333
142
0.0
142
0.0
142
0.0
142
0.0
142
1.0
142
0.0
142
0.0
142
0.0
142
0.0
142
1.0
179
     0
144
0.0208333333333333
144
0.0
144
0.0
144
0.0
144
0.0
144
0.0208333333333333
144
0.0
144
0.0
144
0.0
144
0.0
144
1.0
144
0.0
144
0.0
144
0.0
144
0.0
144
1.0
147
0.0208333333333333
147
0.0
147
0.0
147
0.0
147
0.0
147
0.0208333333333333
147
0.0
147
0.0
147
0.0
147
0.0
147
1.0
147
0.0
147
0.0
147
0.0
147
0.0
147
1.0
  0
MATERIAL
  5
21
102
{ACAD_XDICTIONARY
360
22
102
}
102
{ACAD_REACTORS
330
10
102
}
330
10
100
AcDbMaterial
  1
Global
 72
     0
 43
0.0208333333333333
 43
0.0
 43
0.0
 43
0.0
 43
0.0
 43
0.0208333333333333
 43
0.0
 43
0.0
 43
0.0
 43
0.0
 43
1.0
 43
0.0
 43
0.0
 43
0.0
 43
0.0
 43
1.0
 77
     0
 47
0.0208333333333333
 47
0.0
 47
0.0
 47
0.0
 47
0.0
 47
0.0208333333333333
 47
0.0
 47
0.0
 47
0.0
 47
0.0
 47
1.0
 47
0.0
 47
0.0
 47
0.0
 47
0.0
 47
1.0
171
     0
 49
0.0208333333333333
 49
0.0
 49
0.0
 49
0.0
 49
0.0
 49
0.0208333333333333
 49
0.0
 49
0.0
 49
0.0
 49
0.0
 49
1.0
 49
0.0
 49
0.0
 49
0.0
 49
0.0
 49
1.0
175
     0
142
0.0208333333333333
142
0.0
142
0.0
142
0.0
142
0.0
142
0.0208333333333333
142
0.0
142
0.0
142
0.0
142
0.0
142
1.0
142
0.0
142
0.0
142
0.0
142
0.0
142
1.0
179
     0
144
0.0208333333333333
144
0.0
144
0.0
144
0.0
144
0.0
144
0.0208333333333333
144
0.0
144
0.0
144
0.0
144
0.0
144
1.0
144
0.0
144
0.0
144
0.0
144
0.0
144
1.0
147
0.0208333333333333
147
0.0
147
0.0
147
0.0
147
0.0
147
0.0208333333333333
147
0.0
147
0.0
147
0.0
147
0.0
147
1.0
147
0.0
147
0.0
147
0.0
147
0.0
147
1.0
  0
MLEADERSTYLE
  5
67
102
{ACAD_XDICTIONARY
360
1CF
102
}
102
{ACAD_REACTORS
330
66
102
}
330
66
100
AcDbMLeaderStyle
179
     2
170
     2
171
     1
172
     0
 90
        2
 40
0.0
 41
0.0
173
     1
 91
-1056964608
340
5B
 92
       -2
290
     1
 42
0.09
291
     1
 43
0.36
  3
Standard
 44
0.18
300

342
55
174
     1
178
     6
175
     1
176
     0
 93
-1056964608
 45
0.18
292
     0
297
     0
 46
0.18
 94
-1056964608
 47
1.0
 49
1.0
140
1.0
293
     1
141
0.0
294
     1
177
     0
142
1.0
295
     0
296
     0
143
0.125
271
     0
272
     9
273
     9
  0
MLINESTYLE
  5
60
102
{ACAD_REACTORS
330
5F
102
}
330
5F
100
AcDbMlineStyle
  2
STANDARD
 70
     0
  3

 62
   256
 51
90.0
 52
90.0
 71
     2
 49
0.5
 62
   256
  6
BYLAYER
 49
-0.5
 62
   256
  6
BYLAYER
  0
ACDBPLACEHOLDER
  5
F
102
{ACAD_REACTORS
330
E
102
}
330
E
  0
SCALE
  5
43
102
{ACAD_REACTORS
330
42
102
}
330
42
100
AcDbScale
 70
     0
300
1:1
140
1.0
141
1.0
290
     1
  0
SCALE
  5
44
102
{ACAD_REACTORS
330
42
102
}
330
42
100
AcDbScale
 70
     0
300
1/128" = 1'-0"
140
0.0078125
141
12.0
290
     0
  0
SCALE
  5
45
102
{ACAD_REACTORS
330
42
102
}
330
42
100
AcDbScale
 70
     0
300
1/64" = 1'-0"
140
0.015625
141
12.0
290
     0
  0
SCALE
  5
46
102
{ACAD_REACTORS
330
42
102
}
330
42
100
AcDbScale
 70
     0
300
1/32" = 1'-0"
140
0.03125
141
12.0
290
     0
  0
SCALE
  5
47
102
{ACAD_REACTORS
330
42
102
}
330
42
100
AcDbScale
 70
     0
300
1/16" = 1'-0"
140
0.0625
141
12.0
290
     0
  0
SCALE
  5
48
102
{ACAD_REACTORS
330
42
102
}
330
42
100
AcDbScale
 70
     0
300
3/32" = 1'-0"
140
0.09375
141
12.0
290
     0
  0
SCALE
  5
49
102
{ACAD_REACTORS
330
42
102
}
330
42
100
AcDbScale
 70
     0
300
1/8" = 1'-0"
140
0.125
141
12.0
290
     0
  0
SCALE
  5
4A
102
{ACAD_REACTORS
330
42
102
}
330
42
100
AcDbScale
 70
     0
300
3/16" = 1'-0"
140
0.1875
141
12.0
290
     0
  0
SCALE
  5
4B
102
{ACAD_REACTORS
330
42
102
}
330
42
100
AcDbScale
 70
     0
300
1/4" = 1'-0"
140
0.25
141
12.0
290
     0
  0
SCALE
  5
4C
102
{ACAD_REACTORS
330
42
102
}
330
42
100
AcDbScale
 70
     0
300
3/8" = 1'-0"
140
0.375
141
12.0
290
     0
  0
SCALE
  5
4D
102
{ACAD_REACTORS
330
42
102
}
330
42
100
AcDbScale
 70
     0
300
1/2" = 1'-0"
140
0.5
141
12.0
290
     0
  0
SCALE
  5
4E
102
{ACAD_REACTORS
330
42
102
}
330
42
100
AcDbScale
 70
     0
300
3/4" = 1'-0"
140
0.75
141
12.0
290
     0
  0
SCALE
  5
4F
102
{ACAD_REACTORS
330
42
102
}
330
42
100
AcDbScale
 70
     0
300
1" = 1'-0"
140
1.0
141
12.0
290
     0
  0
SCALE
  5
50
102
{ACAD_REACTORS
330
42
102
}
330
42
100
AcDbScale
 70
     0
300
1-1/2" = 1'-0"
140
1.5
141
12.0
290
     0
  0
SCALE
  5
51
102
{ACAD_REACTORS
330
42
102
}
330
42
100
AcDbScale
 70
     0
300
3" = 1'-0"
140
3.0
141
12.0
290
     0
  0
SCALE
  5
52
102
{ACAD_REACTORS
330
42
102
}
330
42
100
AcDbScale
 70
     0
300
6" = 1'-0"
140
6.0
141
12.0
290
     0
  0
SCALE
  5
53
102
{ACAD_REACTORS
330
42
102
}
330
42
100
AcDbScale
 70
     0
300
1'-0" = 1'-0"
140
12.0
141
12.0
290
     0
  0
ACDBSECTIONVIEWSTYLE
  5
69
102
{ACAD_XDICTIONARY
360
1D1
102
}
102
{ACAD_REACTORS
330
68
102
}
330
68
100
AcDbModelDocViewStyle
 70
     0
  3
Imperial24
290
     0
100
AcDbSectionViewStyle
 70
     0
 71
     0
 90
       78
 71
     1
340
55
 62
   256
 40
0.24
340
0
340
0
 62
   256
 40
0.24
300
I, O, Q, S, X, Z
 40
0.48
 90
        3
 40
0.18
 90
        1
 71
     2
340
5D
 90
       25
 62
   256
340
5D
 90
       50
 62
   256
 40
0.24
 40
0.0
 40
0.24
 71
     3
340
55
 62
   256
 40
0.24
 90
        1
 40
0.75
 90
        1
300
%<\AcVar ViewType \f "%tc1">% %<\AcVar ViewSectionStartId>%-%<\AcVar ViewSectionEndId>%\PSCALE %<\AcVar ViewScale \f "%sn">%
 71
     4
 62
   256
 62
   257
300
ANSI31
 40
1.0
 90
        0
290
     0
290
     0
 90
        6
 40
0.0
 40
1.570796326794896
 40
0.2617993877991494
 40
1.308996938995747
 40
-0.2617993877991494
 40
1.832595714594046
  0
TABLESTYLE
  5
65
102
{ACAD_XDICTIONARY
360
19C
102
}
102
{ACAD_REACTORS
330
64
102
}
330
64
100
AcDbTableStyle
280
     0
  3
Standard
 70
     0
 71
     0
 40
0.06
 41
0.06
280
     0
281
     0
  7
Standard
140
0.18
170
     2
 62
     0
 63
     7
283
     0
 90
      512
 91
        0
  1

274
    -2
284
     1
 64
     0
275
    -2
285
     1
 65
     0
276
    -2
286
     1
 66
     0
277
    -2
287
     1
 67
     0
278
    -2
288
     1
 68
     0
279
    -2
289
     1
 69
     0
  7
Standard
140
0.25
170
     5
 62
     0
 63
     7
283
     0
 90
      512
 91
        0
  1

274
    -2
284
     1
 64
     0
275
    -2
285
     1
 65
     0
276
    -2
286
     1
 66
     0
277
    -2
287
     1
 67
     0
278
    -2
288
     1
 68
     0
279
    -2
289
     1
 69
     0
  7
Standard
140
0.18
170
     5
 62
     0
 63
     7
283
     0
 90
      512
 91
        0
  1

274
    -2
284
     1
 64
     0
275
    -2
285
     1
 65
     0
276
    -2
286
     1
 66
     0
277
    -2
287
     1
 67
     0
278
    -2
288
     1
 68
     0
279
    -2
289
     1
 69
     0
  0
VISUALSTYLE
  5
2F
102
{ACAD_XDICTIONARY
360
1A9
102
}
102
{ACAD_REACTORS
330
29
102
}
330
29
100
AcDbVisualStyle
  2
2dWireframe
 70
     4
177
     2
291
     0
 71
     0
176
     1
 72
     2
176
     1
 73
     0
176
     1
 90
        0
176
     1
 40
0.6
176
     1
 41
30.0
176
     1
 63
     7
421
 16777215
176
     1
 74
     1
176
     1
 91
        4
176
     1
 64
     7
176
     1
 65
   257
176
     1
 75
     1
176
     1
175
     1
176
     1
 42
1.0
176
     1
 92
        0
176
     1
 66
   257
176
     1
 43
1.0
176
     1
 76
     1
176
     1
 77
     6
176
     1
 78
     2
176
     1
 67
     7
176
     1
 79
     5
176
     1
170
     0
176
     1
171
     0
176
     1
290
     0
176
     1
 93
        1
176
     1
 44
0.0
176
     1
173
     0
176
     1
1001
ACAD
1000
AcDbSavedByObjectVersion
1070
     0
  0
VISUALSTYLE
  5
2E
102
{ACAD_XDICTIONARY
360
1A7
102
}
102
{ACAD_REACTORS
330
29
102
}
330
29
100
AcDbVisualStyle
  2
Basic
 70
     7
177
     2
291
     1
 71
     1
176
     1
 72
     0
176
     1
 73
     1
176
     1
 90
        0
176
     1
 40
0.6
176
     1
 41
30.0
176
     1
 63
     7
421
 16777215
176
     1
 74
     0
176
     1
 91
        4
176
     1
 64
     7
176
     1
 65
   257
176
     1
 75
     1
176
     1
175
     1
176
     1
 42
1.0
176
     1
 92
        8
176
     1
 66
     7
176
     1
 43
1.0
176
     1
 76
     1
176
     1
 77
     6
176
     1
 78
     2
176
     1
 67
     7
176
     1
 79
     5
176
     1
170
     0
176
     1
171
     0
176
     1
290
     0
176
     1
 93
        1
176
     1
 44
0.0
176
     1
173
     0
176
     1
1001
ACAD
1000
AcDbSavedByObjectVersion
1070
     0
  0
VISUALSTYLE
  5
35
102
{ACAD_XDICTIONARY
360
1B5
102
}
102
{ACAD_REACTORS
330
29
102
}
330
29
100
AcDbVisualStyle
  2
Brighten
 70
    12
177
     2
291
     1
 71
     2
176
     1
 72
     2
176
     1
 73
     0
176
     1
 90
        0
176
     1
 40
0.6
176
     1
 41
30.0
176
     1
 63
     7
421
 16777215
176
     1
 74
     1
176
     1
 91
        4
176
     1
 64
     7
176
     1
 65
   257
176
     1
 75
     1
176
     1
175
     1
176
     1
 42
1.0
176
     1
 92
        8
176
     1
 66
     7
176
     1
 43
1.0
176
     1
 76
     1
176
     1
 77
     6
176
     1
 78
     2
176
     1
 67
     7
176
     1
 79
     5
176
     1
170
     0
176
     1
171
     0
176
     1
290
     0
176
     1
 93
        1
176
     1
 44
50.0
176
     1
173
     0
176
     1
1001
ACAD
1000
AcDbSavedByObjectVersion
1070
     0
  0
VISUALSTYLE
  5
39
102
{ACAD_XDICTIONARY
360
1BD
102
}
102
{ACAD_REACTORS
330
29
102
}
330
29
100
AcDbVisualStyle
  2
ColorChange
 70
    16
177
     2
291
     1
 71
     2
176
     1
 72
     2
176
     1
 73
     3
176
     1
 90
        0
176
     1
 40
0.6
176
     1
 41
30.0
176
     1
 63
     8
421
  8421504
176
     1
 74
     1
176
     1
 91
        4
176
     1
 64
     7
176
     1
 65
   257
176
     1
 75
     1
176
     1
175
     1
176
     1
 42
1.0
176
     1
 92
        8
176
     1
 66
     8
424
  8421504
176
     1
 43
1.0
176
     1
 76
     1
176
     1
 77
     6
176
     1
 78
     2
176
     1
 67
     7
176
     1
 79
     5
176
     1
170
     0
176
     1
171
     0
176
     1
290
     0
176
     1
 93
        1
176
     1
 44
0.0
176
     1
173
     0
176
     1
1001
ACAD
1000
AcDbSavedByObjectVersion
1070
     0
  0
VISUALSTYLE
  5
32
102
{ACAD_XDICTIONARY
360
1AF
102
}
102
{ACAD_REACTORS
330
29
102
}
330
29
100
AcDbVisualStyle
  2
Conceptual
 70
     9
177
     2
291
     0
 71
     3
176
     1
 72
     2
176
     1
 73
     0
176
     1
 90
        0
176
     1
 40
0.6
176
     1
 41
30.0
176
     1
 63
     7
421
 16777215
176
     1
 74
     2
176
     1
 91
        2
176
     1
 64
     7
176
     1
 65
   257
176
     1
 75
     1
176
     1
175
     1
176
     1
 42
179.0
176
     1
 92
        8
176
     1
 66
     7
176
     1
 43
1.0
176
     1
 76
     1
176
     1
 77
     6
176
     1
 78
     2
176
     1
 67
     7
176
     1
 79
     3
176
     1
170
     0
176
     1
171
     0
176
     1
290
     0
176
     1
 93
        1
176
     1
 44
0.0
176
     1
173
     0
176
     1
1001
ACAD
1000
AcDbSavedByObjectVersion
1070
     0
  0
VISUALSTYLE
  5
34
102
{ACAD_XDICTIONARY
360
1B3
102
}
102
{ACAD_REACTORS
330
29
102
}
330
29
100
AcDbVisualStyle
  2
Dim
 70
    11
177
     2
291
     1
 71
     2
176
     1
 72
     2
176
     1
 73
     0
176
     1
 90
        0
176
     1
 40
0.6
176
     1
 41
30.0
176
     1
 63
     7
421
 16777215
176
     1
 74
     1
176
     1
 91
        4
176
     1
 64
     7
176
     1
 65
   257
176
     1
 75
     1
176
     1
175
     1
176
     1
 42
1.0
176
     1
 92
        8
176
     1
 66
     7
176
     1
 43
1.0
176
     1
 76
     1
176
     1
 77
     6
176
     1
 78
     2
176
     1
 67
     7
176
     1
 79
     5
176
     1
170
     0
176
     1
171
     0
176
     1
290
     0
176
     1
 93
        1
176
     1
 44
-50.0
176
     1
173
     0
176
     1
1001
ACAD
1000
AcDbSavedByObjectVersion
1070
     0
  0
VISUALSTYLE
  5
41
102
{ACAD_XDICTIONARY
360
1CD
102
}
102
{ACAD_REACTORS
330
29
102
}
330
29
100
AcDbVisualStyle
  2
EdgeColorOff
 70
    22
177
     2
291
     1
 71
     2
176
     0
 72
     2
176
     0
 73
     0
176
     0
 90
        0
176
     0
 40
0.6
176
     0
 41
30.0
176
     0
 63
     7
421
 16777215
176
     0
 74
     1
176
     0
 91
        4
176
     0
 64
     7
176
     0
 65
   257
176
     0
 75
     1
176
     0
175
     1
176
     0
 42
1.0
176
     0
 92
        8
176
     2
 66
     7
176
     0
 43
1.0
176
     0
 76
     1
176
     0
 77
     6
176
     0
 78
     2
176
     0
 67
     7
176
     0
 79
     5
176
     0
170
     0
176
     0
171
     0
176
     0
290
     0
176
     0
 93
        1
176
     0
 44
0.0
176
     0
173
     0
176
     0
1001
ACAD
1000
AcDbSavedByObjectVersion
1070
     0
  0
VISUALSTYLE
  5
38
102
{ACAD_XDICTIONARY
360
1BB
102
}
102
{ACAD_REACTORS
330
29
102
}
330
29
100
AcDbVisualStyle
  2
Facepattern
 70
    15
177
     2
291
     1
 71
     2
176
     1
 72
     2
176
     1
 73
     0
176
     1
 90
        0
176
     1
 40
0.6
176
     1
 41
30.0
176
     1
 63
     7
421
 16777215
176
     1
 74
     1
176
     1
 91
        4
176
     1
 64
     7
176
     1
 65
   257
176
     1
 75
     1
176
     1
175
     1
176
     1
 42
1.0
176
     1
 92
        8
176
     1
 66
     7
176
     1
 43
1.0
176
     1
 76
     1
176
     1
 77
     6
176
     1
 78
     2
176
     1
 67
     7
176
     1
 79
     5
176
     1
170
     0
176
     1
171
     0
176
     1
290
     0
176
     1
 93
        1
176
     1
 44
0.0
176
     1
173
     0
176
     1
1001
ACAD
1000
AcDbSavedByObjectVersion
1070
     0
  0
VISUALSTYLE
  5
2A
102
{ACAD_XDICTIONARY
360
19F
102
}
102
{ACAD_REACTORS
330
29
102
}
330
29
100
AcDbVisualStyle
  2
Flat
 70
     0
177
     2
291
     1
 71
     2
176
     1
 72
     1
176
     1
 73
     1
176
     1
 90
        2
176
     1
 40
0.6
176
     1
 41
30.0
176
     1
 63
     7
421
 16777215
176
     1
 74
     0
176
     1
 91
        0
176
     1
 64
     7
176
     1
 65
   257
176
     1
 75
     1
176
     1
175
     1
176
     1
 42
1.0
176
     1
 92
        8
176
     1
 66
     7
176
     1
 43
1.0
176
     1
 76
     1
176
     1
 77
     6
176
     1
 78
     2
176
     1
 67
     7
176
     1
 79
     5
176
     1
170
     0
176
     1
171
     0
176
     1
290
     0
176
     1
 93
       13
176
     1
 44
0.0
176
     1
173
     0
176
     1
1001
ACAD
1000
AcDbSavedByObjectVersion
1070
     0
  0
VISUALSTYLE
  5
2B
102
{ACAD_XDICTIONARY
360
1A1
102
}
102
{ACAD_REACTORS
330
29
102
}
330
29
100
AcDbVisualStyle
  2
FlatWithEdges
 70
     1
177
     2
291
     1
 71
     2
176
     1
 72
     1
176
     1
 73
     1
176
     1
 90
        2
176
     1
 40
0.6
176
     1
 41
30.0
176
     1
 63
     7
421
 16777215
176
     1
 74
     1
176
     1
 91
        0
176
     1
 64
     7
176
     1
 65
   257
176
     1
 75
     1
176
     1
175
     1
176
     1
 42
1.0
176
     1
 92
        0
176
     1
 66
   257
176
     1
 43
1.0
176
     1
 76
     1
176
     1
 77
     6
176
     1
 78
     2
176
     1
 67
     7
176
     1
 79
     5
176
     1
170
     0
176
     1
171
     0
176
     1
290
     0
176
     1
 93
       13
176
     1
 44
0.0
176
     1
173
     0
176
     1
1001
ACAD
1000
AcDbSavedByObjectVersion
1070
     0
  0
VISUALSTYLE
  5
2C
102
{ACAD_XDICTIONARY
360
1A3
102
}
102
{ACAD_REACTORS
330
29
102
}
330
29
100
AcDbVisualStyle
  2
Gouraud
 70
     2
177
     2
291
     1
 71
     2
176
     1
 72
     2
176
     1
 73
     1
176
     1
 90
        2
176
     1
 40
0.6
176
     1
 41
30.0
176
     1
 63
     7
421
 16777215
176
     1
 74
     0
176
     1
 91
        0
176
     1
 64
     7
176
     1
 65
   257
176
     1
 75
     1
176
     1
175
     1
176
     1
 42
1.0
176
     1
 92
        0
176
     1
 66
     7
176
     1
 43
1.0
176
     1
 76
     1
176
     1
 77
     6
176
     1
 78
     2
176
     1
 67
     7
176
     1
 79
     5
176
     1
170
     0
176
     1
171
     0
176
     1
290
     0
176
     1
 93
       13
176
     1
 44
0.0
176
     1
173
     0
176
     1
1001
ACAD
1000
AcDbSavedByObjectVersion
1070
     0
  0
VISUALSTYLE
  5
2D
102
{ACAD_XDICTIONARY
360
1A5
102
}
102
{ACAD_REACTORS
330
29
102
}
330
29
100
AcDbVisualStyle
  2
GouraudWithEdges
 70
     3
177
     2
291
     1
 71
     2
176
     1
 72
     2
176
     1
 73
     1
176
     1
 90
        2
176
     1
 40
0.6
176
     1
 41
30.0
176
     1
 63
     7
421
 16777215
176
     1
 74
     1
176
     1
 91
        0
176
     1
 64
     7
176
     1
 65
   257
176
     1
 75
     1
176
     1
175
     1
176
     1
 42
1.0
176
     1
 92
        0
176
     1
 66
   257
176
     1
 43
1.0
176
     1
 76
     1
176
     1
 77
     6
176
     1
 78
     2
176
     1
 67
     7
176
     1
 79
     5
176
     1
170
     0
176
     1
171
     0
176
     1
290
     0
176
     1
 93
       13
176
     1
 44
0.0
176
     1
173
     0
176
     1
1001
ACAD
1000
AcDbSavedByObjectVersion
1070
     0
  0
VISUALSTYLE
  5
31
102
{ACAD_XDICTIONARY
360
1AD
102
}
102
{ACAD_REACTORS
330
29
102
}
330
29
100
AcDbVisualStyle
  2
Hidden
 70
     6
177
     2
291
     0
 71
     1
176
     1
 72
     2
176
     1
 73
     2
176
     1
 90
        0
176
     1
 40
0.6
176
     1
 41
30.0
176
     1
 63
     7
421
 16777215
176
     1
 74
     2
176
     1
 91
        2
176
     1
 64
     7
176
     1
 65
   257
176
     1
 75
     2
176
     1
175
     1
176
     1
 42
40.0
176
     1
 92
        0
176
     1
 66
   257
176
     1
 43
1.0
176
     1
 76
     1
176
     1
 77
     6
176
     1
 78
     2
176
     1
 67
     7
176
     1
 79
     3
176
     1
170
     0
176
     1
171
     0
176
     1
290
     0
176
     1
 93
        1
176
     1
 44
0.0
176
     1
173
     0
176
     1
1001
ACAD
1000
AcDbSavedByObjectVersion
1070
     0
  0
VISUALSTYLE
  5
3F
102
{ACAD_XDICTIONARY
360
1C9
102
}
102
{ACAD_REACTORS
330
29
102
}
330
29
100
AcDbVisualStyle
  2
JitterOff
 70
    20
177
     2
291
     1
 71
     2
176
     0
 72
     2
176
     0
 73
     0
176
     0
 90
        0
176
     0
 40
0.6
176
     0
 41
30.0
176
     0
 63
     7
421
 16777215
176
     0
 74
     1
176
     0
 91
        4
176
     0
 64
     7
176
     0
 65
   257
176
     0
 75
     1
176
     0
175
     1
176
     0
 42
1.0
176
     0
 92
       10
176
     2
 66
     7
176
     0
 43
1.0
176
     0
 76
     1
176
     0
 77
     6
176
     0
 78
     2
176
     0
 67
     7
176
     0
 79
     5
176
     0
170
     0
176
     0
171
     0
176
     0
290
     0
176
     0
 93
        1
176
     0
 44
0.0
176
     0
173
     0
176
     0
1001
ACAD
1000
AcDbSavedByObjectVersion
1070
     0
  0
VISUALSTYLE
  5
37
102
{ACAD_XDICTIONARY
360
1B9
102
}
102
{ACAD_REACTORS
330
29
102
}
330
29
100
AcDbVisualStyle
  2
Linepattern
 70
    14
177
     2
291
     1
 71
     2
176
     1
 72
     2
176
     1
 73
     0
176
     1
 90
        0
176
     1
 40
0.6
176
     1
 41
30.0
176
     1
 63
     7
421
 16777215
176
     1
 74
     1
176
     1
 91
        4
176
     1
 64
     7
176
     1
 65
   257
176
     1
 75
     7
176
     1
175
     7
176
     1
 42
1.0
176
     1
 92
        8
176
     1
 66
     7
176
     1
 43
1.0
176
     1
 76
     1
176
     1
 77
     6
176
     1
 78
     2
176
     1
 67
     7
176
     1
 79
     5
176
     1
170
     0
176
     1
171
     0
176
     1
290
     0
176
     1
 93
        1
176
     1
 44
0.0
176
     1
173
     0
176
     1
1001
ACAD
1000
AcDbSavedByObjectVersion
1070
     0
  0
VISUALSTYLE
  5
40
102
{ACAD_XDICTIONARY
360
1CB
102
}
102
{ACAD_REACTORS
330
29
102
}
330
29
100
AcDbVisualStyle
  2
OverhangOff
 70
    21
177
     2
291
     1
 71
     2
176
     0
 72
     2
176
     0
 73
     0
176
     0
 90
        0
176
     0
 40
0.6
176
     0
 41
30.0
176
     0
 63
     7
421
 16777215
176
     0
 74
     1
176
     0
 91
        4
176
     0
 64
     7
176
     0
 65
   257
176
     0
 75
     1
176
     0
175
     1
176
     0
 42
1.0
176
     0
 92
        9
176
     2
 66
     7
176
     0
 43
1.0
176
     0
 76
     1
176
     0
 77
     6
176
     0
 78
     2
176
     0
 67
     7
176
     0
 79
     5
176
     0
170
     0
176
     0
171
     0
176
     0
290
     0
176
     0
 93
        1
176
     0
 44
0.0
176
     0
173
     0
176
     0
1001
ACAD
1000
AcDbSavedByObjectVersion
1070
     0
  0
VISUALSTYLE
  5
33
102
{ACAD_XDICTIONARY
360
1B1
102
}
102
{ACAD_REACTORS
330
29
102
}
330
29
100
AcDbVisualStyle
  2
Realistic
 70
     8
177
     2
291
     0
 71
     2
176
     1
 72
     3
176
     1
 73
     0
176
     1
 90
        2
176
     1
 40
0.6
176
     1
 41
30.0
176
     1
 63
     7
421
 16777215
176
     1
 74
     0
176
     1
 91
        0
176
     1
 64
     7
176
     1
 65
   257
176
     1
 75
     1
176
     1
175
     1
176
     1
 42
1.0
176
     1
 92
        8
176
     1
 66
   257
176
     1
 43
1.0
176
     1
 76
     1
176
     1
 77
     6
176
     1
 78
     2
176
     1
 67
     7
176
     1
 79
     3
176
     1
170
     0
176
     1
171
     0
176
     1
290
     0
176
     1
 93
       13
176
     1
 44
0.0
176
     1
173
     0
176
     1
1001
ACAD
1000
AcDbSavedByObjectVersion
1070
     0
  0
VISUALSTYLE
  5
3E
102
{ACAD_XDICTIONARY
360
1C7
102
}
102
{ACAD_REACTORS
330
29
102
}
330
29
100
AcDbVisualStyle
  2
Shaded
 70
    27
177
     2
291
     0
 71
     2
176
     1
 72
     2
176
     1
 73
     1
176
     1
 90
        2
176
     1
 40
0.6
176
     1
 41
30.0
176
     1
 63
     7
421
 16777215
176
     1
 74
     0
176
     1
 91
        4
176
     1
 64
     7
176
     1
 65
   257
176
     1
 75
     1
176
     1
175
     1
176
     1
 42
1.0
176
     1
 92
        8
176
     1
 66
   257
176
     1
 43
1.0
176
     1
 76
     1
176
     1
 77
     6
176
     1
 78
     2
176
     1
 67
     8
425
  7895160
176
     1
 79
     3
176
     1
170
     0
176
     1
171
     0
176
     1
290
     0
176
     1
 93
        5
176
     1
 44
0.0
176
     1
173
     0
176
     1
1001
ACAD
1000
AcDbSavedByObjectVersion
1070
     0
  0
VISUALSTYLE
  5
3D
102
{ACAD_XDICTIONARY
360
1C5
102
}
102
{ACAD_REACTORS
330
29
102
}
330
29
100
AcDbVisualStyle
  2
Shaded with edges
 70
    26
177
     2
291
     0
 71
     2
176
     1
 72
     2
176
     1
 73
     1
176
     1
 90
        2
176
     1
 40
0.6
176
     1
 41
30.0
176
     1
 63
     7
421
 16777215
176
     1
 74
     1
176
     1
 91
        2
176
     1
 64
     7
176
     1
 65
   257
176
     1
 75
     2
176
     1
175
     1
176
     1
 42
1.0
176
     1
 92
        8
176
     1
 66
   257
176
     1
 43
1.0
176
     1
 76
     1
176
     1
 77
     6
176
     1
 78
     2
176
     1
 67
     7
176
     1
 79
     3
176
     1
170
     0
176
     1
171
     0
176
     1
290
     0
176
     1
 93
        5
176
     1
 44
0.0
176
     1
173
     0
176
     1
1001
ACAD
1000
AcDbSavedByObjectVersion
1070
     0
  0
VISUALSTYLE
  5
3A
102
{ACAD_XDICTIONARY
360
1BF
102
}
102
{ACAD_REACTORS
330
29
102
}
330
29
100
AcDbVisualStyle
  2
Shades of Gray
 70
    23
177
     2
291
     0
 71
     2
176
     1
 72
     2
176
     1
 73
     3
176
     1
 90
        0
176
     1
 40
0.6
176
     1
 41
30.0
176
     1
 63
     7
421
 16777215
176
     1
 74
     2
176
     1
 91
        2
176
     1
 64
     7
176
     1
 65
     7
176
     1
 75
     1
176
     1
175
     1
176
     1
 42
40.0
176
     1
 92
        8
176
     1
 66
     7
176
     1
 43
1.0
176
     1
 76
     1
176
     1
 77
     6
176
     1
 78
     2
176
     1
 67
     7
176
     1
 79
     3
176
     1
170
     0
176
     1
171
     0
176
     1
290
     0
176
     1
 93
        1
176
     1
 44
0.0
176
     1
173
     0
176
     1
1001
ACAD
1000
AcDbSavedByObjectVersion
1070
     0
  0
VISUALSTYLE
  5
3B
102
{ACAD_XDICTIONARY
360
1C1
102
}
102
{ACAD_REACTORS
330
29
102
}
330
29
100
AcDbVisualStyle
  2
Sketchy
 70
    24
177
     2
291
     0
 71
     1
176
     1
 72
     2
176
     1
 73
     2
176
     1
 90
        0
176
     1
 40
0.6
176
     1
 41
30.0
176
     1
 63
     7
421
 16777215
176
     1
 74
     2
176
     1
 91
        2
176
     1
 64
     7
176
     1
 65
     7
176
     1
 75
     1
176
     1
175
     1
176
     1
 42
40.0
176
     1
 92
       11
176
     1
 66
     7
176
     1
 43
1.0
176
     1
 76
     1
176
     1
 77
     6
176
     1
 78
     2
176
     1
 67
     7
176
     1
 79
     6
176
     1
170
     0
176
     1
171
     0
176
     1
290
     0
176
     1
 93
        1
176
     1
 44
0.0
176
     1
173
     0
176
     1
1001
ACAD
1000
AcDbSavedByObjectVersion
1070
     0
  0
VISUALSTYLE
  5
36
102
{ACAD_XDICTIONARY
360
1B7
102
}
102
{ACAD_REACTORS
330
29
102
}
330
29
100
AcDbVisualStyle
  2
Thicken
 70
    13
177
     2
291
     1
 71
     2
176
     1
 72
     2
176
     1
 73
     0
176
     1
 90
        0
176
     1
 40
0.6
176
     1
 41
30.0
176
     1
 63
     7
421
 16777215
176
     1
 74
     1
176
     1
 91
        4
176
     1
 64
     7
176
     1
 65
   257
176
     1
 75
     1
176
     1
175
     1
176
     1
 42
1.0
176
     1
 92
       12
176
     1
 66
     7
176
     1
 43
1.0
176
     1
 76
     1
176
     1
 77
     6
176
     1
 78
     2
176
     1
 67
     7
176
     1
 79
     5
176
     1
170
     0
176
     1
171
     0
176
     1
290
     0
176
     1
 93
        1
176
     1
 44
0.0
176
     1
173
     0
176
     1
1001
ACAD
1000
AcDbSavedByObjectVersion
1070
     0
  0
VISUALSTYLE
  5
30
102
{ACAD_XDICTIONARY
360
1AB
102
}
102
{ACAD_REACTORS
330
29
102
}
330
29
100
AcDbVisualStyle
  2
Wireframe
 70
     5
177
     2
291
     0
 71
     0
176
     1
 72
     2
176
     1
 73
     0
176
     1
 90
        0
176
     1
 40
0.6
176
     1
 41
30.0
176
     1
 63
     7
421
 16777215
176
     1
 74
     1
176
     1
 91
        4
176
     1
 64
     7
176
     1
 65
   257
176
     1
 75
     1
176
     1
175
     1
176
     1
 42
1.0
176
     1
 92
        0
176
     1
 66
   257
176
     1
 43
1.0
176
     1
 76
     1
176
     1
 77
     6
176
     1
 78
     2
176
     1
 67
     7
176
     1
 79
     3
176
     1
170
     0
176
     1
171
     0
176
     1
290
     0
176
     1
 93
        1
176
     1
 44
0.0
176
     1
173
     0
176
     1
1001
ACAD
1000
AcDbSavedByObjectVersion
1070
     0
  0
VISUALSTYLE
  5
3C
102
{ACAD_XDICTIONARY
360
1C3
102
}
102
{ACAD_REACTORS
330
29
102
}
330
29
100
AcDbVisualStyle
  2
X-Ray
 70
    25
177
     2
291
     0
 71
     2
176
     1
 72
     2
176
     1
 73
     1
176
     1
 90
        1
176
     1
 40
0.5
176
     1
 41
30.0
176
     1
 63
     7
421
 16777215
176
     1
 74
     1
176
     1
 91
        0
176
     1
 64
     7
176
     1
 65
   257
176
     1
 75
     1
176
     1
175
     1
176
     1
 42
1.0
176
     1
 92
        8
176
     1
 66
     7
176
     1
 43
1.0
176
     1
 76
     1
176
     1
 77
     6
176
     1
 78
     2
176
     1
 67
     7
176
     1
 79
     3
176
     1
170
     0
176
     1
171
     0
176
     1
290
     0
176
     1
 93
       13
176
     1
 44
0.0
176
     1
173
     0
176
     1
1001
ACAD
1000
AcDbSavedByObjectVersion
1070
     0
  0
DICTIONARYVAR
  5
9E
102
{ACAD_REACTORS
330
99
102
}
330
99
100
DictionaryVariables
280
     0
  1
1:1
  0
DICTIONARYVAR
  5
9B
102
{ACAD_REACTORS
330
99
102
}
330
99
100
DictionaryVariables
280
     0
  1
STANDARD
  0
DICTIONARYVAR
  5
9A
102
{ACAD_REACTORS
330
99
102
}
330
99
100
DictionaryVariables
280
     0
  1
STANDARD
  0
DICTIONARYVAR
  5
9C
102
{ACAD_REACTORS
330
99
102
}
330
99
100
DictionaryVariables
280
     0
  1
Imperial24
  0
DICTIONARYVAR
  5
9D
102
{ACAD_REACTORS
330
99
102
}
330
99
100
DictionaryVariables
280
     0
  1
Imperial24
  0
XRECORD
  5
96
102
{ACAD_REACTORS
330
93
102
}
330
93
100
AcDbXrecord
280
     1
  1
BUILDING_ID
  1
Shower_Arm-DXV-Oak_Hill-D35700316_Series
  1
FLOOR_ID
  1
1884
  0
XRECORD
  5
94
102
{ACAD_REACTORS
330
93
102
}
330
93
100
AcDbXrecord
280
     1
  1
-2000051
  1
Lines
  1
-2001160
  1
Plumbing Fixtures
  0
XRECORD
  5
95
102
{ACAD_REACTORS
330
93
102
}
330
93
100
AcDbXrecord
280
     1
  1
-2000287
  1
<Beyond>
  0
DICTIONARY
  5
1D3
330
6B
100
AcDbDictionary
280
     1
281
     1
  3
ACAD_XREC_ROUNDTRIP
360
1D4
  0
DICTIONARY
  5
1A
330
19
100
AcDbDictionary
280
     1
281
     1
  3
BUMPTILE
360
1C
  3
DIFFUSETILE
360
1B
  3
OPACITYTILE
360
1F
  3
REFLECTIONTILE
360
1E
  3
REFRACTIONTILE
360
20
  3
SPECULARTILE
360
1D
  0
DICTIONARY
  5
12
330
11
100
AcDbDictionary
280
     1
281
     1
  3
BUMPTILE
360
14
  3
DIFFUSETILE
360
13
  3
OPACITYTILE
360
17
  3
REFLECTIONTILE
360
16
  3
REFRACTIONTILE
360
18
  3
SPECULARTILE
360
15
  0
DICTIONARY
  5
22
330
21
100
AcDbDictionary
280
     1
281
     1
  3
BUMPTILE
360
24
  3
DIFFUSETILE
360
23
  3
OPACITYTILE
360
27
  3
REFLECTIONTILE
360
26
  3
REFRACTIONTILE
360
28
  3
SPECULARTILE
360
25
  0
DICTIONARY
  5
1CF
330
67
100
AcDbDictionary
280
     1
281
     1
  3
ACAD_XREC_ROUNDTRIP
360
1D0
  0
DICTIONARY
  5
1D1
330
69
100
AcDbDictionary
280
     1
281
     1
  3
ACAD_XREC_ROUNDTRIP
360
1D2
  0
DICTIONARY
  5
19C
330
65
100
AcDbDictionary
280
     1
281
     1
  3
ACAD_ROUNDTRIP_2008_TABLESTYLE_CELLSTYLEMAP
360
19D
  0
DICTIONARY
  5
1A9
330
2F
100
AcDbDictionary
280
     1
281
     1
  3
ACAD_XREC_ROUNDTRIP
360
1AA
  0
DICTIONARY
  5
1A7
330
2E
100
AcDbDictionary
280
     1
281
     1
  3
ACAD_XREC_ROUNDTRIP
360
1A8
  0
DICTIONARY
  5
1B5
330
35
100
AcDbDictionary
280
     1
281
     1
  3
ACAD_XREC_ROUNDTRIP
360
1B6
  0
DICTIONARY
  5
1BD
330
39
100
AcDbDictionary
280
     1
281
     1
  3
ACAD_XREC_ROUNDTRIP
360
1BE
  0
DICTIONARY
  5
1AF
330
32
100
AcDbDictionary
280
     1
281
     1
  3
ACAD_XREC_ROUNDTRIP
360
1B0
  0
DICTIONARY
  5
1B3
330
34
100
AcDbDictionary
280
     1
281
     1
  3
ACAD_XREC_ROUNDTRIP
360
1B4
  0
DICTIONARY
  5
1CD
330
41
100
AcDbDictionary
280
     1
281
     1
  3
ACAD_XREC_ROUNDTRIP
360
1CE
  0
DICTIONARY
  5
1BB
330
38
100
AcDbDictionary
280
     1
281
     1
  3
ACAD_XREC_ROUNDTRIP
360
1BC
  0
DICTIONARY
  5
19F
330
2A
100
AcDbDictionary
280
     1
281
     1
  3
ACAD_XREC_ROUNDTRIP
360
1A0
  0
DICTIONARY
  5
1A1
330
2B
100
AcDbDictionary
280
     1
281
     1
  3
ACAD_XREC_ROUNDTRIP
360
1A2
  0
DICTIONARY
  5
1A3
330
2C
100
AcDbDictionary
280
     1
281
     1
  3
ACAD_XREC_ROUNDTRIP
360
1A4
  0
DICTIONARY
  5
1A5
330
2D
100
AcDbDictionary
280
     1
281
     1
  3
ACAD_XREC_ROUNDTRIP
360
1A6
  0
DICTIONARY
  5
1AD
330
31
100
AcDbDictionary
280
     1
281
     1
  3
ACAD_XREC_ROUNDTRIP
360
1AE
  0
DICTIONARY
  5
1C9
330
3F
100
AcDbDictionary
280
     1
281
     1
  3
ACAD_XREC_ROUNDTRIP
360
1CA
  0
DICTIONARY
  5
1B9
330
37
100
AcDbDictionary
280
     1
281
     1
  3
ACAD_XREC_ROUNDTRIP
360
1BA
  0
DICTIONARY
  5
1CB
330
40
100
AcDbDictionary
280
     1
281
     1
  3
ACAD_XREC_ROUNDTRIP
360
1CC
  0
DICTIONARY
  5
1B1
330
33
100
AcDbDictionary
280
     1
281
     1
  3
ACAD_XREC_ROUNDTRIP
360
1B2
  0
DICTIONARY
  5
1C7
330
3E
100
AcDbDictionary
280
     1
281
     1
  3
ACAD_XREC_ROUNDTRIP
360
1C8
  0
DICTIONARY
  5
1C5
330
3D
100
AcDbDictionary
280
     1
281
     1
  3
ACAD_XREC_ROUNDTRIP
360
1C6
  0
DICTIONARY
  5
1BF
330
3A
100
AcDbDictionary
280
     1
281
     1
  3
ACAD_XREC_ROUNDTRIP
360
1C0
  0
DICTIONARY
  5
1C1
330
3B
100
AcDbDictionary
280
     1
281
     1
  3
ACAD_XREC_ROUNDTRIP
360
1C2
  0
DICTIONARY
  5
1B7
330
36
100
AcDbDictionary
280
     1
281
     1
  3
ACAD_XREC_ROUNDTRIP
360
1B8
  0
DICTIONARY
  5
1AB
330
30
100
AcDbDictionary
280
     1
281
     1
  3
ACAD_XREC_ROUNDTRIP
360
1AC
  0
DICTIONARY
  5
1C3
330
3C
100
AcDbDictionary
280
     1
281
     1
  3
ACAD_XREC_ROUNDTRIP
360
1C4
  0
XRECORD
  5
1D4
102
{ACAD_REACTORS
330
1D3
102
}
330
1D3
100
AcDbXrecord
280
     1
102
DISPLAYNAME
  1
Imperial24
102
FLAGS
 90
        0
  0
XRECORD
  5
1C
102
{ACAD_REACTORS
330
1A
102
}
330
1A
100
AcDbXrecord
280
     1
270
     1
271
     1
  0
XRECORD
  5
1B
102
{ACAD_REACTORS
330
1A
102
}
330
1A
100
AcDbXrecord
280
     1
270
     1
271
     1
  0
XRECORD
  5
1F
102
{ACAD_REACTORS
330
1A
102
}
330
1A
100
AcDbXrecord
280
     1
270
     1
271
     1
  0
XRECORD
  5
1E
102
{ACAD_REACTORS
330
1A
102
}
330
1A
100
AcDbXrecord
280
     1
270
     1
271
     1
  0
XRECORD
  5
20
102
{ACAD_REACTORS
330
1A
102
}
330
1A
100
AcDbXrecord
280
     1
270
     1
271
     1
  0
XRECORD
  5
1D
102
{ACAD_REACTORS
330
1A
102
}
330
1A
100
AcDbXrecord
280
     1
270
     1
271
     1
  0
XRECORD
  5
14
102
{ACAD_REACTORS
330
12
102
}
330
12
100
AcDbXrecord
280
     1
270
     1
271
     1
  0
XRECORD
  5
13
102
{ACAD_REACTORS
330
12
102
}
330
12
100
AcDbXrecord
280
     1
270
     1
271
     1
  0
XRECORD
  5
17
102
{ACAD_REACTORS
330
12
102
}
330
12
100
AcDbXrecord
280
     1
270
     1
271
     1
  0
XRECORD
  5
16
102
{ACAD_REACTORS
330
12
102
}
330
12
100
AcDbXrecord
280
     1
270
     1
271
     1
  0
XRECORD
  5
18
102
{ACAD_REACTORS
330
12
102
}
330
12
100
AcDbXrecord
280
     1
270
     1
271
     1
  0
XRECORD
  5
15
102
{ACAD_REACTORS
330
12
102
}
330
12
100
AcDbXrecord
280
     1
270
     1
271
     1
  0
XRECORD
  5
24
102
{ACAD_REACTORS
330
22
102
}
330
22
100
AcDbXrecord
280
     1
270
     1
271
     1
  0
XRECORD
  5
23
102
{ACAD_REACTORS
330
22
102
}
330
22
100
AcDbXrecord
280
     1
270
     1
271
     1
  0
XRECORD
  5
27
102
{ACAD_REACTORS
330
22
102
}
330
22
100
AcDbXrecord
280
     1
270
     1
271
     1
  0
XRECORD
  5
26
102
{ACAD_REACTORS
330
22
102
}
330
22
100
AcDbXrecord
280
     1
270
     1
271
     1
  0
XRECORD
  5
28
102
{ACAD_REACTORS
330
22
102
}
330
22
100
AcDbXrecord
280
     1
270
     1
271
     1
  0
XRECORD
  5
25
102
{ACAD_REACTORS
330
22
102
}
330
22
100
AcDbXrecord
280
     1
270
     1
271
     1
  0
XRECORD
  5
1D0
102
{ACAD_REACTORS
330
1CF
102
}
330
1CF
100
AcDbXrecord
280
     1
102
ACAD_ROUNDTRIP_2012_MLEADER_STYLE
298
     1
  0
XRECORD
  5
1D2
102
{ACAD_REACTORS
330
1D1
102
}
330
1D1
100
AcDbXrecord
280
     1
102
DISPLAYNAME
  1
Imperial24
102
FLAGS
 90
        0
  0
CELLSTYLEMAP
  5
19D
102
{ACAD_REACTORS
330
19C
102
}
330
19C
100
AcDbCellStyleMap
 90
        3
300
CELLSTYLE
  1
TABLEFORMAT_BEGIN
 90
        5
170
     1
 91
        0
 92
    32768
 62
   257
 93
        1
300
CONTENTFORMAT
  1
CONTENTFORMAT_BEGIN
 90
        0
 91
        0
 92
      512
 93
        0
300

 40
0.0
140
1.0
 94
        5
 62
     0
340
55
144
0.25
309
CONTENTFORMAT_END
171
     0
 94
        0
309
TABLEFORMAT_END
  1
CELLSTYLE_BEGIN
 90
        1
 91
        1
300
_TITLE
309
CELLSTYLE_END
300
CELLSTYLE
  1
TABLEFORMAT_BEGIN
 90
        5
170
     1
 91
        0
 92
        0
 62
   257
 93
        1
300
CONTENTFORMAT
  1
CONTENTFORMAT_BEGIN
 90
        0
 91
        0
 92
      512
 93
        0
300

 40
0.0
140
1.0
 94
        5
 62
     0
340
55
144
0.18
309
CONTENTFORMAT_END
171
     0
 94
        0
309
TABLEFORMAT_END
  1
CELLSTYLE_BEGIN
 90
        2
 91
        1
300
_HEADER
309
CELLSTYLE_END
300
CELLSTYLE
  1
TABLEFORMAT_BEGIN
 90
        5
170
     1
 91
        0
 92
        0
 62
   257
 93
        1
300
CONTENTFORMAT
  1
CONTENTFORMAT_BEGIN
 90
        0
 91
        0
 92
      512
 93
        0
300

 40
0.0
140
1.0
 94
        2
 62
     0
340
55
144
0.18
309
CONTENTFORMAT_END
171
     0
 94
        0
309
TABLEFORMAT_END
  1
CELLSTYLE_BEGIN
 90
        3
 91
        2
300
_DATA
309
CELLSTYLE_END
  0
XRECORD
  5
1AA
102
{ACAD_REACTORS
330
1A9
102
}
330
1A9
100
AcDbXrecord
280
     1
102
RTVSPost2010Prop28
280
     1
102
RTVSPost2010PropOp28
 70
     1
102
RTVSPost2010Prop29
280
     1
102
RTVSPost2010PropOp29
 70
     1
102
RTVSPost2010Prop30
280
     0
102
RTVSPost2010PropOp30
 70
     1
102
RTVSPost2010Prop31
280
     0
102
RTVSPost2010PropOp31
 70
     1
102
RTVSPost2010Prop32
280
     0
102
RTVSPost2010PropOp32
 70
     1
102
RTVSPost2010Prop33
280
     0
102
RTVSPost2010PropOp33
 70
     1
102
RTVSPost2010Prop34
280
     0
102
RTVSPost2010PropOp34
 70
     1
102
RTVSPost2010Prop35
280
     0
102
RTVSPost2010PropOp35
 70
     1
102
RTVSPost2010Prop36
280
     0
102
RTVSPost2010PropOp36
 70
     1
102
RTVSPost2010Prop37
 90
       50
102
RTVSPost2010PropOp37
 70
     1
102
RTVSPost2010Prop38
140
0.0
102
RTVSPost2010PropOp38
 70
     1
102
RTVSPost2010Prop39
140
1.0
102
RTVSPost2010PropOp39
 70
     1
102
RTVSPost2010Prop40
 90
        0
102
RTVSPost2010PropOp40
 70
     1
102
RTVSPost2010Prop41ColorIndex
 90
       18
102
RTVSPost2010Prop41ColorRGB
 90
        0
102
RTVSPost2010PropOp41
 70
     1
102
RTVSPost2010Prop42
 90
       50
102
RTVSPost2010PropOp42
 70
     1
102
RTVSPost2010Prop43
 90
        3
102
RTVSPost2010PropOp43
 70
     1
102
RTVSPost2010Prop44ColorIndex
 90
        5
102
RTVSPost2010Prop44ColorRGB
 90
      255
102
RTVSPost2010PropOp44
 70
     1
102
RTVSPost2010Prop45
280
     0
102
RTVSPost2010PropOp45
 70
     1
102
RTVSPost2010Prop46
 90
       50
102
RTVSPost2010PropOp46
 70
     1
102
RTVSPost2010Prop47
 90
       50
102
RTVSPost2010PropOp47
 70
     1
102
RTVSPost2010Prop48
 90
       50
102
RTVSPost2010PropOp48
 70
     1
102
RTVSPost2010Prop49
280
     0
102
RTVSPost2010PropOp49
 70
     1
102
RTVSPost2010Prop50
 90
       50
102
RTVSPost2010PropOp50
 70
     1
102
RTVSPost2010Prop51ColorIndex
 90
      256
102
RTVSPost2010Prop51ColorRGB
 90
-16777216
102
RTVSPost2010PropOp51
 70
     0
102
RTVSPost2010Prop52
140
1.0
102
RTVSPost2010PropOp52
 70
     0
102
RTVSPost2010Prop53
 90
        2
102
RTVSPost2010PropOp53
 70
     1
102
RTVSPost2010Prop54
  1
strokes_ogs.tif
102
RTVSPost2010PropOp54
 70
     1
102
RTVSPost2010Prop55
280
     0
102
RTVSPost2010PropOp55
 70
     1
102
RTVSPost2010Prop56
140
1.0
102
RTVSPost2010PropOp56
 70
     1
102
RTVSPost2010Prop57
140
1.0
102
RTVSPost2010PropOp57
 70
     1
  0
XRECORD
  5
1A8
102
{ACAD_REACTORS
330
1A7
102
}
330
1A7
100
AcDbXrecord
280
     1
102
RTVSPost2010Prop28
280
     0
102
RTVSPost2010PropOp28
 70
     1
102
RTVSPost2010Prop29
280
     1
102
RTVSPost2010PropOp29
 70
     1
102
RTVSPost2010Prop30
280
     1
102
RTVSPost2010PropOp30
 70
     1
102
RTVSPost2010Prop31
280
     0
102
RTVSPost2010PropOp31
 70
     1
102
RTVSPost2010Prop32
280
     0
102
RTVSPost2010PropOp32
 70
     1
102
RTVSPost2010Prop33
280
     0
102
RTVSPost2010PropOp33
 70
     1
102
RTVSPost2010Prop34
280
     0
102
RTVSPost2010PropOp34
 70
     1
102
RTVSPost2010Prop35
280
     0
102
RTVSPost2010PropOp35
 70
     1
102
RTVSPost2010Prop36
280
     0
102
RTVSPost2010PropOp36
 70
     1
102
RTVSPost2010Prop37
 90
       50
102
RTVSPost2010PropOp37
 70
     1
102
RTVSPost2010Prop38
140
0.0
102
RTVSPost2010PropOp38
 70
     1
102
RTVSPost2010Prop39
140
1.0
102
RTVSPost2010PropOp39
 70
     1
102
RTVSPost2010Prop40
 90
        0
102
RTVSPost2010PropOp40
 70
     1
102
RTVSPost2010Prop41ColorIndex
 90
       18
102
RTVSPost2010Prop41ColorRGB
 90
        0
102
RTVSPost2010PropOp41
 70
     1
102
RTVSPost2010Prop42
 90
       50
102
RTVSPost2010PropOp42
 70
     1
102
RTVSPost2010Prop43
 90
        3
102
RTVSPost2010PropOp43
 70
     1
102
RTVSPost2010Prop44ColorIndex
 90
        5
102
RTVSPost2010Prop44ColorRGB
 90
      255
102
RTVSPost2010PropOp44
 70
     1
102
RTVSPost2010Prop45
280
     0
102
RTVSPost2010PropOp45
 70
     1
102
RTVSPost2010Prop46
 90
       50
102
RTVSPost2010PropOp46
 70
     1
102
RTVSPost2010Prop47
 90
       50
102
RTVSPost2010PropOp47
 70
     1
102
RTVSPost2010Prop48
 90
       50
102
RTVSPost2010PropOp48
 70
     1
102
RTVSPost2010Prop49
280
     0
102
RTVSPost2010PropOp49
 70
     1
102
RTVSPost2010Prop50
 90
       50
102
RTVSPost2010PropOp50
 70
     1
102
RTVSPost2010Prop51ColorIndex
 90
      256
102
RTVSPost2010Prop51ColorRGB
 90
-16777216
102
RTVSPost2010PropOp51
 70
     0
102
RTVSPost2010Prop52
140
1.0
102
RTVSPost2010PropOp52
 70
     0
102
RTVSPost2010Prop53
 90
        2
102
RTVSPost2010PropOp53
 70
     1
102
RTVSPost2010Prop54
  1
strokes_ogs.tif
102
RTVSPost2010PropOp54
 70
     1
102
RTVSPost2010Prop55
280
     0
102
RTVSPost2010PropOp55
 70
     1
102
RTVSPost2010Prop56
140
1.0
102
RTVSPost2010PropOp56
 70
     1
102
RTVSPost2010Prop57
140
1.0
102
RTVSPost2010PropOp57
 70
     1
  0
XRECORD
  5
1B6
102
{ACAD_REACTORS
330
1B5
102
}
330
1B5
100
AcDbXrecord
280
     1
102
RTVSPost2010Prop28
280
     0
102
RTVSPost2010PropOp28
 70
     1
102
RTVSPost2010Prop29
280
     1
102
RTVSPost2010PropOp29
 70
     1
102
RTVSPost2010Prop30
280
     1
102
RTVSPost2010PropOp30
 70
     1
102
RTVSPost2010Prop31
280
     0
102
RTVSPost2010PropOp31
 70
     1
102
RTVSPost2010Prop32
280
     0
102
RTVSPost2010PropOp32
 70
     1
102
RTVSPost2010Prop33
280
     0
102
RTVSPost2010PropOp33
 70
     1
102
RTVSPost2010Prop34
280
     0
102
RTVSPost2010PropOp34
 70
     1
102
RTVSPost2010Prop35
280
     0
102
RTVSPost2010PropOp35
 70
     1
102
RTVSPost2010Prop36
280
     0
102
RTVSPost2010PropOp36
 70
     1
102
RTVSPost2010Prop37
 90
       50
102
RTVSPost2010PropOp37
 70
     1
102
RTVSPost2010Prop38
140
0.0
102
RTVSPost2010PropOp38
 70
     1
102
RTVSPost2010Prop39
140
1.0
102
RTVSPost2010PropOp39
 70
     1
102
RTVSPost2010Prop40
 90
        0
102
RTVSPost2010PropOp40
 70
     1
102
RTVSPost2010Prop41ColorIndex
 90
       18
102
RTVSPost2010Prop41ColorRGB
 90
        0
102
RTVSPost2010PropOp41
 70
     1
102
RTVSPost2010Prop42
 90
       50
102
RTVSPost2010PropOp42
 70
     1
102
RTVSPost2010Prop43
 90
        3
102
RTVSPost2010PropOp43
 70
     1
102
RTVSPost2010Prop44ColorIndex
 90
        5
102
RTVSPost2010Prop44ColorRGB
 90
      255
102
RTVSPost2010PropOp44
 70
     1
102
RTVSPost2010Prop45
280
     0
102
RTVSPost2010PropOp45
 70
     1
102
RTVSPost2010Prop46
 90
       50
102
RTVSPost2010PropOp46
 70
     1
102
RTVSPost2010Prop47
 90
       50
102
RTVSPost2010PropOp47
 70
     1
102
RTVSPost2010Prop48
 90
       50
102
RTVSPost2010PropOp48
 70
     1
102
RTVSPost2010Prop49
280
     0
102
RTVSPost2010PropOp49
 70
     1
102
RTVSPost2010Prop50
 90
       50
102
RTVSPost2010PropOp50
 70
     1
102
RTVSPost2010Prop51ColorIndex
 90
      256
102
RTVSPost2010Prop51ColorRGB
 90
-16777216
102
RTVSPost2010PropOp51
 70
     0
102
RTVSPost2010Prop52
140
1.0
102
RTVSPost2010PropOp52
 70
     0
102
RTVSPost2010Prop53
 90
        2
102
RTVSPost2010PropOp53
 70
     1
102
RTVSPost2010Prop54
  1
strokes_ogs.tif
102
RTVSPost2010PropOp54
 70
     1
102
RTVSPost2010Prop55
280
     0
102
RTVSPost2010PropOp55
 70
     1
102
RTVSPost2010Prop56
140
1.0
102
RTVSPost2010PropOp56
 70
     1
102
RTVSPost2010Prop57
140
1.0
102
RTVSPost2010PropOp57
 70
     1
  0
XRECORD
  5
1BE
102
{ACAD_REACTORS
330
1BD
102
}
330
1BD
100
AcDbXrecord
280
     1
102
RTVSPost2010Prop28
280
     0
102
RTVSPost2010PropOp28
 70
     1
102
RTVSPost2010Prop29
280
     1
102
RTVSPost2010PropOp29
 70
     1
102
RTVSPost2010Prop30
280
     1
102
RTVSPost2010PropOp30
 70
     1
102
RTVSPost2010Prop31
280
     0
102
RTVSPost2010PropOp31
 70
     1
102
RTVSPost2010Prop32
280
     0
102
RTVSPost2010PropOp32
 70
     1
102
RTVSPost2010Prop33
280
     0
102
RTVSPost2010PropOp33
 70
     1
102
RTVSPost2010Prop34
280
     0
102
RTVSPost2010PropOp34
 70
     1
102
RTVSPost2010Prop35
280
     0
102
RTVSPost2010PropOp35
 70
     1
102
RTVSPost2010Prop36
280
     0
102
RTVSPost2010PropOp36
 70
     1
102
RTVSPost2010Prop37
 90
       50
102
RTVSPost2010PropOp37
 70
     1
102
RTVSPost2010Prop38
140
0.0
102
RTVSPost2010PropOp38
 70
     1
102
RTVSPost2010Prop39
140
1.0
102
RTVSPost2010PropOp39
 70
     1
102
RTVSPost2010Prop40
 90
        0
102
RTVSPost2010PropOp40
 70
     1
102
RTVSPost2010Prop41ColorIndex
 90
       18
102
RTVSPost2010Prop41ColorRGB
 90
        0
102
RTVSPost2010PropOp41
 70
     1
102
RTVSPost2010Prop42
 90
       50
102
RTVSPost2010PropOp42
 70
     1
102
RTVSPost2010Prop43
 90
        3
102
RTVSPost2010PropOp43
 70
     1
102
RTVSPost2010Prop44ColorIndex
 90
        5
102
RTVSPost2010Prop44ColorRGB
 90
      255
102
RTVSPost2010PropOp44
 70
     1
102
RTVSPost2010Prop45
280
     0
102
RTVSPost2010PropOp45
 70
     1
102
RTVSPost2010Prop46
 90
       50
102
RTVSPost2010PropOp46
 70
     1
102
RTVSPost2010Prop47
 90
       50
102
RTVSPost2010PropOp47
 70
     1
102
RTVSPost2010Prop48
 90
       50
102
RTVSPost2010PropOp48
 70
     1
102
RTVSPost2010Prop49
280
     0
102
RTVSPost2010PropOp49
 70
     1
102
RTVSPost2010Prop50
 90
       50
102
RTVSPost2010PropOp50
 70
     1
102
RTVSPost2010Prop51ColorIndex
 90
      256
102
RTVSPost2010Prop51ColorRGB
 90
-16777216
102
RTVSPost2010PropOp51
 70
     0
102
RTVSPost2010Prop52
140
1.0
102
RTVSPost2010PropOp52
 70
     0
102
RTVSPost2010Prop53
 90
        2
102
RTVSPost2010PropOp53
 70
     1
102
RTVSPost2010Prop54
  1
strokes_ogs.tif
102
RTVSPost2010PropOp54
 70
     1
102
RTVSPost2010Prop55
280
     0
102
RTVSPost2010PropOp55
 70
     1
102
RTVSPost2010Prop56
140
1.0
102
RTVSPost2010PropOp56
 70
     1
102
RTVSPost2010Prop57
140
1.0
102
RTVSPost2010PropOp57
 70
     1
  0
XRECORD
  5
1B0
102
{ACAD_REACTORS
330
1AF
102
}
330
1AF
100
AcDbXrecord
280
     1
102
RTVSPost2010Prop28
280
     0
102
RTVSPost2010PropOp28
 70
     1
102
RTVSPost2010Prop29
280
     1
102
RTVSPost2010PropOp29
 70
     1
102
RTVSPost2010Prop30
280
     1
102
RTVSPost2010PropOp30
 70
     1
102
RTVSPost2010Prop31
280
     0
102
RTVSPost2010PropOp31
 70
     1
102
RTVSPost2010Prop32
280
     0
102
RTVSPost2010PropOp32
 70
     1
102
RTVSPost2010Prop33
280
     0
102
RTVSPost2010PropOp33
 70
     1
102
RTVSPost2010Prop34
280
     0
102
RTVSPost2010PropOp34
 70
     1
102
RTVSPost2010Prop35
280
     0
102
RTVSPost2010PropOp35
 70
     1
102
RTVSPost2010Prop36
280
     0
102
RTVSPost2010PropOp36
 70
     1
102
RTVSPost2010Prop37
 90
       50
102
RTVSPost2010PropOp37
 70
     1
102
RTVSPost2010Prop38
140
0.0
102
RTVSPost2010PropOp38
 70
     1
102
RTVSPost2010Prop39
140
1.0
102
RTVSPost2010PropOp39
 70
     1
102
RTVSPost2010Prop40
 90
        0
102
RTVSPost2010PropOp40
 70
     1
102
RTVSPost2010Prop41ColorIndex
 90
       18
102
RTVSPost2010Prop41ColorRGB
 90
        0
102
RTVSPost2010PropOp41
 70
     1
102
RTVSPost2010Prop42
 90
       50
102
RTVSPost2010PropOp42
 70
     1
102
RTVSPost2010Prop43
 90
        3
102
RTVSPost2010PropOp43
 70
     1
102
RTVSPost2010Prop44ColorIndex
 90
        5
102
RTVSPost2010Prop44ColorRGB
 90
      255
102
RTVSPost2010PropOp44
 70
     1
102
RTVSPost2010Prop45
280
     0
102
RTVSPost2010PropOp45
 70
     1
102
RTVSPost2010Prop46
 90
       50
102
RTVSPost2010PropOp46
 70
     1
102
RTVSPost2010Prop47
 90
       50
102
RTVSPost2010PropOp47
 70
     1
102
RTVSPost2010Prop48
 90
       50
102
RTVSPost2010PropOp48
 70
     1
102
RTVSPost2010Prop49
280
     0
102
RTVSPost2010PropOp49
 70
     1
102
RTVSPost2010Prop50
 90
       50
102
RTVSPost2010PropOp50
 70
     1
102
RTVSPost2010Prop51ColorIndex
 90
      256
102
RTVSPost2010Prop51ColorRGB
 90
-16777216
102
RTVSPost2010PropOp51
 70
     0
102
RTVSPost2010Prop52
140
1.0
102
RTVSPost2010PropOp52
 70
     0
102
RTVSPost2010Prop53
 90
        2
102
RTVSPost2010PropOp53
 70
     1
102
RTVSPost2010Prop54
  1
strokes_ogs.tif
102
RTVSPost2010PropOp54
 70
     1
102
RTVSPost2010Prop55
280
     0
102
RTVSPost2010PropOp55
 70
     1
102
RTVSPost2010Prop56
140
1.0
102
RTVSPost2010PropOp56
 70
     1
102
RTVSPost2010Prop57
140
1.0
102
RTVSPost2010PropOp57
 70
     1
  0
XRECORD
  5
1B4
102
{ACAD_REACTORS
330
1B3
102
}
330
1B3
100
AcDbXrecord
280
     1
102
RTVSPost2010Prop28
280
     0
102
RTVSPost2010PropOp28
 70
     1
102
RTVSPost2010Prop29
280
     1
102
RTVSPost2010PropOp29
 70
     1
102
RTVSPost2010Prop30
280
     1
102
RTVSPost2010PropOp30
 70
     1
102
RTVSPost2010Prop31
280
     0
102
RTVSPost2010PropOp31
 70
     1
102
RTVSPost2010Prop32
280
     0
102
RTVSPost2010PropOp32
 70
     1
102
RTVSPost2010Prop33
280
     0
102
RTVSPost2010PropOp33
 70
     1
102
RTVSPost2010Prop34
280
     0
102
RTVSPost2010PropOp34
 70
     1
102
RTVSPost2010Prop35
280
     0
102
RTVSPost2010PropOp35
 70
     1
102
RTVSPost2010Prop36
280
     0
102
RTVSPost2010PropOp36
 70
     1
102
RTVSPost2010Prop37
 90
       50
102
RTVSPost2010PropOp37
 70
     1
102
RTVSPost2010Prop38
140
0.0
102
RTVSPost2010PropOp38
 70
     1
102
RTVSPost2010Prop39
140
1.0
102
RTVSPost2010PropOp39
 70
     1
102
RTVSPost2010Prop40
 90
        0
102
RTVSPost2010PropOp40
 70
     1
102
RTVSPost2010Prop41ColorIndex
 90
       18
102
RTVSPost2010Prop41ColorRGB
 90
        0
102
RTVSPost2010PropOp41
 70
     1
102
RTVSPost2010Prop42
 90
       50
102
RTVSPost2010PropOp42
 70
     1
102
RTVSPost2010Prop43
 90
        3
102
RTVSPost2010PropOp43
 70
     1
102
RTVSPost2010Prop44ColorIndex
 90
        5
102
RTVSPost2010Prop44ColorRGB
 90
      255
102
RTVSPost2010PropOp44
 70
     1
102
RTVSPost2010Prop45
280
     0
102
RTVSPost2010PropOp45
 70
     1
102
RTVSPost2010Prop46
 90
       50
102
RTVSPost2010PropOp46
 70
     1
102
RTVSPost2010Prop47
 90
       50
102
RTVSPost2010PropOp47
 70
     1
102
RTVSPost2010Prop48
 90
       50
102
RTVSPost2010PropOp48
 70
     1
102
RTVSPost2010Prop49
280
     0
102
RTVSPost2010PropOp49
 70
     1
102
RTVSPost2010Prop50
 90
       50
102
RTVSPost2010PropOp50
 70
     1
102
RTVSPost2010Prop51ColorIndex
 90
      256
102
RTVSPost2010Prop51ColorRGB
 90
-16777216
102
RTVSPost2010PropOp51
 70
     0
102
RTVSPost2010Prop52
140
1.0
102
RTVSPost2010PropOp52
 70
     0
102
RTVSPost2010Prop53
 90
        2
102
RTVSPost2010PropOp53
 70
     1
102
RTVSPost2010Prop54
  1
strokes_ogs.tif
102
RTVSPost2010PropOp54
 70
     1
102
RTVSPost2010Prop55
280
     0
102
RTVSPost2010PropOp55
 70
     1
102
RTVSPost2010Prop56
140
1.0
102
RTVSPost2010PropOp56
 70
     1
102
RTVSPost2010Prop57
140
1.0
102
RTVSPost2010PropOp57
 70
     1
  0
XRECORD
  5
1CE
102
{ACAD_REACTORS
330
1CD
102
}
330
1CD
100
AcDbXrecord
280
     1
102
RTVSPost2010Prop28
280
     0
102
RTVSPost2010PropOp28
 70
     0
102
RTVSPost2010Prop29
280
     1
102
RTVSPost2010PropOp29
 70
     0
102
RTVSPost2010Prop30
280
     1
102
RTVSPost2010PropOp30
 70
     0
102
RTVSPost2010Prop31
280
     0
102
RTVSPost2010PropOp31
 70
     0
102
RTVSPost2010Prop32
280
     0
102
RTVSPost2010PropOp32
 70
     0
102
RTVSPost2010Prop33
280
     0
102
RTVSPost2010PropOp33
 70
     0
102
RTVSPost2010Prop34
280
     0
102
RTVSPost2010PropOp34
 70
     0
102
RTVSPost2010Prop35
280
     0
102
RTVSPost2010PropOp35
 70
     0
102
RTVSPost2010Prop36
280
     0
102
RTVSPost2010PropOp36
 70
     0
102
RTVSPost2010Prop37
 90
       50
102
RTVSPost2010PropOp37
 70
     0
102
RTVSPost2010Prop38
140
0.0
102
RTVSPost2010PropOp38
 70
     0
102
RTVSPost2010Prop39
140
1.0
102
RTVSPost2010PropOp39
 70
     0
102
RTVSPost2010Prop40
 90
        0
102
RTVSPost2010PropOp40
 70
     0
102
RTVSPost2010Prop41ColorIndex
 90
       18
102
RTVSPost2010Prop41ColorRGB
 90
        0
102
RTVSPost2010PropOp41
 70
     0
102
RTVSPost2010Prop42
 90
       50
102
RTVSPost2010PropOp42
 70
     0
102
RTVSPost2010Prop43
 90
        3
102
RTVSPost2010PropOp43
 70
     0
102
RTVSPost2010Prop44ColorIndex
 90
        5
102
RTVSPost2010Prop44ColorRGB
 90
      255
102
RTVSPost2010PropOp44
 70
     0
102
RTVSPost2010Prop45
280
     0
102
RTVSPost2010PropOp45
 70
     0
102
RTVSPost2010Prop46
 90
       50
102
RTVSPost2010PropOp46
 70
     0
102
RTVSPost2010Prop47
 90
       50
102
RTVSPost2010PropOp47
 70
     0
102
RTVSPost2010Prop48
 90
       50
102
RTVSPost2010PropOp48
 70
     0
102
RTVSPost2010Prop49
280
     0
102
RTVSPost2010PropOp49
 70
     0
102
RTVSPost2010Prop50
 90
       50
102
RTVSPost2010PropOp50
 70
     0
102
RTVSPost2010Prop51ColorIndex
 90
      256
102
RTVSPost2010Prop51ColorRGB
 90
-16777216
102
RTVSPost2010PropOp51
 70
     0
102
RTVSPost2010Prop52
140
1.0
102
RTVSPost2010PropOp52
 70
     0
102
RTVSPost2010Prop53
 90
        2
102
RTVSPost2010PropOp53
 70
     0
102
RTVSPost2010Prop54
  1
strokes_ogs.tif
102
RTVSPost2010PropOp54
 70
     0
102
RTVSPost2010Prop55
280
     0
102
RTVSPost2010PropOp55
 70
     0
102
RTVSPost2010Prop56
140
1.0
102
RTVSPost2010PropOp56
 70
     0
102
RTVSPost2010Prop57
140
1.0
102
RTVSPost2010PropOp57
 70
     0
  0
XRECORD
  5
1BC
102
{ACAD_REACTORS
330
1BB
102
}
330
1BB
100
AcDbXrecord
280
     1
102
RTVSPost2010Prop28
280
     0
102
RTVSPost2010PropOp28
 70
     1
102
RTVSPost2010Prop29
280
     1
102
RTVSPost2010PropOp29
 70
     1
102
RTVSPost2010Prop30
280
     1
102
RTVSPost2010PropOp30
 70
     1
102
RTVSPost2010Prop31
280
     0
102
RTVSPost2010PropOp31
 70
     1
102
RTVSPost2010Prop32
280
     0
102
RTVSPost2010PropOp32
 70
     1
102
RTVSPost2010Prop33
280
     0
102
RTVSPost2010PropOp33
 70
     1
102
RTVSPost2010Prop34
280
     0
102
RTVSPost2010PropOp34
 70
     1
102
RTVSPost2010Prop35
280
     0
102
RTVSPost2010PropOp35
 70
     1
102
RTVSPost2010Prop36
280
     0
102
RTVSPost2010PropOp36
 70
     1
102
RTVSPost2010Prop37
 90
       50
102
RTVSPost2010PropOp37
 70
     1
102
RTVSPost2010Prop38
140
0.0
102
RTVSPost2010PropOp38
 70
     1
102
RTVSPost2010Prop39
140
1.0
102
RTVSPost2010PropOp39
 70
     1
102
RTVSPost2010Prop40
 90
        0
102
RTVSPost2010PropOp40
 70
     1
102
RTVSPost2010Prop41ColorIndex
 90
       18
102
RTVSPost2010Prop41ColorRGB
 90
        0
102
RTVSPost2010PropOp41
 70
     1
102
RTVSPost2010Prop42
 90
       50
102
RTVSPost2010PropOp42
 70
     1
102
RTVSPost2010Prop43
 90
        3
102
RTVSPost2010PropOp43
 70
     1
102
RTVSPost2010Prop44ColorIndex
 90
        5
102
RTVSPost2010Prop44ColorRGB
 90
      255
102
RTVSPost2010PropOp44
 70
     1
102
RTVSPost2010Prop45
280
     0
102
RTVSPost2010PropOp45
 70
     1
102
RTVSPost2010Prop46
 90
       50
102
RTVSPost2010PropOp46
 70
     1
102
RTVSPost2010Prop47
 90
       50
102
RTVSPost2010PropOp47
 70
     1
102
RTVSPost2010Prop48
 90
       50
102
RTVSPost2010PropOp48
 70
     1
102
RTVSPost2010Prop49
280
     0
102
RTVSPost2010PropOp49
 70
     1
102
RTVSPost2010Prop50
 90
       50
102
RTVSPost2010PropOp50
 70
     1
102
RTVSPost2010Prop51ColorIndex
 90
      256
102
RTVSPost2010Prop51ColorRGB
 90
-16777216
102
RTVSPost2010PropOp51
 70
     0
102
RTVSPost2010Prop52
140
1.0
102
RTVSPost2010PropOp52
 70
     0
102
RTVSPost2010Prop53
 90
        2
102
RTVSPost2010PropOp53
 70
     1
102
RTVSPost2010Prop54
  1
strokes_ogs.tif
102
RTVSPost2010PropOp54
 70
     1
102
RTVSPost2010Prop55
280
     0
102
RTVSPost2010PropOp55
 70
     1
102
RTVSPost2010Prop56
140
1.0
102
RTVSPost2010PropOp56
 70
     1
102
RTVSPost2010Prop57
140
1.0
102
RTVSPost2010PropOp57
 70
     1
  0
XRECORD
  5
1A0
102
{ACAD_REACTORS
330
19F
102
}
330
19F
100
AcDbXrecord
280
     1
102
RTVSPost2010Prop28
280
     0
102
RTVSPost2010PropOp28
 70
     1
102
RTVSPost2010Prop29
280
     1
102
RTVSPost2010PropOp29
 70
     1
102
RTVSPost2010Prop30
280
     1
102
RTVSPost2010PropOp30
 70
     1
102
RTVSPost2010Prop31
280
     0
102
RTVSPost2010PropOp31
 70
     1
102
RTVSPost2010Prop32
280
     0
102
RTVSPost2010PropOp32
 70
     1
102
RTVSPost2010Prop33
280
     0
102
RTVSPost2010PropOp33
 70
     1
102
RTVSPost2010Prop34
280
     0
102
RTVSPost2010PropOp34
 70
     1
102
RTVSPost2010Prop35
280
     0
102
RTVSPost2010PropOp35
 70
     1
102
RTVSPost2010Prop36
280
     0
102
RTVSPost2010PropOp36
 70
     1
102
RTVSPost2010Prop37
 90
       50
102
RTVSPost2010PropOp37
 70
     1
102
RTVSPost2010Prop38
140
0.0
102
RTVSPost2010PropOp38
 70
     1
102
RTVSPost2010Prop39
140
1.0
102
RTVSPost2010PropOp39
 70
     1
102
RTVSPost2010Prop40
 90
        0
102
RTVSPost2010PropOp40
 70
     1
102
RTVSPost2010Prop41ColorIndex
 90
       18
102
RTVSPost2010Prop41ColorRGB
 90
        0
102
RTVSPost2010PropOp41
 70
     1
102
RTVSPost2010Prop42
 90
       50
102
RTVSPost2010PropOp42
 70
     1
102
RTVSPost2010Prop43
 90
        3
102
RTVSPost2010PropOp43
 70
     1
102
RTVSPost2010Prop44ColorIndex
 90
        5
102
RTVSPost2010Prop44ColorRGB
 90
      255
102
RTVSPost2010PropOp44
 70
     1
102
RTVSPost2010Prop45
280
     0
102
RTVSPost2010PropOp45
 70
     1
102
RTVSPost2010Prop46
 90
       50
102
RTVSPost2010PropOp46
 70
     1
102
RTVSPost2010Prop47
 90
       50
102
RTVSPost2010PropOp47
 70
     1
102
RTVSPost2010Prop48
 90
       50
102
RTVSPost2010PropOp48
 70
     1
102
RTVSPost2010Prop49
280
     0
102
RTVSPost2010PropOp49
 70
     1
102
RTVSPost2010Prop50
 90
       50
102
RTVSPost2010PropOp50
 70
     1
102
RTVSPost2010Prop51ColorIndex
 90
      256
102
RTVSPost2010Prop51ColorRGB
 90
-16777216
102
RTVSPost2010PropOp51
 70
     0
102
RTVSPost2010Prop52
140
1.0
102
RTVSPost2010PropOp52
 70
     0
102
RTVSPost2010Prop53
 90
        2
102
RTVSPost2010PropOp53
 70
     1
102
RTVSPost2010Prop54
  1
strokes_ogs.tif
102
RTVSPost2010PropOp54
 70
     1
102
RTVSPost2010Prop55
280
     0
102
RTVSPost2010PropOp55
 70
     1
102
RTVSPost2010Prop56
140
1.0
102
RTVSPost2010PropOp56
 70
     1
102
RTVSPost2010Prop57
140
1.0
102
RTVSPost2010PropOp57
 70
     1
  0
XRECORD
  5
1A2
102
{ACAD_REACTORS
330
1A1
102
}
330
1A1
100
AcDbXrecord
280
     1
102
RTVSPost2010Prop28
280
     0
102
RTVSPost2010PropOp28
 70
     1
102
RTVSPost2010Prop29
280
     1
102
RTVSPost2010PropOp29
 70
     1
102
RTVSPost2010Prop30
280
     1
102
RTVSPost2010PropOp30
 70
     1
102
RTVSPost2010Prop31
280
     0
102
RTVSPost2010PropOp31
 70
     1
102
RTVSPost2010Prop32
280
     0
102
RTVSPost2010PropOp32
 70
     1
102
RTVSPost2010Prop33
280
     0
102
RTVSPost2010PropOp33
 70
     1
102
RTVSPost2010Prop34
280
     0
102
RTVSPost2010PropOp34
 70
     1
102
RTVSPost2010Prop35
280
     0
102
RTVSPost2010PropOp35
 70
     1
102
RTVSPost2010Prop36
280
     0
102
RTVSPost2010PropOp36
 70
     1
102
RTVSPost2010Prop37
 90
       50
102
RTVSPost2010PropOp37
 70
     1
102
RTVSPost2010Prop38
140
0.0
102
RTVSPost2010PropOp38
 70
     1
102
RTVSPost2010Prop39
140
1.0
102
RTVSPost2010PropOp39
 70
     1
102
RTVSPost2010Prop40
 90
        0
102
RTVSPost2010PropOp40
 70
     1
102
RTVSPost2010Prop41ColorIndex
 90
       18
102
RTVSPost2010Prop41ColorRGB
 90
        0
102
RTVSPost2010PropOp41
 70
     1
102
RTVSPost2010Prop42
 90
       50
102
RTVSPost2010PropOp42
 70
     1
102
RTVSPost2010Prop43
 90
        3
102
RTVSPost2010PropOp43
 70
     1
102
RTVSPost2010Prop44ColorIndex
 90
        5
102
RTVSPost2010Prop44ColorRGB
 90
      255
102
RTVSPost2010PropOp44
 70
     1
102
RTVSPost2010Prop45
280
     0
102
RTVSPost2010PropOp45
 70
     1
102
RTVSPost2010Prop46
 90
       50
102
RTVSPost2010PropOp46
 70
     1
102
RTVSPost2010Prop47
 90
       50
102
RTVSPost2010PropOp47
 70
     1
102
RTVSPost2010Prop48
 90
       50
102
RTVSPost2010PropOp48
 70
     1
102
RTVSPost2010Prop49
280
     0
102
RTVSPost2010PropOp49
 70
     1
102
RTVSPost2010Prop50
 90
       50
102
RTVSPost2010PropOp50
 70
     1
102
RTVSPost2010Prop51ColorIndex
 90
      256
102
RTVSPost2010Prop51ColorRGB
 90
-16777216
102
RTVSPost2010PropOp51
 70
     0
102
RTVSPost2010Prop52
140
1.0
102
RTVSPost2010PropOp52
 70
     0
102
RTVSPost2010Prop53
 90
        2
102
RTVSPost2010PropOp53
 70
     1
102
RTVSPost2010Prop54
  1
strokes_ogs.tif
102
RTVSPost2010PropOp54
 70
     1
102
RTVSPost2010Prop55
280
     0
102
RTVSPost2010PropOp55
 70
     1
102
RTVSPost2010Prop56
140
1.0
102
RTVSPost2010PropOp56
 70
     1
102
RTVSPost2010Prop57
140
1.0
102
RTVSPost2010PropOp57
 70
     1
  0
XRECORD
  5
1A4
102
{ACAD_REACTORS
330
1A3
102
}
330
1A3
100
AcDbXrecord
280
     1
102
RTVSPost2010Prop28
280
     0
102
RTVSPost2010PropOp28
 70
     1
102
RTVSPost2010Prop29
280
     1
102
RTVSPost2010PropOp29
 70
     1
102
RTVSPost2010Prop30
280
     1
102
RTVSPost2010PropOp30
 70
     1
102
RTVSPost2010Prop31
280
     0
102
RTVSPost2010PropOp31
 70
     1
102
RTVSPost2010Prop32
280
     0
102
RTVSPost2010PropOp32
 70
     1
102
RTVSPost2010Prop33
280
     0
102
RTVSPost2010PropOp33
 70
     1
102
RTVSPost2010Prop34
280
     0
102
RTVSPost2010PropOp34
 70
     1
102
RTVSPost2010Prop35
280
     0
102
RTVSPost2010PropOp35
 70
     1
102
RTVSPost2010Prop36
280
     0
102
RTVSPost2010PropOp36
 70
     1
102
RTVSPost2010Prop37
 90
       50
102
RTVSPost2010PropOp37
 70
     1
102
RTVSPost2010Prop38
140
0.0
102
RTVSPost2010PropOp38
 70
     1
102
RTVSPost2010Prop39
140
1.0
102
RTVSPost2010PropOp39
 70
     1
102
RTVSPost2010Prop40
 90
        0
102
RTVSPost2010PropOp40
 70
     1
102
RTVSPost2010Prop41ColorIndex
 90
       18
102
RTVSPost2010Prop41ColorRGB
 90
        0
102
RTVSPost2010PropOp41
 70
     1
102
RTVSPost2010Prop42
 90
       50
102
RTVSPost2010PropOp42
 70
     1
102
RTVSPost2010Prop43
 90
        3
102
RTVSPost2010PropOp43
 70
     1
102
RTVSPost2010Prop44ColorIndex
 90
        5
102
RTVSPost2010Prop44ColorRGB
 90
      255
102
RTVSPost2010PropOp44
 70
     1
102
RTVSPost2010Prop45
280
     0
102
RTVSPost2010PropOp45
 70
     1
102
RTVSPost2010Prop46
 90
       50
102
RTVSPost2010PropOp46
 70
     1
102
RTVSPost2010Prop47
 90
       50
102
RTVSPost2010PropOp47
 70
     1
102
RTVSPost2010Prop48
 90
       50
102
RTVSPost2010PropOp48
 70
     1
102
RTVSPost2010Prop49
280
     0
102
RTVSPost2010PropOp49
 70
     1
102
RTVSPost2010Prop50
 90
       50
102
RTVSPost2010PropOp50
 70
     1
102
RTVSPost2010Prop51ColorIndex
 90
      256
102
RTVSPost2010Prop51ColorRGB
 90
-16777216
102
RTVSPost2010PropOp51
 70
     0
102
RTVSPost2010Prop52
140
1.0
102
RTVSPost2010PropOp52
 70
     0
102
RTVSPost2010Prop53
 90
        2
102
RTVSPost2010PropOp53
 70
     1
102
RTVSPost2010Prop54
  1
strokes_ogs.tif
102
RTVSPost2010PropOp54
 70
     1
102
RTVSPost2010Prop55
280
     0
102
RTVSPost2010PropOp55
 70
     1
102
RTVSPost2010Prop56
140
1.0
102
RTVSPost2010PropOp56
 70
     1
102
RTVSPost2010Prop57
140
1.0
102
RTVSPost2010PropOp57
 70
     1
  0
XRECORD
  5
1A6
102
{ACAD_REACTORS
330
1A5
102
}
330
1A5
100
AcDbXrecord
280
     1
102
RTVSPost2010Prop28
280
     0
102
RTVSPost2010PropOp28
 70
     1
102
RTVSPost2010Prop29
280
     1
102
RTVSPost2010PropOp29
 70
     1
102
RTVSPost2010Prop30
280
     1
102
RTVSPost2010PropOp30
 70
     1
102
RTVSPost2010Prop31
280
     0
102
RTVSPost2010PropOp31
 70
     1
102
RTVSPost2010Prop32
280
     0
102
RTVSPost2010PropOp32
 70
     1
102
RTVSPost2010Prop33
280
     0
102
RTVSPost2010PropOp33
 70
     1
102
RTVSPost2010Prop34
280
     0
102
RTVSPost2010PropOp34
 70
     1
102
RTVSPost2010Prop35
280
     0
102
RTVSPost2010PropOp35
 70
     1
102
RTVSPost2010Prop36
280
     0
102
RTVSPost2010PropOp36
 70
     1
102
RTVSPost2010Prop37
 90
       50
102
RTVSPost2010PropOp37
 70
     1
102
RTVSPost2010Prop38
140
0.0
102
RTVSPost2010PropOp38
 70
     1
102
RTVSPost2010Prop39
140
1.0
102
RTVSPost2010PropOp39
 70
     1
102
RTVSPost2010Prop40
 90
        0
102
RTVSPost2010PropOp40
 70
     1
102
RTVSPost2010Prop41ColorIndex
 90
       18
102
RTVSPost2010Prop41ColorRGB
 90
        0
102
RTVSPost2010PropOp41
 70
     1
102
RTVSPost2010Prop42
 90
       50
102
RTVSPost2010PropOp42
 70
     1
102
RTVSPost2010Prop43
 90
        3
102
RTVSPost2010PropOp43
 70
     1
102
RTVSPost2010Prop44ColorIndex
 90
        5
102
RTVSPost2010Prop44ColorRGB
 90
      255
102
RTVSPost2010PropOp44
 70
     1
102
RTVSPost2010Prop45
280
     0
102
RTVSPost2010PropOp45
 70
     1
102
RTVSPost2010Prop46
 90
       50
102
RTVSPost2010PropOp46
 70
     1
102
RTVSPost2010Prop47
 90
       50
102
RTVSPost2010PropOp47
 70
     1
102
RTVSPost2010Prop48
 90
       50
102
RTVSPost2010PropOp48
 70
     1
102
RTVSPost2010Prop49
280
     0
102
RTVSPost2010PropOp49
 70
     1
102
RTVSPost2010Prop50
 90
       50
102
RTVSPost2010PropOp50
 70
     1
102
RTVSPost2010Prop51ColorIndex
 90
      256
102
RTVSPost2010Prop51ColorRGB
 90
-16777216
102
RTVSPost2010PropOp51
 70
     0
102
RTVSPost2010Prop52
140
1.0
102
RTVSPost2010PropOp52
 70
     0
102
RTVSPost2010Prop53
 90
        2
102
RTVSPost2010PropOp53
 70
     1
102
RTVSPost2010Prop54
  1
strokes_ogs.tif
102
RTVSPost2010PropOp54
 70
     1
102
RTVSPost2010Prop55
280
     0
102
RTVSPost2010PropOp55
 70
     1
102
RTVSPost2010Prop56
140
1.0
102
RTVSPost2010PropOp56
 70
     1
102
RTVSPost2010Prop57
140
1.0
102
RTVSPost2010PropOp57
 70
     1
  0
XRECORD
  5
1AE
102
{ACAD_REACTORS
330
1AD
102
}
330
1AD
100
AcDbXrecord
280
     1
102
RTVSPost2010Prop28
280
     0
102
RTVSPost2010PropOp28
 70
     1
102
RTVSPost2010Prop29
280
     1
102
RTVSPost2010PropOp29
 70
     1
102
RTVSPost2010Prop30
280
     1
102
RTVSPost2010PropOp30
 70
     1
102
RTVSPost2010Prop31
280
     0
102
RTVSPost2010PropOp31
 70
     1
102
RTVSPost2010Prop32
280
     0
102
RTVSPost2010PropOp32
 70
     1
102
RTVSPost2010Prop33
280
     0
102
RTVSPost2010PropOp33
 70
     1
102
RTVSPost2010Prop34
280
     0
102
RTVSPost2010PropOp34
 70
     1
102
RTVSPost2010Prop35
280
     0
102
RTVSPost2010PropOp35
 70
     1
102
RTVSPost2010Prop36
280
     0
102
RTVSPost2010PropOp36
 70
     1
102
RTVSPost2010Prop37
 90
       50
102
RTVSPost2010PropOp37
 70
     1
102
RTVSPost2010Prop38
140
0.0
102
RTVSPost2010PropOp38
 70
     1
102
RTVSPost2010Prop39
140
1.0
102
RTVSPost2010PropOp39
 70
     1
102
RTVSPost2010Prop40
 90
        0
102
RTVSPost2010PropOp40
 70
     1
102
RTVSPost2010Prop41ColorIndex
 90
       18
102
RTVSPost2010Prop41ColorRGB
 90
        0
102
RTVSPost2010PropOp41
 70
     1
102
RTVSPost2010Prop42
 90
       50
102
RTVSPost2010PropOp42
 70
     1
102
RTVSPost2010Prop43
 90
        3
102
RTVSPost2010PropOp43
 70
     1
102
RTVSPost2010Prop44ColorIndex
 90
        5
102
RTVSPost2010Prop44ColorRGB
 90
      255
102
RTVSPost2010PropOp44
 70
     1
102
RTVSPost2010Prop45
280
     0
102
RTVSPost2010PropOp45
 70
     1
102
RTVSPost2010Prop46
 90
       50
102
RTVSPost2010PropOp46
 70
     1
102
RTVSPost2010Prop47
 90
       50
102
RTVSPost2010PropOp47
 70
     1
102
RTVSPost2010Prop48
 90
       50
102
RTVSPost2010PropOp48
 70
     1
102
RTVSPost2010Prop49
280
     0
102
RTVSPost2010PropOp49
 70
     1
102
RTVSPost2010Prop50
 90
       50
102
RTVSPost2010PropOp50
 70
     1
102
RTVSPost2010Prop51ColorIndex
 90
      256
102
RTVSPost2010Prop51ColorRGB
 90
-16777216
102
RTVSPost2010PropOp51
 70
     0
102
RTVSPost2010Prop52
140
1.0
102
RTVSPost2010PropOp52
 70
     0
102
RTVSPost2010Prop53
 90
        2
102
RTVSPost2010PropOp53
 70
     1
102
RTVSPost2010Prop54
  1
strokes_ogs.tif
102
RTVSPost2010PropOp54
 70
     1
102
RTVSPost2010Prop55
280
     0
102
RTVSPost2010PropOp55
 70
     1
102
RTVSPost2010Prop56
140
1.0
102
RTVSPost2010PropOp56
 70
     1
102
RTVSPost2010Prop57
140
1.0
102
RTVSPost2010PropOp57
 70
     1
  0
XRECORD
  5
1CA
102
{ACAD_REACTORS
330
1C9
102
}
330
1C9
100
AcDbXrecord
280
     1
102
RTVSPost2010Prop28
280
     0
102
RTVSPost2010PropOp28
 70
     0
102
RTVSPost2010Prop29
280
     1
102
RTVSPost2010PropOp29
 70
     0
102
RTVSPost2010Prop30
280
     1
102
RTVSPost2010PropOp30
 70
     0
102
RTVSPost2010Prop31
280
     0
102
RTVSPost2010PropOp31
 70
     0
102
RTVSPost2010Prop32
280
     0
102
RTVSPost2010PropOp32
 70
     0
102
RTVSPost2010Prop33
280
     0
102
RTVSPost2010PropOp33
 70
     0
102
RTVSPost2010Prop34
280
     0
102
RTVSPost2010PropOp34
 70
     0
102
RTVSPost2010Prop35
280
     0
102
RTVSPost2010PropOp35
 70
     0
102
RTVSPost2010Prop36
280
     0
102
RTVSPost2010PropOp36
 70
     0
102
RTVSPost2010Prop37
 90
       50
102
RTVSPost2010PropOp37
 70
     0
102
RTVSPost2010Prop38
140
0.0
102
RTVSPost2010PropOp38
 70
     0
102
RTVSPost2010Prop39
140
1.0
102
RTVSPost2010PropOp39
 70
     0
102
RTVSPost2010Prop40
 90
        0
102
RTVSPost2010PropOp40
 70
     0
102
RTVSPost2010Prop41ColorIndex
 90
       18
102
RTVSPost2010Prop41ColorRGB
 90
        0
102
RTVSPost2010PropOp41
 70
     0
102
RTVSPost2010Prop42
 90
       50
102
RTVSPost2010PropOp42
 70
     0
102
RTVSPost2010Prop43
 90
        3
102
RTVSPost2010PropOp43
 70
     0
102
RTVSPost2010Prop44ColorIndex
 90
        5
102
RTVSPost2010Prop44ColorRGB
 90
      255
102
RTVSPost2010PropOp44
 70
     0
102
RTVSPost2010Prop45
280
     0
102
RTVSPost2010PropOp45
 70
     0
102
RTVSPost2010Prop46
 90
       50
102
RTVSPost2010PropOp46
 70
     0
102
RTVSPost2010Prop47
 90
       50
102
RTVSPost2010PropOp47
 70
     0
102
RTVSPost2010Prop48
 90
       50
102
RTVSPost2010PropOp48
 70
     0
102
RTVSPost2010Prop49
280
     0
102
RTVSPost2010PropOp49
 70
     0
102
RTVSPost2010Prop50
 90
       50
102
RTVSPost2010PropOp50
 70
     0
102
RTVSPost2010Prop51ColorIndex
 90
      256
102
RTVSPost2010Prop51ColorRGB
 90
-16777216
102
RTVSPost2010PropOp51
 70
     0
102
RTVSPost2010Prop52
140
1.0
102
RTVSPost2010PropOp52
 70
     0
102
RTVSPost2010Prop53
 90
        2
102
RTVSPost2010PropOp53
 70
     0
102
RTVSPost2010Prop54
  1
strokes_ogs.tif
102
RTVSPost2010PropOp54
 70
     0
102
RTVSPost2010Prop55
280
     0
102
RTVSPost2010PropOp55
 70
     0
102
RTVSPost2010Prop56
140
1.0
102
RTVSPost2010PropOp56
 70
     0
102
RTVSPost2010Prop57
140
1.0
102
RTVSPost2010PropOp57
 70
     0
  0
XRECORD
  5
1BA
102
{ACAD_REACTORS
330
1B9
102
}
330
1B9
100
AcDbXrecord
280
     1
102
RTVSPost2010Prop28
280
     0
102
RTVSPost2010PropOp28
 70
     1
102
RTVSPost2010Prop29
280
     1
102
RTVSPost2010PropOp29
 70
     1
102
RTVSPost2010Prop30
280
     1
102
RTVSPost2010PropOp30
 70
     1
102
RTVSPost2010Prop31
280
     0
102
RTVSPost2010PropOp31
 70
     1
102
RTVSPost2010Prop32
280
     0
102
RTVSPost2010PropOp32
 70
     1
102
RTVSPost2010Prop33
280
     0
102
RTVSPost2010PropOp33
 70
     1
102
RTVSPost2010Prop34
280
     0
102
RTVSPost2010PropOp34
 70
     1
102
RTVSPost2010Prop35
280
     0
102
RTVSPost2010PropOp35
 70
     1
102
RTVSPost2010Prop36
280
     0
102
RTVSPost2010PropOp36
 70
     1
102
RTVSPost2010Prop37
 90
       50
102
RTVSPost2010PropOp37
 70
     1
102
RTVSPost2010Prop38
140
0.0
102
RTVSPost2010PropOp38
 70
     1
102
RTVSPost2010Prop39
140
1.0
102
RTVSPost2010PropOp39
 70
     1
102
RTVSPost2010Prop40
 90
        0
102
RTVSPost2010PropOp40
 70
     1
102
RTVSPost2010Prop41ColorIndex
 90
       18
102
RTVSPost2010Prop41ColorRGB
 90
        0
102
RTVSPost2010PropOp41
 70
     1
102
RTVSPost2010Prop42
 90
       50
102
RTVSPost2010PropOp42
 70
     1
102
RTVSPost2010Prop43
 90
        3
102
RTVSPost2010PropOp43
 70
     1
102
RTVSPost2010Prop44ColorIndex
 90
        5
102
RTVSPost2010Prop44ColorRGB
 90
      255
102
RTVSPost2010PropOp44
 70
     1
102
RTVSPost2010Prop45
280
     0
102
RTVSPost2010PropOp45
 70
     1
102
RTVSPost2010Prop46
 90
       50
102
RTVSPost2010PropOp46
 70
     1
102
RTVSPost2010Prop47
 90
       50
102
RTVSPost2010PropOp47
 70
     1
102
RTVSPost2010Prop48
 90
       50
102
RTVSPost2010PropOp48
 70
     1
102
RTVSPost2010Prop49
280
     0
102
RTVSPost2010PropOp49
 70
     1
102
RTVSPost2010Prop50
 90
       50
102
RTVSPost2010PropOp50
 70
     1
102
RTVSPost2010Prop51ColorIndex
 90
      256
102
RTVSPost2010Prop51ColorRGB
 90
-16777216
102
RTVSPost2010PropOp51
 70
     0
102
RTVSPost2010Prop52
140
1.0
102
RTVSPost2010PropOp52
 70
     0
102
RTVSPost2010Prop53
 90
        2
102
RTVSPost2010PropOp53
 70
     1
102
RTVSPost2010Prop54
  1
strokes_ogs.tif
102
RTVSPost2010PropOp54
 70
     1
102
RTVSPost2010Prop55
280
     0
102
RTVSPost2010PropOp55
 70
     1
102
RTVSPost2010Prop56
140
1.0
102
RTVSPost2010PropOp56
 70
     1
102
RTVSPost2010Prop57
140
1.0
102
RTVSPost2010PropOp57
 70
     1
  0
XRECORD
  5
1CC
102
{ACAD_REACTORS
330
1CB
102
}
330
1CB
100
AcDbXrecord
280
     1
102
RTVSPost2010Prop28
280
     0
102
RTVSPost2010PropOp28
 70
     0
102
RTVSPost2010Prop29
280
     1
102
RTVSPost2010PropOp29
 70
     0
102
RTVSPost2010Prop30
280
     1
102
RTVSPost2010PropOp30
 70
     0
102
RTVSPost2010Prop31
280
     0
102
RTVSPost2010PropOp31
 70
     0
102
RTVSPost2010Prop32
280
     0
102
RTVSPost2010PropOp32
 70
     0
102
RTVSPost2010Prop33
280
     0
102
RTVSPost2010PropOp33
 70
     0
102
RTVSPost2010Prop34
280
     0
102
RTVSPost2010PropOp34
 70
     0
102
RTVSPost2010Prop35
280
     0
102
RTVSPost2010PropOp35
 70
     0
102
RTVSPost2010Prop36
280
     0
102
RTVSPost2010PropOp36
 70
     0
102
RTVSPost2010Prop37
 90
       50
102
RTVSPost2010PropOp37
 70
     0
102
RTVSPost2010Prop38
140
0.0
102
RTVSPost2010PropOp38
 70
     0
102
RTVSPost2010Prop39
140
1.0
102
RTVSPost2010PropOp39
 70
     0
102
RTVSPost2010Prop40
 90
        0
102
RTVSPost2010PropOp40
 70
     0
102
RTVSPost2010Prop41ColorIndex
 90
       18
102
RTVSPost2010Prop41ColorRGB
 90
        0
102
RTVSPost2010PropOp41
 70
     0
102
RTVSPost2010Prop42
 90
       50
102
RTVSPost2010PropOp42
 70
     0
102
RTVSPost2010Prop43
 90
        3
102
RTVSPost2010PropOp43
 70
     0
102
RTVSPost2010Prop44ColorIndex
 90
        5
102
RTVSPost2010Prop44ColorRGB
 90
      255
102
RTVSPost2010PropOp44
 70
     0
102
RTVSPost2010Prop45
280
     0
102
RTVSPost2010PropOp45
 70
     0
102
RTVSPost2010Prop46
 90
       50
102
RTVSPost2010PropOp46
 70
     0
102
RTVSPost2010Prop47
 90
       50
102
RTVSPost2010PropOp47
 70
     0
102
RTVSPost2010Prop48
 90
       50
102
RTVSPost2010PropOp48
 70
     0
102
RTVSPost2010Prop49
280
     0
102
RTVSPost2010PropOp49
 70
     0
102
RTVSPost2010Prop50
 90
       50
102
RTVSPost2010PropOp50
 70
     0
102
RTVSPost2010Prop51ColorIndex
 90
      256
102
RTVSPost2010Prop51ColorRGB
 90
-16777216
102
RTVSPost2010PropOp51
 70
     0
102
RTVSPost2010Prop52
140
1.0
102
RTVSPost2010PropOp52
 70
     0
102
RTVSPost2010Prop53
 90
        2
102
RTVSPost2010PropOp53
 70
     0
102
RTVSPost2010Prop54
  1
strokes_ogs.tif
102
RTVSPost2010PropOp54
 70
     0
102
RTVSPost2010Prop55
280
     0
102
RTVSPost2010PropOp55
 70
     0
102
RTVSPost2010Prop56
140
1.0
102
RTVSPost2010PropOp56
 70
     0
102
RTVSPost2010Prop57
140
1.0
102
RTVSPost2010PropOp57
 70
     0
  0
XRECORD
  5
1B2
102
{ACAD_REACTORS
330
1B1
102
}
330
1B1
100
AcDbXrecord
280
     1
102
RTVSPost2010Prop28
280
     0
102
RTVSPost2010PropOp28
 70
     1
102
RTVSPost2010Prop29
280
     1
102
RTVSPost2010PropOp29
 70
     1
102
RTVSPost2010Prop30
280
     1
102
RTVSPost2010PropOp30
 70
     1
102
RTVSPost2010Prop31
280
     0
102
RTVSPost2010PropOp31
 70
     1
102
RTVSPost2010Prop32
280
     0
102
RTVSPost2010PropOp32
 70
     1
102
RTVSPost2010Prop33
280
     0
102
RTVSPost2010PropOp33
 70
     1
102
RTVSPost2010Prop34
280
     0
102
RTVSPost2010PropOp34
 70
     1
102
RTVSPost2010Prop35
280
     0
102
RTVSPost2010PropOp35
 70
     1
102
RTVSPost2010Prop36
280
     0
102
RTVSPost2010PropOp36
 70
     1
102
RTVSPost2010Prop37
 90
       50
102
RTVSPost2010PropOp37
 70
     1
102
RTVSPost2010Prop38
140
0.0
102
RTVSPost2010PropOp38
 70
     1
102
RTVSPost2010Prop39
140
1.0
102
RTVSPost2010PropOp39
 70
     1
102
RTVSPost2010Prop40
 90
        0
102
RTVSPost2010PropOp40
 70
     1
102
RTVSPost2010Prop41ColorIndex
 90
       18
102
RTVSPost2010Prop41ColorRGB
 90
        0
102
RTVSPost2010PropOp41
 70
     1
102
RTVSPost2010Prop42
 90
       50
102
RTVSPost2010PropOp42
 70
     1
102
RTVSPost2010Prop43
 90
        3
102
RTVSPost2010PropOp43
 70
     1
102
RTVSPost2010Prop44ColorIndex
 90
        5
102
RTVSPost2010Prop44ColorRGB
 90
      255
102
RTVSPost2010PropOp44
 70
     1
102
RTVSPost2010Prop45
280
     0
102
RTVSPost2010PropOp45
 70
     1
102
RTVSPost2010Prop46
 90
       50
102
RTVSPost2010PropOp46
 70
     1
102
RTVSPost2010Prop47
 90
       50
102
RTVSPost2010PropOp47
 70
     1
102
RTVSPost2010Prop48
 90
       50
102
RTVSPost2010PropOp48
 70
     1
102
RTVSPost2010Prop49
280
     0
102
RTVSPost2010PropOp49
 70
     1
102
RTVSPost2010Prop50
 90
       50
102
RTVSPost2010PropOp50
 70
     1
102
RTVSPost2010Prop51ColorIndex
 90
      256
102
RTVSPost2010Prop51ColorRGB
 90
-16777216
102
RTVSPost2010PropOp51
 70
     0
102
RTVSPost2010Prop52
140
1.0
102
RTVSPost2010PropOp52
 70
     0
102
RTVSPost2010Prop53
 90
        2
102
RTVSPost2010PropOp53
 70
     1
102
RTVSPost2010Prop54
  1
strokes_ogs.tif
102
RTVSPost2010PropOp54
 70
     1
102
RTVSPost2010Prop55
280
     0
102
RTVSPost2010PropOp55
 70
     1
102
RTVSPost2010Prop56
140
1.0
102
RTVSPost2010PropOp56
 70
     1
102
RTVSPost2010Prop57
140
1.0
102
RTVSPost2010PropOp57
 70
     1
  0
XRECORD
  5
1C8
102
{ACAD_REACTORS
330
1C7
102
}
330
1C7
100
AcDbXrecord
280
     1
102
RTVSPost2010Prop28
280
     0
102
RTVSPost2010PropOp28
 70
     1
102
RTVSPost2010Prop29
280
     1
102
RTVSPost2010PropOp29
 70
     1
102
RTVSPost2010Prop30
280
     1
102
RTVSPost2010PropOp30
 70
     1
102
RTVSPost2010Prop31
280
     0
102
RTVSPost2010PropOp31
 70
     1
102
RTVSPost2010Prop32
280
     0
102
RTVSPost2010PropOp32
 70
     1
102
RTVSPost2010Prop33
280
     0
102
RTVSPost2010PropOp33
 70
     1
102
RTVSPost2010Prop34
280
     0
102
RTVSPost2010PropOp34
 70
     1
102
RTVSPost2010Prop35
280
     0
102
RTVSPost2010PropOp35
 70
     1
102
RTVSPost2010Prop36
280
     0
102
RTVSPost2010PropOp36
 70
     1
102
RTVSPost2010Prop37
 90
       50
102
RTVSPost2010PropOp37
 70
     1
102
RTVSPost2010Prop38
140
0.0
102
RTVSPost2010PropOp38
 70
     1
102
RTVSPost2010Prop39
140
1.0
102
RTVSPost2010PropOp39
 70
     1
102
RTVSPost2010Prop40
 90
        0
102
RTVSPost2010PropOp40
 70
     1
102
RTVSPost2010Prop41ColorIndex
 90
       18
102
RTVSPost2010Prop41ColorRGB
 90
        0
102
RTVSPost2010PropOp41
 70
     1
102
RTVSPost2010Prop42
 90
       50
102
RTVSPost2010PropOp42
 70
     1
102
RTVSPost2010Prop43
 90
        3
102
RTVSPost2010PropOp43
 70
     1
102
RTVSPost2010Prop44ColorIndex
 90
        5
102
RTVSPost2010Prop44ColorRGB
 90
      255
102
RTVSPost2010PropOp44
 70
     1
102
RTVSPost2010Prop45
280
     0
102
RTVSPost2010PropOp45
 70
     1
102
RTVSPost2010Prop46
 90
       50
102
RTVSPost2010PropOp46
 70
     1
102
RTVSPost2010Prop47
 90
       50
102
RTVSPost2010PropOp47
 70
     1
102
RTVSPost2010Prop48
 90
       50
102
RTVSPost2010PropOp48
 70
     1
102
RTVSPost2010Prop49
280
     0
102
RTVSPost2010PropOp49
 70
     1
102
RTVSPost2010Prop50
 90
       50
102
RTVSPost2010PropOp50
 70
     1
102
RTVSPost2010Prop51ColorIndex
 90
      256
102
RTVSPost2010Prop51ColorRGB
 90
-16777216
102
RTVSPost2010PropOp51
 70
     0
102
RTVSPost2010Prop52
140
1.0
102
RTVSPost2010PropOp52
 70
     0
102
RTVSPost2010Prop53
 90
        2
102
RTVSPost2010PropOp53
 70
     1
102
RTVSPost2010Prop54
  1
strokes_ogs.tif
102
RTVSPost2010PropOp54
 70
     1
102
RTVSPost2010Prop55
280
     0
102
RTVSPost2010PropOp55
 70
     1
102
RTVSPost2010Prop56
140
1.0
102
RTVSPost2010PropOp56
 70
     1
102
RTVSPost2010Prop57
140
1.0
102
RTVSPost2010PropOp57
 70
     1
  0
XRECORD
  5
1C6
102
{ACAD_REACTORS
330
1C5
102
}
330
1C5
100
AcDbXrecord
280
     1
102
RTVSPost2010Prop28
280
     0
102
RTVSPost2010PropOp28
 70
     1
102
RTVSPost2010Prop29
280
     1
102
RTVSPost2010PropOp29
 70
     1
102
RTVSPost2010Prop30
280
     1
102
RTVSPost2010PropOp30
 70
     1
102
RTVSPost2010Prop31
280
     0
102
RTVSPost2010PropOp31
 70
     1
102
RTVSPost2010Prop32
280
     0
102
RTVSPost2010PropOp32
 70
     1
102
RTVSPost2010Prop33
280
     0
102
RTVSPost2010PropOp33
 70
     1
102
RTVSPost2010Prop34
280
     0
102
RTVSPost2010PropOp34
 70
     1
102
RTVSPost2010Prop35
280
     0
102
RTVSPost2010PropOp35
 70
     1
102
RTVSPost2010Prop36
280
     0
102
RTVSPost2010PropOp36
 70
     1
102
RTVSPost2010Prop37
 90
       50
102
RTVSPost2010PropOp37
 70
     1
102
RTVSPost2010Prop38
140
0.0
102
RTVSPost2010PropOp38
 70
     1
102
RTVSPost2010Prop39
140
1.0
102
RTVSPost2010PropOp39
 70
     1
102
RTVSPost2010Prop40
 90
        0
102
RTVSPost2010PropOp40
 70
     1
102
RTVSPost2010Prop41ColorIndex
 90
       18
102
RTVSPost2010Prop41ColorRGB
 90
        0
102
RTVSPost2010PropOp41
 70
     1
102
RTVSPost2010Prop42
 90
       50
102
RTVSPost2010PropOp42
 70
     1
102
RTVSPost2010Prop43
 90
        3
102
RTVSPost2010PropOp43
 70
     1
102
RTVSPost2010Prop44ColorIndex
 90
        5
102
RTVSPost2010Prop44ColorRGB
 90
      255
102
RTVSPost2010PropOp44
 70
     1
102
RTVSPost2010Prop45
280
     0
102
RTVSPost2010PropOp45
 70
     1
102
RTVSPost2010Prop46
 90
       50
102
RTVSPost2010PropOp46
 70
     1
102
RTVSPost2010Prop47
 90
       50
102
RTVSPost2010PropOp47
 70
     1
102
RTVSPost2010Prop48
 90
       50
102
RTVSPost2010PropOp48
 70
     1
102
RTVSPost2010Prop49
280
     0
102
RTVSPost2010PropOp49
 70
     1
102
RTVSPost2010Prop50
 90
       50
102
RTVSPost2010PropOp50
 70
     1
102
RTVSPost2010Prop51ColorIndex
 90
      256
102
RTVSPost2010Prop51ColorRGB
 90
-16777216
102
RTVSPost2010PropOp51
 70
     0
102
RTVSPost2010Prop52
140
1.0
102
RTVSPost2010PropOp52
 70
     0
102
RTVSPost2010Prop53
 90
        2
102
RTVSPost2010PropOp53
 70
     1
102
RTVSPost2010Prop54
  1
strokes_ogs.tif
102
RTVSPost2010PropOp54
 70
     1
102
RTVSPost2010Prop55
280
     0
102
RTVSPost2010PropOp55
 70
     1
102
RTVSPost2010Prop56
140
1.0
102
RTVSPost2010PropOp56
 70
     1
102
RTVSPost2010Prop57
140
1.0
102
RTVSPost2010PropOp57
 70
     1
  0
XRECORD
  5
1C0
102
{ACAD_REACTORS
330
1BF
102
}
330
1BF
100
AcDbXrecord
280
     1
102
RTVSPost2010Prop28
280
     0
102
RTVSPost2010PropOp28
 70
     1
102
RTVSPost2010Prop29
280
     1
102
RTVSPost2010PropOp29
 70
     1
102
RTVSPost2010Prop30
280
     1
102
RTVSPost2010PropOp30
 70
     1
102
RTVSPost2010Prop31
280
     0
102
RTVSPost2010PropOp31
 70
     1
102
RTVSPost2010Prop32
280
     0
102
RTVSPost2010PropOp32
 70
     1
102
RTVSPost2010Prop33
280
     0
102
RTVSPost2010PropOp33
 70
     1
102
RTVSPost2010Prop34
280
     0
102
RTVSPost2010PropOp34
 70
     1
102
RTVSPost2010Prop35
280
     0
102
RTVSPost2010PropOp35
 70
     1
102
RTVSPost2010Prop36
280
     0
102
RTVSPost2010PropOp36
 70
     1
102
RTVSPost2010Prop37
 90
       50
102
RTVSPost2010PropOp37
 70
     1
102
RTVSPost2010Prop38
140
0.0
102
RTVSPost2010PropOp38
 70
     1
102
RTVSPost2010Prop39
140
1.0
102
RTVSPost2010PropOp39
 70
     1
102
RTVSPost2010Prop40
 90
        0
102
RTVSPost2010PropOp40
 70
     1
102
RTVSPost2010Prop41ColorIndex
 90
       18
102
RTVSPost2010Prop41ColorRGB
 90
        0
102
RTVSPost2010PropOp41
 70
     1
102
RTVSPost2010Prop42
 90
       50
102
RTVSPost2010PropOp42
 70
     1
102
RTVSPost2010Prop43
 90
        3
102
RTVSPost2010PropOp43
 70
     1
102
RTVSPost2010Prop44ColorIndex
 90
        5
102
RTVSPost2010Prop44ColorRGB
 90
      255
102
RTVSPost2010PropOp44
 70
     1
102
RTVSPost2010Prop45
280
     0
102
RTVSPost2010PropOp45
 70
     1
102
RTVSPost2010Prop46
 90
       50
102
RTVSPost2010PropOp46
 70
     1
102
RTVSPost2010Prop47
 90
       50
102
RTVSPost2010PropOp47
 70
     1
102
RTVSPost2010Prop48
 90
       50
102
RTVSPost2010PropOp48
 70
     1
102
RTVSPost2010Prop49
280
     0
102
RTVSPost2010PropOp49
 70
     1
102
RTVSPost2010Prop50
 90
       50
102
RTVSPost2010PropOp50
 70
     1
102
RTVSPost2010Prop51ColorIndex
 90
      256
102
RTVSPost2010Prop51ColorRGB
 90
-16777216
102
RTVSPost2010PropOp51
 70
     0
102
RTVSPost2010Prop52
140
1.0
102
RTVSPost2010PropOp52
 70
     0
102
RTVSPost2010Prop53
 90
        2
102
RTVSPost2010PropOp53
 70
     1
102
RTVSPost2010Prop54
  1
strokes_ogs.tif
102
RTVSPost2010PropOp54
 70
     1
102
RTVSPost2010Prop55
280
     0
102
RTVSPost2010PropOp55
 70
     1
102
RTVSPost2010Prop56
140
1.0
102
RTVSPost2010PropOp56
 70
     1
102
RTVSPost2010Prop57
140
1.0
102
RTVSPost2010PropOp57
 70
     1
  0
XRECORD
  5
1C2
102
{ACAD_REACTORS
330
1C1
102
}
330
1C1
100
AcDbXrecord
280
     1
102
RTVSPost2010Prop28
280
     0
102
RTVSPost2010PropOp28
 70
     1
102
RTVSPost2010Prop29
280
     1
102
RTVSPost2010PropOp29
 70
     1
102
RTVSPost2010Prop30
280
     1
102
RTVSPost2010PropOp30
 70
     1
102
RTVSPost2010Prop31
280
     0
102
RTVSPost2010PropOp31
 70
     1
102
RTVSPost2010Prop32
280
     0
102
RTVSPost2010PropOp32
 70
     1
102
RTVSPost2010Prop33
280
     0
102
RTVSPost2010PropOp33
 70
     1
102
RTVSPost2010Prop34
280
     0
102
RTVSPost2010PropOp34
 70
     1
102
RTVSPost2010Prop35
280
     0
102
RTVSPost2010PropOp35
 70
     1
102
RTVSPost2010Prop36
280
     0
102
RTVSPost2010PropOp36
 70
     1
102
RTVSPost2010Prop37
 90
       50
102
RTVSPost2010PropOp37
 70
     1
102
RTVSPost2010Prop38
140
0.0
102
RTVSPost2010PropOp38
 70
     1
102
RTVSPost2010Prop39
140
1.0
102
RTVSPost2010PropOp39
 70
     1
102
RTVSPost2010Prop40
 90
        0
102
RTVSPost2010PropOp40
 70
     1
102
RTVSPost2010Prop41ColorIndex
 90
       18
102
RTVSPost2010Prop41ColorRGB
 90
        0
102
RTVSPost2010PropOp41
 70
     1
102
RTVSPost2010Prop42
 90
       50
102
RTVSPost2010PropOp42
 70
     1
102
RTVSPost2010Prop43
 90
        3
102
RTVSPost2010PropOp43
 70
     1
102
RTVSPost2010Prop44ColorIndex
 90
        5
102
RTVSPost2010Prop44ColorRGB
 90
      255
102
RTVSPost2010PropOp44
 70
     1
102
RTVSPost2010Prop45
280
     0
102
RTVSPost2010PropOp45
 70
     1
102
RTVSPost2010Prop46
 90
       50
102
RTVSPost2010PropOp46
 70
     1
102
RTVSPost2010Prop47
 90
       50
102
RTVSPost2010PropOp47
 70
     1
102
RTVSPost2010Prop48
 90
       50
102
RTVSPost2010PropOp48
 70
     1
102
RTVSPost2010Prop49
280
     0
102
RTVSPost2010PropOp49
 70
     1
102
RTVSPost2010Prop50
 90
       50
102
RTVSPost2010PropOp50
 70
     1
102
RTVSPost2010Prop51ColorIndex
 90
      256
102
RTVSPost2010Prop51ColorRGB
 90
-16777216
102
RTVSPost2010PropOp51
 70
     0
102
RTVSPost2010Prop52
140
1.0
102
RTVSPost2010PropOp52
 70
     0
102
RTVSPost2010Prop53
 90
        2
102
RTVSPost2010PropOp53
 70
     1
102
RTVSPost2010Prop54
  1
strokes_ogs.tif
102
RTVSPost2010PropOp54
 70
     1
102
RTVSPost2010Prop55
280
     0
102
RTVSPost2010PropOp55
 70
     1
102
RTVSPost2010Prop56
140
1.0
102
RTVSPost2010PropOp56
 70
     1
102
RTVSPost2010Prop57
140
1.0
102
RTVSPost2010PropOp57
 70
     1
  0
XRECORD
  5
1B8
102
{ACAD_REACTORS
330
1B7
102
}
330
1B7
100
AcDbXrecord
280
     1
102
RTVSPost2010Prop28
280
     0
102
RTVSPost2010PropOp28
 70
     1
102
RTVSPost2010Prop29
280
     1
102
RTVSPost2010PropOp29
 70
     1
102
RTVSPost2010Prop30
280
     1
102
RTVSPost2010PropOp30
 70
     1
102
RTVSPost2010Prop31
280
     0
102
RTVSPost2010PropOp31
 70
     1
102
RTVSPost2010Prop32
280
     0
102
RTVSPost2010PropOp32
 70
     1
102
RTVSPost2010Prop33
280
     0
102
RTVSPost2010PropOp33
 70
     1
102
RTVSPost2010Prop34
280
     0
102
RTVSPost2010PropOp34
 70
     1
102
RTVSPost2010Prop35
280
     0
102
RTVSPost2010PropOp35
 70
     1
102
RTVSPost2010Prop36
280
     0
102
RTVSPost2010PropOp36
 70
     1
102
RTVSPost2010Prop37
 90
       50
102
RTVSPost2010PropOp37
 70
     1
102
RTVSPost2010Prop38
140
0.0
102
RTVSPost2010PropOp38
 70
     1
102
RTVSPost2010Prop39
140
1.0
102
RTVSPost2010PropOp39
 70
     1
102
RTVSPost2010Prop40
 90
        0
102
RTVSPost2010PropOp40
 70
     1
102
RTVSPost2010Prop41ColorIndex
 90
       18
102
RTVSPost2010Prop41ColorRGB
 90
        0
102
RTVSPost2010PropOp41
 70
     1
102
RTVSPost2010Prop42
 90
       50
102
RTVSPost2010PropOp42
 70
     1
102
RTVSPost2010Prop43
 90
        3
102
RTVSPost2010PropOp43
 70
     1
102
RTVSPost2010Prop44ColorIndex
 90
        5
102
RTVSPost2010Prop44ColorRGB
 90
      255
102
RTVSPost2010PropOp44
 70
     1
102
RTVSPost2010Prop45
280
     0
102
RTVSPost2010PropOp45
 70
     1
102
RTVSPost2010Prop46
 90
       50
102
RTVSPost2010PropOp46
 70
     1
102
RTVSPost2010Prop47
 90
       50
102
RTVSPost2010PropOp47
 70
     1
102
RTVSPost2010Prop48
 90
       50
102
RTVSPost2010PropOp48
 70
     1
102
RTVSPost2010Prop49
280
     0
102
RTVSPost2010PropOp49
 70
     1
102
RTVSPost2010Prop50
 90
       50
102
RTVSPost2010PropOp50
 70
     1
102
RTVSPost2010Prop51ColorIndex
 90
      256
102
RTVSPost2010Prop51ColorRGB
 90
-16777216
102
RTVSPost2010PropOp51
 70
     0
102
RTVSPost2010Prop52
140
1.0
102
RTVSPost2010PropOp52
 70
     0
102
RTVSPost2010Prop53
 90
        2
102
RTVSPost2010PropOp53
 70
     1
102
RTVSPost2010Prop54
  1
strokes_ogs.tif
102
RTVSPost2010PropOp54
 70
     1
102
RTVSPost2010Prop55
280
     0
102
RTVSPost2010PropOp55
 70
     1
102
RTVSPost2010Prop56
140
1.0
102
RTVSPost2010PropOp56
 70
     1
102
RTVSPost2010Prop57
140
1.0
102
RTVSPost2010PropOp57
 70
     1
  0
XRECORD
  5
1AC
102
{ACAD_REACTORS
330
1AB
102
}
330
1AB
100
AcDbXrecord
280
     1
102
RTVSPost2010Prop28
280
     0
102
RTVSPost2010PropOp28
 70
     1
102
RTVSPost2010Prop29
280
     1
102
RTVSPost2010PropOp29
 70
     1
102
RTVSPost2010Prop30
280
     1
102
RTVSPost2010PropOp30
 70
     1
102
RTVSPost2010Prop31
280
     0
102
RTVSPost2010PropOp31
 70
     1
102
RTVSPost2010Prop32
280
     0
102
RTVSPost2010PropOp32
 70
     1
102
RTVSPost2010Prop33
280
     0
102
RTVSPost2010PropOp33
 70
     1
102
RTVSPost2010Prop34
280
     0
102
RTVSPost2010PropOp34
 70
     1
102
RTVSPost2010Prop35
280
     0
102
RTVSPost2010PropOp35
 70
     1
102
RTVSPost2010Prop36
280
     0
102
RTVSPost2010PropOp36
 70
     1
102
RTVSPost2010Prop37
 90
       50
102
RTVSPost2010PropOp37
 70
     1
102
RTVSPost2010Prop38
140
0.0
102
RTVSPost2010PropOp38
 70
     1
102
RTVSPost2010Prop39
140
1.0
102
RTVSPost2010PropOp39
 70
     1
102
RTVSPost2010Prop40
 90
        0
102
RTVSPost2010PropOp40
 70
     1
102
RTVSPost2010Prop41ColorIndex
 90
       18
102
RTVSPost2010Prop41ColorRGB
 90
        0
102
RTVSPost2010PropOp41
 70
     1
102
RTVSPost2010Prop42
 90
       50
102
RTVSPost2010PropOp42
 70
     1
102
RTVSPost2010Prop43
 90
        3
102
RTVSPost2010PropOp43
 70
     1
102
RTVSPost2010Prop44ColorIndex
 90
        5
102
RTVSPost2010Prop44ColorRGB
 90
      255
102
RTVSPost2010PropOp44
 70
     1
102
RTVSPost2010Prop45
280
     0
102
RTVSPost2010PropOp45
 70
     1
102
RTVSPost2010Prop46
 90
       50
102
RTVSPost2010PropOp46
 70
     1
102
RTVSPost2010Prop47
 90
       50
102
RTVSPost2010PropOp47
 70
     1
102
RTVSPost2010Prop48
 90
       50
102
RTVSPost2010PropOp48
 70
     1
102
RTVSPost2010Prop49
280
     0
102
RTVSPost2010PropOp49
 70
     1
102
RTVSPost2010Prop50
 90
       50
102
RTVSPost2010PropOp50
 70
     1
102
RTVSPost2010Prop51ColorIndex
 90
      256
102
RTVSPost2010Prop51ColorRGB
 90
-16777216
102
RTVSPost2010PropOp51
 70
     0
102
RTVSPost2010Prop52
140
1.0
102
RTVSPost2010PropOp52
 70
     0
102
RTVSPost2010Prop53
 90
        2
102
RTVSPost2010PropOp53
 70
     1
102
RTVSPost2010Prop54
  1
strokes_ogs.tif
102
RTVSPost2010PropOp54
 70
     1
102
RTVSPost2010Prop55
280
     0
102
RTVSPost2010PropOp55
 70
     1
102
RTVSPost2010Prop56
140
1.0
102
RTVSPost2010PropOp56
 70
     1
102
RTVSPost2010Prop57
140
1.0
102
RTVSPost2010PropOp57
 70
     1
  0
XRECORD
  5
1C4
102
{ACAD_REACTORS
330
1C3
102
}
330
1C3
100
AcDbXrecord
280
     1
102
RTVSPost2010Prop28
280
     0
102
RTVSPost2010PropOp28
 70
     1
102
RTVSPost2010Prop29
280
     1
102
RTVSPost2010PropOp29
 70
     1
102
RTVSPost2010Prop30
280
     1
102
RTVSPost2010PropOp30
 70
     1
102
RTVSPost2010Prop31
280
     0
102
RTVSPost2010PropOp31
 70
     1
102
RTVSPost2010Prop32
280
     0
102
RTVSPost2010PropOp32
 70
     1
102
RTVSPost2010Prop33
280
     0
102
RTVSPost2010PropOp33
 70
     1
102
RTVSPost2010Prop34
280
     0
102
RTVSPost2010PropOp34
 70
     1
102
RTVSPost2010Prop35
280
     0
102
RTVSPost2010PropOp35
 70
     1
102
RTVSPost2010Prop36
280
     0
102
RTVSPost2010PropOp36
 70
     1
102
RTVSPost2010Prop37
 90
       50
102
RTVSPost2010PropOp37
 70
     1
102
RTVSPost2010Prop38
140
0.0
102
RTVSPost2010PropOp38
 70
     1
102
RTVSPost2010Prop39
140
1.0
102
RTVSPost2010PropOp39
 70
     1
102
RTVSPost2010Prop40
 90
        0
102
RTVSPost2010PropOp40
 70
     1
102
RTVSPost2010Prop41ColorIndex
 90
       18
102
RTVSPost2010Prop41ColorRGB
 90
        0
102
RTVSPost2010PropOp41
 70
     1
102
RTVSPost2010Prop42
 90
       50
102
RTVSPost2010PropOp42
 70
     1
102
RTVSPost2010Prop43
 90
        3
102
RTVSPost2010PropOp43
 70
     1
102
RTVSPost2010Prop44ColorIndex
 90
        5
102
RTVSPost2010Prop44ColorRGB
 90
      255
102
RTVSPost2010PropOp44
 70
     1
102
RTVSPost2010Prop45
280
     0
102
RTVSPost2010PropOp45
 70
     1
102
RTVSPost2010Prop46
 90
       50
102
RTVSPost2010PropOp46
 70
     1
102
RTVSPost2010Prop47
 90
       50
102
RTVSPost2010PropOp47
 70
     1
102
RTVSPost2010Prop48
 90
       50
102
RTVSPost2010PropOp48
 70
     1
102
RTVSPost2010Prop49
280
     0
102
RTVSPost2010PropOp49
 70
     1
102
RTVSPost2010Prop50
 90
       50
102
RTVSPost2010PropOp50
 70
     1
102
RTVSPost2010Prop51ColorIndex
 90
      256
102
RTVSPost2010Prop51ColorRGB
 90
-16777216
102
RTVSPost2010PropOp51
 70
     0
102
RTVSPost2010Prop52
140
1.0
102
RTVSPost2010PropOp52
 70
     0
102
RTVSPost2010Prop53
 90
        2
102
RTVSPost2010PropOp53
 70
     1
102
RTVSPost2010Prop54
  1
strokes_ogs.tif
102
RTVSPost2010PropOp54
 70
     1
102
RTVSPost2010Prop55
280
     0
102
RTVSPost2010PropOp55
 70
     1
102
RTVSPost2010Prop56
140
1.0
102
RTVSPost2010PropOp56
 70
     1
102
RTVSPost2010Prop57
140
1.0
102
RTVSPost2010PropOp57
 70
     1
  0
ENDSEC
  0
EOF
