  0
SECTION
  2
HEADER
  9
$ACADVER
  1
AC1015
  9
$ACADMAINTVER
 70
     6
  9
$DWGCODEPAGE
  3
ANSI_1252
  9
$INSBASE
 10
0.0
 20
0.0
 30
0.0
  9
$EXTMIN
 10
0.0
 20
0.0
 30
0.0
  9
$EXTMAX
 10
3000.0
 20
4500.0
 30
0.0
  9
$LIMMIN
 10
0.0
 20
0.0
  9
$LIMMAX
 10
3000.0
 20
4500.0
  9
$ORTHOMODE
 70
     0
  9
$REGENMODE
 70
     1
  9
$FILLMODE
 70
     1
  9
$QTEXTMODE
 70
     0
  9
$MIRRTEXT
 70
     1
  9
$LTSCALE
 40
1.0
  9
$ATTMODE
 70
     1
  9
$TEXTSIZE
 40
2.5
  9
$TRACEWID
 40
1.0
  9
$TEXTSTYLE
  7
Standard
  9
$CLAYER
  8
0
  9
$CELTYPE
  6
ByLayer
  9
$CECOLOR
 62
   256
  9
$CELTSCALE
 40
1.0
  9
$DISPSILH
 70
     0
  9
$DIMSCALE
 40
1.0
  9
$DIMASZ
 40
2.5
  9
$DIMEXO
 40
0.625
  9
$DIMDLI
 40
3.75
  9
$DIMRND
 40
0.0
  9
$DIMDLE
 40
0.0
  9
$DIMEXE
 40
1.25
  9
$DIMTP
 40
0.0
  9
$DIMTM
 40
0.0
  9
$DIMTXT
 40
2.5
  9
$DIMCEN
 40
2.5
  9
$DIMTSZ
 40
0.0
  9
$DIMTOL
 70
     0
  9
$DIMLIM
 70
     0
  9
$DIMTIH
 70
     0
  9
$DIMTOH
 70
     0
  9
$DIMSE1
 70
     0
  9
$DIMSE2
 70
     0
  9
$DIMTAD
 70
     1
  9
$DIMZIN
 70
     8
  9
$DIMBLK
  1

  9
$DIMASO
 70
     1
  9
$DIMSHO
 70
     1
  9
$DIMPOST
  1

  9
$DIMAPOST
  1

  9
$DIMALT
 70
     0
  9
$DIMALTD
 70
     3
  9
$DIMALTF
 40
0.0393700787
  9
$DIMLFAC
 40
1.0
  9
$DIMTOFL
 70
     1
  9
$DIMTVP
 40
0.0
  9
$DIMTIX
 70
     0
  9
$DIMSOXD
 70
     0
  9
$DIMSAH
 70
     0
  9
$DIMBLK1
  1

  9
$DIMBLK2
  1

  9
$DIMSTYLE
  2
ISO-25
  9
$DIMCLRD
 70
     0
  9
$DIMCLRE
 70
     0
  9
$DIMCLRT
 70
     0
  9
$DIMTFAC
 40
1.0
  9
$DIMGAP
 40
0.625
  9
$DIMJUST
 70
     0
  9
$DIMSD1
 70
     0
  9
$DIMSD2
 70
     0
  9
$DIMTOLJ
 70
     0
  9
$DIMTZIN
 70
     8
  9
$DIMALTZ
 70
     0
  9
$DIMALTTZ
 70
     0
  9
$DIMUPT
 70
     0
  9
$DIMDEC
 70
     2
  9
$DIMTDEC
 70
     2
  9
$DIMALTU
 70
     2
  9
$DIMALTTD
 70
     3
  9
$DIMTXSTY
  7
Standard
  9
$DIMAUNIT
 70
     0
  9
$DIMADEC
 70
     0
  9
$DIMALTRND
 40
0.0
  9
$DIMAZIN
 70
     0
  9
$DIMDSEP
 70
    44
  9
$DIMATFIT
 70
     3
  9
$DIMFRAC
 70
     0
  9
$DIMLDRBLK
  1

  9
$DIMLUNIT
 70
     2
  9
$DIMLWD
 70
    -2
  9
$DIMLWE
 70
    -2
  9
$DIMTMOVE
 70
     0
  9
$LUNITS
 70
     2
  9
$LUPREC
 70
     4
  9
$SKETCHINC
 40
1.0
  9
$FILLETRAD
 40
10.0
  9
$AUNITS
 70
     0
  9
$AUPREC
 70
     0
  9
$MENU
  1
.
  9
$ELEVATION
 40
0.0
  9
$PELEVATION
 40
0.0
  9
$THICKNESS
 40
0.0
  9
$LIMCHECK
 70
     0
  9
$CHAMFERA
 40
10.0
  9
$CHAMFERB
 40
10.0
  9
$CHAMFERC
 40
20.0
  9
$CHAMFERD
 40
0.0
  9
$SKPOLY
 70
     0
  9
$TDCREATE
 40
2456188.573015104
  9
$TDUCREATE
 40
2456188.489681771
  9
$TDUPDATE
 40
2456188.573015116
  9
$TDUUPDATE
 40
2456188.489681782
  9
$TDINDWG
 40
0.0000000116
  9
$TDUSRTIMER
 40
0.0000000116
  9
$USRTIMER
 70
     1
  9
$ANGBASE
 50
0.0
  9
$ANGDIR
 70
     0
  9
$PDMODE
 70
     0
  9
$PDSIZE
 40
0.0
  9
$PLINEWID
 40
0.0
  9
$SPLFRAME
 70
     0
  9
$SPLINETYPE
 70
     6
  9
$SPLINESEGS
 70
     8
  9
$HANDSEED
  5
1D1
  9
$SURFTAB1
 70
     6
  9
$SURFTAB2
 70
     6
  9
$SURFTYPE
 70
     6
  9
$SURFU
 70
     6
  9
$SURFV
 70
     6
  9
$UCSBASE
  2

  9
$UCSNAME
  2

  9
$UCSORG
 10
0.0
 20
0.0
 30
0.0
  9
$UCSXDIR
 10
1.0
 20
0.0
 30
0.0
  9
$UCSYDIR
 10
0.0
 20
1.0
 30
0.0
  9
$UCSORTHOREF
  2

  9
$UCSORTHOVIEW
 70
     0
  9
$UCSORGTOP
 10
0.0
 20
0.0
 30
0.0
  9
$UCSORGBOTTOM
 10
0.0
 20
0.0
 30
0.0
  9
$UCSORGLEFT
 10
0.0
 20
0.0
 30
0.0
  9
$UCSORGRIGHT
 10
0.0
 20
0.0
 30
0.0
  9
$UCSORGFRONT
 10
0.0
 20
0.0
 30
0.0
  9
$UCSORGBACK
 10
0.0
 20
0.0
 30
0.0
  9
$PUCSBASE
  2

  9
$PUCSNAME
  2

  9
$PUCSORG
 10
0.0
 20
0.0
 30
0.0
  9
$PUCSXDIR
 10
1.0
 20
0.0
 30
0.0
  9
$PUCSYDIR
 10
0.0
 20
1.0
 30
0.0
  9
$PUCSORTHOREF
  2

  9
$PUCSORTHOVIEW
 70
     0
  9
$PUCSORGTOP
 10
0.0
 20
0.0
 30
0.0
  9
$PUCSORGBOTTOM
 10
0.0
 20
0.0
 30
0.0
  9
$PUCSORGLEFT
 10
0.0
 20
0.0
 30
0.0
  9
$PUCSORGRIGHT
 10
0.0
 20
0.0
 30
0.0
  9
$PUCSORGFRONT
 10
0.0
 20
0.0
 30
0.0
  9
$PUCSORGBACK
 10
0.0
 20
0.0
 30
0.0
  9
$USERI1
 70
     0
  9
$USERI2
 70
     0
  9
$USERI3
 70
     0
  9
$USERI4
 70
     0
  9
$USERI5
 70
     0
  9
$USERR1
 40
0.0
  9
$USERR2
 40
0.0
  9
$USERR3
 40
0.0
  9
$USERR4
 40
0.0
  9
$USERR5
 40
0.0
  9
$WORLDVIEW
 70
     1
  9
$SHADEDGE
 70
     3
  9
$SHADEDIF
 70
    70
  9
$TILEMODE
 70
     1
  9
$MAXACTVP
 70
    64
  9
$PINSBASE
 10
0.0
 20
0.0
 30
0.0
  9
$PLIMCHECK
 70
     0
  9
$PEXTMIN
 10
0.0
 20
0.0
 30
0.0
  9
$PEXTMAX
 10
3000.0
 20
4500.0
 30
0.0
  9
$PLIMMIN
 10
0.0
 20
0.0
  9
$PLIMMAX
 10
3000.0
 20
4500.0
  9
$UNITMODE
 70
     0
  9
$VISRETAIN
 70
     1
  9
$PLINEGEN
 70
     0
  9
$PSLTSCALE
 70
     1
  9
$TREEDEPTH
 70
  3020
  9
$CMLSTYLE
  2
Standard
  9
$CMLJUST
 70
     0
  9
$CMLSCALE
 40
20.0
  9
$PROXYGRAPHICS
 70
     1
  9
$MEASUREMENT
 70
     1
  9
$CELWEIGHT
370
    -1
  9
$ENDCAPS
280
     0
  9
$JOINSTYLE
280
     0
  9
$LWDISPLAY
290
     0
  9
$INSUNITS
 70
     4
  9
$HYPERLINKBASE
  1

  9
$STYLESHEET
  1

  9
$XEDIT
290
     1
  9
$CEPSNTYPE
380
     0
  9
$PSTYLEMODE
290
     1
  9
$FINGERPRINTGUID
  2
{351E8A21-0916-430E-8D11-CA83746B25B1}
  9
$VERSIONGUID
  2
{FAEB1C32-E019-11D5-929B-00C0DF256EC4}
  9
$EXTNAMES
290
     1
  9
$PSVPSCALE
 40
0.0
  9
$OLESTARTUP
290
     0
  0
ENDSEC
  0
SECTION
  2
CLASSES
  0
CLASS
  1
ACDBDICTIONARYWDFLT
  2
AcDbDictionaryWithDefault
  3
ObjectDBX Classes
 90
        0
280
     0
281
     0
  0
CLASS
  1
VISUALSTYLE
  2
AcDbVisualStyle
  3
ObjectDBX Classes
 90
     4095
280
     0
281
     0
  0
CLASS
  1
SCALE
  2
AcDbScale
  3
ObjectDBX Classes
 90
     1153
280
     0
281
     0
  0
CLASS
  1
DICTIONARYVAR
  2
AcDbDictionaryVar
  3
ObjectDBX Classes
 90
        0
280
     0
281
     0
  0
CLASS
  1
ACDBPLACEHOLDER
  2
AcDbPlaceHolder
  3
ObjectDBX Classes
 90
        0
280
     0
281
     0
  0
CLASS
  1
LAYOUT
  2
AcDbLayout
  3
ObjectDBX Classes
 90
        0
280
     0
281
     0
  0
ENDSEC
  0
SECTION
  2
TABLES
  0
TABLE
  2
VPORT
  5
8
330
0
100
AcDbSymbolTable
 70
     1
  0
VPORT
  5
29
330
8
100
AcDbSymbolTableRecord
100
AcDbViewportTableRecord
  2
*Active
 70
     0
 10
0.0
 20
0.0
 11
1.0
 21
1.0
 12
344.1869158879
 22
148.5
 13
0.0
 23
0.0
 14
10.0
 24
10.0
 15
10.0
 25
10.0
 16
0.0
 26
0.0
 36
1.0
 17
0.0
 27
0.0
 37
0.0
 40
297.0
 41
1.9729729729
 42
50.0
 43
0.0
 44
0.0
 50
0.0
 51
0.0
 71
     0
 72
   100
 73
     1
 74
     3
 75
     0
 76
     0
 77
     0
 78
     0
281
     0
 65
     1
110
0.0
120
0.0
130
0.0
111
1.0
121
0.0
131
0.0
112
0.0
122
1.0
132
0.0
 79
     0
146
0.0
  0
ENDTAB
  0
TABLE
  2
LTYPE
  5
5
330
0
100
AcDbSymbolTable
 70
     2
  0
LTYPE
  5
14
330
5
100
AcDbSymbolTableRecord
100
AcDbLinetypeTableRecord
  2
ByBlock
 70
     0
  3

 72
    65
 73
     0
 40
0.0
  0
LTYPE
  5
15
330
5
100
AcDbSymbolTableRecord
100
AcDbLinetypeTableRecord
  2
ByLayer
 70
     0
  3

 72
    65
 73
     0
 40
0.0
  0
LTYPE
  5
16
330
5
100
AcDbSymbolTableRecord
100
AcDbLinetypeTableRecord
  2
Continuous
 70
     0
  3
Solid line
 72
    65
 73
     0
 40
0.0
  0
LTYPE
  5
60
330
5
100
AcDbSymbolTableRecord
100
AcDbLinetypeTableRecord
  2
CENTER2
 70
     0
  3
Center (.5x) ___ _ ___ _ ___ _ ___ _ ___ _ ___
 72
    65
 73
     4
 40
28.575
 49
19.05
 74
     4
 75
     0
340
0
 46
0.0
 50
0.0
 44
0.0
 45
0.0
 49
-3.175
 74
     4
 75
     0
340
0
 46
0.0
 50
0.0
 44
0.0
 45
0.0
 49
3.175
 74
     4
 75
     0
340
0
 46
0.0
 50
0.0
 44
0.0
 45
0.0
 49
-3.175
 74
     4
 75
     0
340
0
 46
0.0
 50
0.0
 44
0.0
 45
0.0
  0
ENDTAB
  0
TABLE
  2
LAYER
  5
2
330
0
100
AcDbSymbolTable
 70
     5
  0
LAYER
  5
10
330
2
100
AcDbSymbolTableRecord
100
AcDbLayerTableRecord
  2
0
 70
     0
 62
     7
  6
Continuous
370
    -3
390
F
  0
LAYER
  5
5D
330
2
100
AcDbSymbolTableRecord
100
AcDbLayerTableRecord
  2
Default
 70
     0
 62
     7
  6
Continuous
370
    -3
390
F
  0
LAYER
  5
67
330
2
100
AcDbSymbolTableRecord
100
AcDbLayerTableRecord
  2
DV1_Default
 70
     0
 62
     7
  6
Continuous
370
    -3
390
F
  0
LAYER
  5
C6
330
2
100
AcDbSymbolTableRecord
100
AcDbLayerTableRecord
  2
DV2_Default
 70
     0
 62
     7
  6
Continuous
370
    -3
390
F
  0
LAYER
  5
147
330
2
100
AcDbSymbolTableRecord
100
AcDbLayerTableRecord
  2
DV3_Default
 70
     0
 62
     7
  6
Continuous
370
    -3
390
F
  0
ENDTAB
  0
TABLE
  2
STYLE
  5
3
330
0
100
AcDbSymbolTable
 70
     2
  0
STYLE
  5
11
330
3
100
AcDbSymbolTableRecord
100
AcDbTextStyleTableRecord
  2
Standard
 70
     0
 40
0.0
 41
1.0
 50
0.0
 71
     0
 42
2.5
  3
txt
  4

  0
STYLE
  5
1C0
330
3
100
AcDbSymbolTableRecord
100
AcDbTextStyleTableRecord
  2
SEACAD_seiso_ttf
 70
     0
 40
0.0
 41
1.0
 50
0.0
 71
     0
 42
0.2
  3
seiso.ttf
  4

  0
ENDTAB
  0
TABLE
  2
VIEW
  5
6
330
0
100
AcDbSymbolTable
 70
     0
  0
ENDTAB
  0
TABLE
  2
UCS
  5
7
330
0
100
AcDbSymbolTable
 70
     0
  0
ENDTAB
  0
TABLE
  2
APPID
  5
9
330
0
100
AcDbSymbolTable
 70
     1
  0
APPID
  5
12
330
9
100
AcDbSymbolTableRecord
100
AcDbRegAppTableRecord
  2
ACAD
 70
     0
  0
ENDTAB
  0
TABLE
  2
DIMSTYLE
  5
A
330
0
100
AcDbSymbolTable
 70
     1
100
AcDbDimStyleTable
  0
DIMSTYLE
105
27
330
A
100
AcDbSymbolTableRecord
100
AcDbDimStyleTableRecord
  2
ISO-25
 70
     0
 41
2.5
 42
0.625
 43
3.75
 44
1.25
 73
     0
 74
     0
 77
     1
 78
     8
140
2.5
141
2.5
143
0.0393700787
147
0.625
171
     3
172
     1
271
     2
272
     2
274
     3
278
    44
283
     0
284
     8
340
11
  0
ENDTAB
  0
TABLE
  2
BLOCK_RECORD
  5
1
330
0
100
AcDbSymbolTable
 70
     5
  0
BLOCK_RECORD
  5
1F
330
1
100
AcDbSymbolTableRecord
100
AcDbBlockTableRecord
  2
*Model_Space
340
22
  0
BLOCK_RECORD
  5
1B
330
1
100
AcDbSymbolTableRecord
100
AcDbBlockTableRecord
  2
*Paper_Space
340
1E
  0
BLOCK_RECORD
  5
5E
330
1
100
AcDbSymbolTableRecord
100
AcDbBlockTableRecord
  2
SEANNOT_GROUP
340
0
102
{BLKREFS
331
5F
102
}
  0
BLOCK_RECORD
  5
65
330
1
100
AcDbSymbolTableRecord
100
AcDbBlockTableRecord
  2
SE
340
0
102
{BLKREFS
331
66
102
}
  0
BLOCK_RECORD
  5
C4
330
1
100
AcDbSymbolTableRecord
100
AcDbBlockTableRecord
  2
SE1
340
0
102
{BLKREFS
331
C5
102
}
  0
BLOCK_RECORD
  5
145
330
1
100
AcDbSymbolTableRecord
100
AcDbBlockTableRecord
  2
SE2
340
0
102
{BLKREFS
331
146
102
}
  0
ENDTAB
  0
ENDSEC
  0
SECTION
  2
BLOCKS
  0
BLOCK
  5
20
330
1F
100
AcDbEntity
  8
0
100
AcDbBlockBegin
  2
*Model_Space
 70
     0
 10
0.0
 20
0.0
 30
0.0
  3
*Model_Space
  1

  0
ENDBLK
  5
21
330
1F
100
AcDbEntity
  8
0
100
AcDbBlockEnd
  0
BLOCK
  5
1C
330
1B
100
AcDbEntity
 67
     1
  8
0
100
AcDbBlockBegin
  2
*Paper_Space
 70
     0
 10
0.0
 20
0.0
 30
0.0
  3
*Paper_Space
  1

  0
ENDBLK
  5
1D
330
1B
100
AcDbEntity
 67
     1
  8
0
100
AcDbBlockEnd
  0
BLOCK
  5
63
330
5E
100
AcDbEntity
  8
0
100
AcDbBlockBegin
  2
SEANNOT_GROUP
 70
     0
 10
0.0
 20
0.0
 30
0.0
  3
SEANNOT_GROUP
  1

  0
LINE
  5
61
330
5E
100
AcDbEntity
  8
Default
  6
CENTER2
 62
     7
100
AcDbLine
 10
177.8499992739
 20
442.3027357015
 30
0.0
 11
137.850000168
 21
442.3027357015
 31
0.0
  0
LINE
  5
62
330
5E
100
AcDbEntity
  8
Default
  6
CENTER2
 62
     7
100
AcDbLine
 10
157.8499997209
 20
462.3027352544
 30
0.0
 11
157.8499997209
 21
422.3027361485
 31
0.0
  0
ENDBLK
  5
64
330
5E
100
AcDbEntity
  8
0
100
AcDbBlockEnd
  0
BLOCK
  5
C2
330
65
100
AcDbEntity
  8
0
100
AcDbBlockBegin
  2
SE
 70
     0
 10
0.0
 20
0.0
 30
0.0
  3
SE
  1

  0
ARC
  5
68
330
65
100
AcDbEntity
  8
DV1_Default
  6
Continuous
 62
     7
100
AcDbCircle
 10
580.5468420871
 20
393.8027357015
 30
0.0
 40
1.75
100
AcDbArc
 50
180.0
 51
0.0
  0
LINE
  5
69
330
65
100
AcDbEntity
  8
DV1_Default
  6
Continuous
 62
     7
100
AcDbLine
 10
582.2968420871
 20
400.3027357015
 30
0.0
 11
582.2968420871
 21
432.3027357015
 31
0.0
  0
LINE
  5
6A
330
65
100
AcDbEntity
  8
DV1_Default
  6
Continuous
 62
     7
100
AcDbLine
 10
578.7968420871
 20
432.3027357015
 30
0.0
 11
578.7968420871
 21
400.3027357015
 31
0.0
  0
LINE
  5
6B
330
65
100
AcDbEntity
  8
DV1_Default
  6
Continuous
 62
     7
100
AcDbLine
 10
578.7968420871
 20
400.3027357015
 30
0.0
 11
578.7968420871
 21
393.8027357015
 31
0.0
  0
LINE
  5
6C
330
65
100
AcDbEntity
  8
DV1_Default
  6
Continuous
 62
     7
100
AcDbLine
 10
582.2968420871
 20
393.8027357015
 30
0.0
 11
582.2968420871
 21
400.3027357015
 31
0.0
  0
ARC
  5
6D
330
65
100
AcDbEntity
  8
DV1_Default
  6
Continuous
 62
     7
100
AcDbCircle
 10
564.5468420871
 20
393.8027357015
 30
0.0
 40
1.75
100
AcDbArc
 50
180.0
 51
0.0
  0
LINE
  5
6E
330
65
100
AcDbEntity
  8
DV1_Default
  6
Continuous
 62
     7
100
AcDbLine
 10
566.2968420871
 20
393.8027357015
 30
0.0
 11
566.2968420871
 21
400.3027357015
 31
0.0
  0
LINE
  5
6F
330
65
100
AcDbEntity
  8
DV1_Default
  6
Continuous
 62
     7
100
AcDbLine
 10
562.7968420871
 20
400.3027357015
 30
0.0
 11
562.7968420871
 21
393.8027357015
 31
0.0
  0
LINE
  5
70
330
65
100
AcDbEntity
  8
DV1_Default
  6
Continuous
 62
     7
100
AcDbLine
 10
562.7968420871
 20
432.3027357015
 30
0.0
 11
562.7968420871
 21
400.3027357015
 31
0.0
  0
LINE
  5
71
330
65
100
AcDbEntity
  8
DV1_Default
  6
Continuous
 62
     7
100
AcDbLine
 10
566.2968420871
 20
400.3027357015
 30
0.0
 11
566.2968420871
 21
432.3027357015
 31
0.0
  0
ARC
  5
72
330
65
100
AcDbEntity
  8
DV1_Default
  6
Continuous
 62
     7
100
AcDbCircle
 10
548.5468420871
 20
393.8027357015
 30
0.0
 40
1.75
100
AcDbArc
 50
180.0
 51
0.0
  0
LINE
  5
73
330
65
100
AcDbEntity
  8
DV1_Default
  6
Continuous
 62
     7
100
AcDbLine
 10
550.2968420871
 20
400.3027357015
 30
0.0
 11
550.2968420871
 21
432.3027357015
 31
0.0
  0
LINE
  5
74
330
65
100
AcDbEntity
  8
DV1_Default
  6
Continuous
 62
     7
100
AcDbLine
 10
546.7968420871
 20
432.3027357015
 30
0.0
 11
546.7968420871
 21
400.3027357015
 31
0.0
  0
LINE
  5
75
330
65
100
AcDbEntity
  8
DV1_Default
  6
Continuous
 62
     7
100
AcDbLine
 10
546.7968420871
 20
400.3027357015
 30
0.0
 11
546.7968420871
 21
393.8027357015
 31
0.0
  0
LINE
  5
76
330
65
100
AcDbEntity
  8
DV1_Default
  6
Continuous
 62
     7
100
AcDbLine
 10
550.2968420871
 20
393.8027357015
 30
0.0
 11
550.2968420871
 21
400.3027357015
 31
0.0
  0
ARC
  5
77
330
65
100
AcDbEntity
  8
DV1_Default
  6
Continuous
 62
     7
100
AcDbCircle
 10
532.5468420871
 20
393.8027357015
 30
0.0
 40
1.75
100
AcDbArc
 50
180.0
 51
0.0
  0
LINE
  5
78
330
65
100
AcDbEntity
  8
DV1_Default
  6
Continuous
 62
     7
100
AcDbLine
 10
534.2968420871
 20
400.3027357015
 30
0.0
 11
534.2968420871
 21
432.3027357015
 31
0.0
  0
LINE
  5
79
330
65
100
AcDbEntity
  8
DV1_Default
  6
Continuous
 62
     7
100
AcDbLine
 10
530.7968420871
 20
432.3027357015
 30
0.0
 11
530.7968420871
 21
400.3027357015
 31
0.0
  0
LINE
  5
7A
330
65
100
AcDbEntity
  8
DV1_Default
  6
Continuous
 62
     7
100
AcDbLine
 10
530.7968420871
 20
400.3027357015
 30
0.0
 11
530.7968420871
 21
393.8027357015
 31
0.0
  0
LINE
  5
7B
330
65
100
AcDbEntity
  8
DV1_Default
  6
Continuous
 62
     7
100
AcDbLine
 10
534.2968420871
 20
393.8027357015
 30
0.0
 11
534.2968420871
 21
400.3027357015
 31
0.0
  0
ARC
  5
7C
330
65
100
AcDbEntity
  8
DV1_Default
  6
Continuous
 62
     7
100
AcDbCircle
 10
516.5468420871
 20
393.8027357015
 30
0.0
 40
1.75
100
AcDbArc
 50
180.0
 51
0.0
  0
LINE
  5
7D
330
65
100
AcDbEntity
  8
DV1_Default
  6
Continuous
 62
     7
100
AcDbLine
 10
518.2968420871
 20
400.3027357015
 30
0.0
 11
518.2968420871
 21
432.3027357015
 31
0.0
  0
LINE
  5
7E
330
65
100
AcDbEntity
  8
DV1_Default
  6
Continuous
 62
     7
100
AcDbLine
 10
514.7968420871
 20
432.3027357015
 30
0.0
 11
514.7968420871
 21
400.3027357015
 31
0.0
  0
LINE
  5
7F
330
65
100
AcDbEntity
  8
DV1_Default
  6
Continuous
 62
     7
100
AcDbLine
 10
514.7968420871
 20
400.3027357015
 30
0.0
 11
514.7968420871
 21
393.8027357015
 31
0.0
  0
LINE
  5
80
330
65
100
AcDbEntity
  8
DV1_Default
  6
Continuous
 62
     7
100
AcDbLine
 10
518.2968420871
 20
393.8027357015
 30
0.0
 11
518.2968420871
 21
400.3027357015
 31
0.0
  0
ARC
  5
81
330
65
100
AcDbEntity
  8
DV1_Default
  6
Continuous
 62
     7
100
AcDbCircle
 10
500.5468420871
 20
393.8027357015
 30
0.0
 40
1.75
100
AcDbArc
 50
180.0
 51
0.0
  0
LINE
  5
82
330
65
100
AcDbEntity
  8
DV1_Default
  6
Continuous
 62
     7
100
AcDbLine
 10
502.2968420871
 20
400.3027357015
 30
0.0
 11
502.2968420871
 21
432.3027357015
 31
0.0
  0
LINE
  5
83
330
65
100
AcDbEntity
  8
DV1_Default
  6
Continuous
 62
     7
100
AcDbLine
 10
498.7968420871
 20
432.3027357015
 30
0.0
 11
498.7968420871
 21
400.3027357015
 31
0.0
  0
LINE
  5
84
330
65
100
AcDbEntity
  8
DV1_Default
  6
Continuous
 62
     7
100
AcDbLine
 10
498.7968420871
 20
400.3027357015
 30
0.0
 11
498.7968420871
 21
393.8027357015
 31
0.0
  0
LINE
  5
85
330
65
100
AcDbEntity
  8
DV1_Default
  6
Continuous
 62
     7
100
AcDbLine
 10
502.2968420871
 20
393.8027357015
 30
0.0
 11
502.2968420871
 21
400.3027357015
 31
0.0
  0
ARC
  5
86
330
65
100
AcDbEntity
  8
DV1_Default
  6
Continuous
 62
     7
100
AcDbCircle
 10
484.5468420871
 20
393.8027357015
 30
0.0
 40
1.75
100
AcDbArc
 50
180.0
 51
0.0
  0
LINE
  5
87
330
65
100
AcDbEntity
  8
DV1_Default
  6
Continuous
 62
     7
100
AcDbLine
 10
486.2968420871
 20
400.3027357015
 30
0.0
 11
486.2968420871
 21
432.3027357015
 31
0.0
  0
LINE
  5
88
330
65
100
AcDbEntity
  8
DV1_Default
  6
Continuous
 62
     7
100
AcDbLine
 10
482.7968420871
 20
431.4712179585
 30
0.0
 11
482.7968420871
 21
400.3027357015
 31
0.0
  0
LINE
  5
89
330
65
100
AcDbEntity
  8
DV1_Default
  6
Continuous
 62
     7
100
AcDbLine
 10
482.7968420871
 20
400.3027357015
 30
0.0
 11
482.7968420871
 21
393.8027357015
 31
0.0
  0
LINE
  5
8A
330
65
100
AcDbEntity
  8
DV1_Default
  6
Continuous
 62
     7
100
AcDbLine
 10
486.2968420871
 20
393.8027357015
 30
0.0
 11
486.2968420871
 21
400.3027357015
 31
0.0
  0
ARC
  5
8B
330
65
100
AcDbEntity
  8
DV1_Default
  6
Continuous
 62
     7
100
AcDbCircle
 10
468.5468420871
 20
393.8027357015
 30
0.0
 40
1.75
100
AcDbArc
 50
180.0
 51
0.0
  0
LINE
  5
8C
330
65
100
AcDbEntity
  8
DV1_Default
  6
Continuous
 62
     7
100
AcDbLine
 10
470.2968420871
 20
400.3027357015
 30
0.0
 11
470.2968420871
 21
432.3027357015
 31
0.0
  0
LINE
  5
8D
330
65
100
AcDbEntity
  8
DV1_Default
  6
Continuous
 62
     7
100
AcDbLine
 10
466.7968420871
 20
432.3027357015
 30
0.0
 11
466.7968420871
 21
400.3027357015
 31
0.0
  0
LINE
  5
8E
330
65
100
AcDbEntity
  8
DV1_Default
  6
Continuous
 62
     7
100
AcDbLine
 10
466.7968420871
 20
400.3027357015
 30
0.0
 11
466.7968420871
 21
393.8027357015
 31
0.0
  0
LINE
  5
8F
330
65
100
AcDbEntity
  8
DV1_Default
  6
Continuous
 62
     7
100
AcDbLine
 10
470.2968420871
 20
393.8027357015
 30
0.0
 11
470.2968420871
 21
400.3027357015
 31
0.0
  0
ARC
  5
90
330
65
100
AcDbEntity
  8
DV1_Default
  6
Continuous
 62
     7
100
AcDbCircle
 10
452.5468420871
 20
393.8027357015
 30
0.0
 40
1.75
100
AcDbArc
 50
180.0
 51
0.0
  0
LINE
  5
91
330
65
100
AcDbEntity
  8
DV1_Default
  6
Continuous
 62
     7
100
AcDbLine
 10
454.2968420871
 20
400.3027357015
 30
0.0
 11
454.2968420871
 21
432.3027357015
 31
0.0
  0
LINE
  5
92
330
65
100
AcDbEntity
  8
DV1_Default
  6
Continuous
 62
     7
100
AcDbLine
 10
450.7968420871
 20
432.3027357015
 30
0.0
 11
450.7968420871
 21
400.3027357015
 31
0.0
  0
LINE
  5
93
330
65
100
AcDbEntity
  8
DV1_Default
  6
Continuous
 62
     7
100
AcDbLine
 10
450.7968420871
 20
400.3027357015
 30
0.0
 11
450.7968420871
 21
393.8027357015
 31
0.0
  0
LINE
  5
94
330
65
100
AcDbEntity
  8
DV1_Default
  6
Continuous
 62
     7
100
AcDbLine
 10
454.2968420871
 20
393.8027357015
 30
0.0
 11
454.2968420871
 21
400.3027357015
 31
0.0
  0
ARC
  5
95
330
65
100
AcDbEntity
  8
DV1_Default
  6
Continuous
 62
     7
100
AcDbCircle
 10
436.5468420871
 20
393.8027357015
 30
0.0
 40
1.75
100
AcDbArc
 50
180.0
 51
0.0
  0
LINE
  5
96
330
65
100
AcDbEntity
  8
DV1_Default
  6
Continuous
 62
     7
100
AcDbLine
 10
438.2968420871
 20
393.8027357015
 30
0.0
 11
438.2968420871
 21
400.3027357015
 31
0.0
  0
LINE
  5
97
330
65
100
AcDbEntity
  8
DV1_Default
  6
Continuous
 62
     7
100
AcDbLine
 10
434.7968420871
 20
400.3027357015
 30
0.0
 11
434.7968420871
 21
393.8027357015
 31
0.0
  0
LINE
  5
98
330
65
100
AcDbEntity
  8
DV1_Default
  6
Continuous
 62
     7
100
AcDbLine
 10
434.7968420871
 20
431.4712179585
 30
0.0
 11
434.7968420871
 21
400.3027357015
 31
0.0
  0
LINE
  5
99
330
65
100
AcDbEntity
  8
DV1_Default
  6
Continuous
 62
     7
100
AcDbLine
 10
438.2968420871
 20
400.3027357015
 30
0.0
 11
438.2968420871
 21
432.3027357015
 31
0.0
  0
ARC
  5
9A
330
65
100
AcDbEntity
  8
DV1_Default
  6
Continuous
 62
     7
100
AcDbCircle
 10
420.5468420871
 20
393.8027357015
 30
0.0
 40
1.75
100
AcDbArc
 50
180.0
 51
0.0
  0
LINE
  5
9B
330
65
100
AcDbEntity
  8
DV1_Default
  6
Continuous
 62
     7
100
AcDbLine
 10
422.2968420871
 20
400.3027357015
 30
0.0
 11
422.2968420871
 21
432.3027357015
 31
0.0
  0
LINE
  5
9C
330
65
100
AcDbEntity
  8
DV1_Default
  6
Continuous
 62
     7
100
AcDbLine
 10
418.7968420871
 20
432.3027357015
 30
0.0
 11
418.7968420871
 21
400.3027357015
 31
0.0
  0
LINE
  5
9D
330
65
100
AcDbEntity
  8
DV1_Default
  6
Continuous
 62
     7
100
AcDbLine
 10
418.7968420871
 20
400.3027357015
 30
0.0
 11
418.7968420871
 21
393.8027357015
 31
0.0
  0
LINE
  5
9E
330
65
100
AcDbEntity
  8
DV1_Default
  6
Continuous
 62
     7
100
AcDbLine
 10
422.2968420871
 20
393.8027357015
 30
0.0
 11
422.2968420871
 21
400.3027357015
 31
0.0
  0
ARC
  5
9F
330
65
100
AcDbEntity
  8
DV1_Default
  6
Continuous
 62
     7
100
AcDbCircle
 10
404.5468420871
 20
393.8027357015
 30
0.0
 40
1.75
100
AcDbArc
 50
180.0
 51
0.0
  0
LINE
  5
A0
330
65
100
AcDbEntity
  8
DV1_Default
  6
Continuous
 62
     7
100
AcDbLine
 10
406.2968420871
 20
400.3027357015
 30
0.0
 11
406.2968420871
 21
432.3027357015
 31
0.0
  0
LINE
  5
A1
330
65
100
AcDbEntity
  8
DV1_Default
  6
Continuous
 62
     7
100
AcDbLine
 10
402.7968420871
 20
432.3027357015
 30
0.0
 11
402.7968420871
 21
400.3027357015
 31
0.0
  0
LINE
  5
A2
330
65
100
AcDbEntity
  8
DV1_Default
  6
Continuous
 62
     7
100
AcDbLine
 10
402.7968420871
 20
400.3027357015
 30
0.0
 11
402.7968420871
 21
393.8027357015
 31
0.0
  0
LINE
  5
A3
330
65
100
AcDbEntity
  8
DV1_Default
  6
Continuous
 62
     7
100
AcDbLine
 10
406.2968420871
 20
393.8027357015
 30
0.0
 11
406.2968420871
 21
400.3027357015
 31
0.0
  0
LINE
  5
A4
330
65
100
AcDbEntity
  8
DV1_Default
  6
Continuous
 62
     7
100
AcDbLine
 10
592.6827760871
 20
400.3027412097
 30
0.0
 11
592.6827760871
 21
432.3027357015
 31
0.0
  0
LINE
  5
A5
330
65
100
AcDbEntity
  8
DV1_Default
  6
Continuous
 62
     7
100
AcDbLine
 10
589.1827760871
 20
432.3027357015
 30
0.0
 11
589.1827760871
 21
400.3027412097
 31
0.0
  0
ARC
  5
A6
330
65
100
AcDbEntity
  8
DV1_Default
  6
Continuous
 62
     7
100
AcDbCircle
 10
590.9327760871
 20
393.8063368975
 30
0.0
 40
1.750000000000002
100
AcDbArc
 50
180.0
 51
0.0
  0
LINE
  5
A7
330
65
100
AcDbEntity
  8
DV1_Default
  6
Continuous
 62
     7
100
AcDbLine
 10
589.1827760871
 20
400.3027412097
 30
0.0
 11
589.1827760871
 21
393.8063368975
 31
0.0
  0
LINE
  5
A8
330
65
100
AcDbEntity
  8
DV1_Default
  6
Continuous
 62
     7
100
AcDbLine
 10
592.6827760871
 20
393.8063368975
 30
0.0
 11
592.6827760871
 21
400.3027412097
 31
0.0
  0
ARC
  5
A9
330
65
100
AcDbEntity
  8
DV1_Default
  6
Continuous
 62
     7
100
AcDbCircle
 10
388.4729160871
 20
393.8027357015
 30
0.0
 40
1.75
100
AcDbArc
 50
180.0
 51
0.0
  0
LINE
  5
AA
330
65
100
AcDbEntity
  8
DV1_Default
  6
Continuous
 62
     7
100
AcDbLine
 10
390.2229160871
 20
393.8027357015
 30
0.0
 11
390.2229160871
 21
400.3027357015
 31
0.0
  0
LINE
  5
AB
330
65
100
AcDbEntity
  8
DV1_Default
  6
Continuous
 62
     7
100
AcDbLine
 10
386.7229160871
 20
400.3027357015
 30
0.0
 11
386.7229160871
 21
393.8027357015
 31
0.0
  0
LINE
  5
AC
330
65
100
AcDbEntity
  8
DV1_Default
  6
Continuous
 62
     7
100
AcDbLine
 10
386.7229160871
 20
432.3027357015
 30
0.0
 11
386.7229160871
 21
400.3027357015
 31
0.0
  0
LINE
  5
AD
330
65
100
AcDbEntity
  8
DV1_Default
  6
Continuous
 62
     7
100
AcDbLine
 10
390.2229160871
 20
400.3027357015
 30
0.0
 11
390.2229160871
 21
432.3027357015
 31
0.0
  0
LINE
  5
AE
330
65
100
AcDbEntity
  8
DV1_Default
  6
Continuous
 62
     7
100
AcDbLine
 10
374.1735760871
 20
432.3027357015
 30
0.0
 11
433.5229031118
 21
432.3027357015
 31
0.0
  0
LINE
  5
AF
330
65
100
AcDbEntity
  8
DV1_Default
  6
Continuous
 62
     7
100
AcDbLine
 10
436.332276891
 20
432.3027357015
 30
0.0
 11
481.5229031118
 21
432.3027357015
 31
0.0
  0
LINE
  5
B0
330
65
100
AcDbEntity
  8
DV1_Default
  6
Continuous
 62
     7
100
AcDbLine
 10
484.332276891
 20
432.3027357015
 30
0.0
 11
505.4672456859
 21
432.3027357015
 31
0.0
  0
ELLIPSE
  5
B1
330
65
100
AcDbEntity
  8
DV1_Default
  6
Continuous
 62
     7
100
AcDbEllipse
 10
376.0591941704
 20
437.3027357015
 30
0.0
 11
-2.645010946378257E-10
 21
-5.666666666627028
 31
0.0
210
0.0
220
0.0
230
1.0
 40
0.7071067812
 41
4.351676259880518
 42
5.793227980959125
  0
SPLINE
  5
B2
330
65
100
AcDbEntity
  8
DV1_Default
  6
Continuous
 62
     7
100
AcDbSpline
210
0.0
220
0.0
230
1.0
 70
     8
 71
     3
 72
    12
 73
     8
 74
     0
 42
0.0000000018705298
 43
0.0000000001
 40
0.0
 40
0.0
 40
0.0
 40
0.0
 40
0.500574088297962
 40
0.500574088297962
 40
0.7508611324469588
 40
0.7508611324469588
 40
1.0
 40
1.0
 40
1.0
 40
1.0
 10
372.3101202090611
 20
439.3027357023944
 30
0.0
 10
372.5395185561454
 20
440.1627670639562
 30
0.0
 10
373.1629094297996
 20
440.8911196967488
 30
0.0
 10
374.2798960080932
 20
441.6668334740034
 30
0.0
 10
374.6897862942981
 20
441.8798939583606
 30
0.0
 10
375.5266259513406
 20
442.1960643331306
 30
0.0
 10
375.9735459340068
 20
442.3027044678803
 30
0.0
 10
376.2948987822865
 20
442.3027354819176
 30
0.0
  0
LINE
  5
B3
330
65
100
AcDbEntity
  8
DV1_Default
  6
Continuous
 62
     7
100
AcDbLine
 10
545.6541872547
 20
432.3027357015
 30
0.0
 11
595.0522552918
 21
432.3027357015
 31
0.0
  0
LINE
  5
B4
330
65
100
AcDbEntity
  8
DV1_Default
  6
Continuous
 62
     7
100
AcDbLine
 10
505.4672456859
 20
432.3027357015
 30
0.0
 11
545.6541874299
 21
432.3027357015
 31
0.0
  0
LINE
  5
B5
330
65
100
AcDbEntity
  8
DV1_Default
  6
Continuous
 62
     7
100
AcDbLine
 10
595.0522550871
 20
432.3027357015
 30
0.0
 11
595.0522550871
 21
439.3027357015
 31
0.0
  0
LINE
  5
B6
330
65
100
AcDbEntity
  8
DV1_Default
  6
Continuous
 62
     7
100
AcDbLine
 10
543.3074177888
 20
442.3027357015
 30
0.0
 11
507.5885693578
 21
442.3027357015
 31
0.0
  0
LINE
  5
B7
330
65
100
AcDbEntity
  8
DV1_Default
  6
Continuous
 62
     7
100
AcDbLine
 10
507.5885690905
 20
442.3027357015
 30
0.0
 11
484.332276891
 21
442.3027357015
 31
0.0
  0
LINE
  5
B8
330
65
100
AcDbEntity
  8
DV1_Default
  6
Continuous
 62
     7
100
AcDbLine
 10
483.0549678044
 20
442.3027357015
 30
0.0
 11
436.332276891
 21
442.3027357015
 31
0.0
  0
LINE
  5
B9
330
65
100
AcDbEntity
  8
DV1_Default
  6
Continuous
 62
     7
100
AcDbLine
 10
435.0549678044
 20
442.3027357015
 30
0.0
 11
376.291480576
 21
442.3027357015
 31
0.0
  0
ARC
  5
BA
330
65
100
AcDbEntity
  8
DV1_Default
  6
Continuous
 62
     7
100
AcDbCircle
 10
592.0522550871
 20
439.3027357015
 30
0.0
 40
3.00000000000003
100
AcDbArc
 50
0.0
 51
90.0
  0
LINE
  5
BB
330
65
100
AcDbEntity
  8
DV1_Default
  6
Continuous
 62
     7
100
AcDbLine
 10
592.0522550871
 20
442.3027357015
 30
0.0
 11
543.3074176287
 21
442.3027357015
 31
0.0
  0
LINE
  5
BC
330
65
100
AcDbEntity
  8
DV1_Default
  6
Continuous
 62
     7
100
AcDbLine
 10
435.0277924561
 20
442.3027357015
 30
0.0
 11
436.3440841816
 21
442.3027357015
 31
0.0
  0
LINE
  5
BD
330
65
100
AcDbEntity
  8
DV1_Default
  6
Continuous
 62
     7
100
AcDbLine
 10
433.4283304816
 20
432.3027357015
 30
0.0
 11
436.4010015931
 21
432.3027357015
 31
0.0
  0
LINE
  5
BE
330
65
100
AcDbEntity
  8
DV1_Default
  6
Continuous
 62
     7
100
AcDbLine
 10
434.7968420871
 20
431.461999578
 30
0.0
 11
434.7968420871
 21
432.3027357015
 31
0.0
  0
LINE
  5
BF
330
65
100
AcDbEntity
  8
DV1_Default
  6
Continuous
 62
     7
100
AcDbLine
 10
482.946668235
 20
442.3027357015
 30
0.0
 11
484.5021848277
 21
442.3027357015
 31
0.0
  0
LINE
  5
C0
330
65
100
AcDbEntity
  8
DV1_Default
  6
Continuous
 62
     7
100
AcDbLine
 10
481.3684897842
 20
432.3027357015
 30
0.0
 11
484.5021848277
 21
432.3027357015
 31
0.0
  0
LINE
  5
C1
330
65
100
AcDbEntity
  8
DV1_Default
  6
Continuous
 62
     7
100
AcDbLine
 10
482.7968420871
 20
431.33157427
 30
0.0
 11
482.7968420871
 21
432.3027357015
 31
0.0
  0
ENDBLK
  5
C3
330
65
100
AcDbEntity
  8
0
100
AcDbBlockEnd
  0
BLOCK
  5
143
330
C4
100
AcDbEntity
  8
0
100
AcDbBlockBegin
  2
SE1
 70
     0
 10
0.0
 20
0.0
 30
0.0
  3
SE1
  1

  0
LINE
  5
C7
330
C4
100
AcDbEntity
  8
DV2_Default
  6
Continuous
 62
     7
100
AcDbLine
 10
88.750000224
 20
400.3027357015
 30
0.0
 11
88.750000224
 21
432.3027357015
 31
0.0
  0
LINE
  5
C8
330
C4
100
AcDbEntity
  8
DV2_Default
  6
Continuous
 62
     7
100
AcDbLine
 10
85.250000224
 20
432.3027357015
 30
0.0
 11
85.250000224
 21
400.3027357015
 31
0.0
  0
ARC
  5
C9
330
C4
100
AcDbEntity
  8
DV2_Default
  6
Continuous
 62
     7
100
AcDbCircle
 10
93.500000224
 20
400.3027357015
 30
0.0
 40
4.749999999999997
100
AcDbArc
 50
180.0
 51
270.0
  0
ARC
  5
CA
330
C4
100
AcDbEntity
  8
DV2_Default
  6
Continuous
 62
     7
100
AcDbCircle
 10
93.500000224
 20
400.3027357015
 30
0.0
 40
8.249999999999993
100
AcDbArc
 50
180.0
 51
270.0
  0
LINE
  5
CB
330
C4
100
AcDbEntity
  8
DV2_Default
  6
Continuous
 62
     7
100
AcDbLine
 10
222.200000224
 20
395.5527357015
 30
0.0
 11
180.440389761
 21
395.5527357015
 31
0.0
  0
LINE
  5
CC
330
C4
100
AcDbEntity
  8
DV2_Default
  6
Continuous
 62
     7
100
AcDbLine
 10
135.2671285108
 20
395.5527357015
 30
0.0
 11
93.500000224
 21
395.5527357015
 31
0.0
  0
LINE
  5
CD
330
C4
100
AcDbEntity
  8
DV2_Default
  6
Continuous
 62
     7
100
AcDbLine
 10
93.500000224
 20
392.0527357015
 30
0.0
 11
222.200000224
 21
392.0527357015
 31
0.0
  0
ARC
  5
CE
330
C4
100
AcDbEntity
  8
DV2_Default
  6
Continuous
 62
     7
100
AcDbCircle
 10
222.200000224
 20
400.3027357015
 30
0.0
 40
4.74999999999999
100
AcDbArc
 50
270.0
 51
0.0
  0
ARC
  5
CF
330
C4
100
AcDbEntity
  8
DV2_Default
  6
Continuous
 62
     7
100
AcDbCircle
 10
222.200000224
 20
400.3027357015
 30
0.0
 40
8.25
100
AcDbArc
 50
270.0
 51
0.0
  0
LINE
  5
D0
330
C4
100
AcDbEntity
  8
DV2_Default
  6
Continuous
 62
     7
100
AcDbLine
 10
226.950000224
 20
432.3027357015
 30
0.0
 11
226.950000224
 21
400.3027357015
 31
0.0
  0
LINE
  5
D1
330
C4
100
AcDbEntity
  8
DV2_Default
  6
Continuous
 62
     7
100
AcDbLine
 10
230.450000224
 20
400.3027357015
 30
0.0
 11
230.450000224
 21
432.3027357015
 31
0.0
  0
LINE
  5
D2
330
C4
100
AcDbEntity
  8
DV2_Default
  6
Continuous
 62
     7
100
AcDbLine
 10
267.100000224
 20
400.3027357015
 30
0.0
 11
267.100000224
 21
432.3027357015
 31
0.0
  0
LINE
  5
D3
330
C4
100
AcDbEntity
  8
DV2_Default
  6
Continuous
 62
     7
100
AcDbLine
 10
263.600000224
 20
432.3027357015
 30
0.0
 11
263.600000224
 21
400.3027357015
 31
0.0
  0
ARC
  5
D4
330
C4
100
AcDbEntity
  8
DV2_Default
  6
Continuous
 62
     7
100
AcDbCircle
 10
258.850000224
 20
400.3027357015
 30
0.0
 40
4.750000000000004
100
AcDbArc
 50
270.0
 51
0.0
  0
ARC
  5
D5
330
C4
100
AcDbEntity
  8
DV2_Default
  6
Continuous
 62
     7
100
AcDbCircle
 10
258.850000224
 20
400.3027357015
 30
0.0
 40
8.25
100
AcDbArc
 50
270.0
 51
0.0
  0
LINE
  5
D6
330
C4
100
AcDbEntity
  8
DV2_Default
  6
Continuous
 62
     7
100
AcDbLine
 10
56.850000224
 20
392.0527357015
 30
0.0
 11
93.500000224
 21
392.0527357015
 31
0.0
  0
LINE
  5
D7
330
C4
100
AcDbEntity
  8
DV2_Default
  6
Continuous
 62
     7
100
AcDbLine
 10
222.200000224
 20
392.0527357015
 30
0.0
 11
258.850000224
 21
392.0527357015
 31
0.0
  0
LINE
  5
D8
330
C4
100
AcDbEntity
  8
DV2_Default
  6
Continuous
 62
     7
100
AcDbLine
 10
258.850000224
 20
395.5527357015
 30
0.0
 11
228.9453690057
 21
395.5527357015
 31
0.0
  0
LINE
  5
D9
330
C4
100
AcDbEntity
  8
DV2_Default
  6
Continuous
 62
     7
100
AcDbLine
 10
86.7546314424
 20
395.5527357015
 30
0.0
 11
56.850000224
 21
395.5527357015
 31
0.0
  0
ARC
  5
DA
330
C4
100
AcDbEntity
  8
DV2_Default
  6
Continuous
 62
     7
100
AcDbCircle
 10
56.850000224
 20
400.3027357015
 30
0.0
 40
4.749999999999997
100
AcDbArc
 50
180.0
 51
270.0
  0
ARC
  5
DB
330
C4
100
AcDbEntity
  8
DV2_Default
  6
Continuous
 62
     7
100
AcDbCircle
 10
56.850000224
 20
400.3027357015
 30
0.0
 40
8.250000000000007
100
AcDbArc
 50
180.0
 51
270.0
  0
LINE
  5
DC
330
C4
100
AcDbEntity
  8
DV2_Default
  6
Continuous
 62
     7
100
AcDbLine
 10
48.600000224
 20
432.3027357015
 30
0.0
 11
48.600000224
 21
400.3027357015
 31
0.0
  0
LINE
  5
DD
330
C4
100
AcDbEntity
  8
DV2_Default
  6
Continuous
 62
     7
100
AcDbLine
 10
52.100000224
 20
400.3027357015
 30
0.0
 11
52.100000224
 21
432.3027357015
 31
0.0
  0
LINE
  5
DE
330
C4
100
AcDbEntity
  8
DV2_Default
  6
Continuous
 62
     7
100
AcDbLine
 10
27.000000224
 20
400.3027357015
 30
0.0
 11
27.000000224
 21
432.3027357015
 31
0.0
  0
LINE
  5
DF
330
C4
100
AcDbEntity
  8
DV2_Default
  6
Continuous
 62
     7
100
AcDbLine
 10
23.500000224
 20
432.3027357015
 30
0.0
 11
23.500000224
 21
400.3027357015
 31
0.0
  0
ARC
  5
E0
330
C4
100
AcDbEntity
  8
DV2_Default
  6
Continuous
 62
     7
100
AcDbCircle
 10
31.750000224
 20
400.3027357015
 30
0.0
 40
4.749999999999997
100
AcDbArc
 50
180.0
 51
270.0
  0
ARC
  5
E1
330
C4
100
AcDbEntity
  8
DV2_Default
  6
Continuous
 62
     7
100
AcDbCircle
 10
31.750000224
 20
400.3027357015
 30
0.0
 40
8.250000000000007
100
AcDbArc
 50
180.0
 51
270.0
  0
LINE
  5
E2
330
C4
100
AcDbEntity
  8
DV2_Default
  6
Continuous
 62
     7
100
AcDbLine
 10
283.950000224
 20
395.5527357015
 30
0.0
 11
265.5953690057
 21
395.5527357015
 31
0.0
  0
LINE
  5
E3
330
C4
100
AcDbEntity
  8
DV2_Default
  6
Continuous
 62
     7
100
AcDbLine
 10
50.1046314424
 20
395.5527357015
 30
0.0
 11
31.750000224
 21
395.5527357015
 31
0.0
  0
LINE
  5
E4
330
C4
100
AcDbEntity
  8
DV2_Default
  6
Continuous
 62
     7
100
AcDbLine
 10
31.750000224
 20
392.0527357015
 30
0.0
 11
56.850000224
 21
392.0527357015
 31
0.0
  0
LINE
  5
E5
330
C4
100
AcDbEntity
  8
DV2_Default
  6
Continuous
 62
     7
100
AcDbLine
 10
258.850000224
 20
392.0527357015
 30
0.0
 11
283.950000224
 21
392.0527357015
 31
0.0
  0
ARC
  5
E6
330
C4
100
AcDbEntity
  8
DV2_Default
  6
Continuous
 62
     7
100
AcDbCircle
 10
283.950000224
 20
400.3027357015
 30
0.0
 40
4.750000000000004
100
AcDbArc
 50
270.0
 51
0.0
  0
ARC
  5
E7
330
C4
100
AcDbEntity
  8
DV2_Default
  6
Continuous
 62
     7
100
AcDbCircle
 10
283.950000224
 20
400.3027357015
 30
0.0
 40
8.25
100
AcDbArc
 50
270.0
 51
0.0
  0
LINE
  5
E8
330
C4
100
AcDbEntity
  8
DV2_Default
  6
Continuous
 62
     7
100
AcDbLine
 10
288.700000224
 20
432.3027357015
 30
0.0
 11
288.700000224
 21
400.3027357015
 31
0.0
  0
LINE
  5
E9
330
C4
100
AcDbEntity
  8
DV2_Default
  6
Continuous
 62
     7
100
AcDbLine
 10
292.200000224
 20
400.3027357015
 30
0.0
 11
292.200000224
 21
432.3027357015
 31
0.0
  0
LINE
  5
EA
330
C4
100
AcDbEntity
  8
DV2_Default
  6
Continuous
 62
     7
100
AcDbLine
 10
12.450000224
 20
400.3027357015
 30
0.0
 11
12.450000224
 21
432.3027357015
 31
0.0
  0
LINE
  5
EB
330
C4
100
AcDbEntity
  8
DV2_Default
  6
Continuous
 62
     7
100
AcDbLine
 10
8.950000224
 20
432.3027357015
 30
0.0
 11
8.950000224
 21
400.3027357015
 31
0.0
  0
ARC
  5
EC
330
C4
100
AcDbEntity
  8
DV2_Default
  6
Continuous
 62
     7
100
AcDbCircle
 10
17.200000224
 20
400.3027357015
 30
0.0
 40
4.749999999999997
100
AcDbArc
 50
180.0
 51
270.0
  0
ARC
  5
ED
330
C4
100
AcDbEntity
  8
DV2_Default
  6
Continuous
 62
     7
100
AcDbCircle
 10
17.200000224
 20
400.3027357015
 30
0.0
 40
8.250000000000007
100
AcDbArc
 50
180.0
 51
270.0
  0
LINE
  5
EE
330
C4
100
AcDbEntity
  8
DV2_Default
  6
Continuous
 62
     7
100
AcDbLine
 10
298.500000224
 20
395.5527357015
 30
0.0
 11
290.6953690057
 21
395.5527357015
 31
0.0
  0
LINE
  5
EF
330
C4
100
AcDbEntity
  8
DV2_Default
  6
Continuous
 62
     7
100
AcDbLine
 10
25.0046314424
 20
395.5527357015
 30
0.0
 11
17.200000224
 21
395.5527357015
 31
0.0
  0
LINE
  5
F0
330
C4
100
AcDbEntity
  8
DV2_Default
  6
Continuous
 62
     7
100
AcDbLine
 10
17.200000224
 20
392.0527357015
 30
0.0
 11
31.750000224
 21
392.0527357015
 31
0.0
  0
LINE
  5
F1
330
C4
100
AcDbEntity
  8
DV2_Default
  6
Continuous
 62
     7
100
AcDbLine
 10
283.950000224
 20
392.0527357015
 30
0.0
 11
298.500000224
 21
392.0527357015
 31
0.0
  0
ARC
  5
F2
330
C4
100
AcDbEntity
  8
DV2_Default
  6
Continuous
 62
     7
100
AcDbCircle
 10
298.500000224
 20
400.3027357015
 30
0.0
 40
4.750000000000004
100
AcDbArc
 50
270.0
 51
0.0
  0
ARC
  5
F3
330
C4
100
AcDbEntity
  8
DV2_Default
  6
Continuous
 62
     7
100
AcDbCircle
 10
298.500000224
 20
400.3027357015
 30
0.0
 40
8.25
100
AcDbArc
 50
270.0
 51
0.0
  0
LINE
  5
F4
330
C4
100
AcDbEntity
  8
DV2_Default
  6
Continuous
 62
     7
100
AcDbLine
 10
303.250000224
 20
432.3027357015
 30
0.0
 11
303.250000224
 21
400.3027357015
 31
0.0
  0
LINE
  5
F5
330
C4
100
AcDbEntity
  8
DV2_Default
  6
Continuous
 62
     7
100
AcDbLine
 10
306.750000224
 20
400.3027357015
 30
0.0
 11
306.750000224
 21
432.3027357015
 31
0.0
  0
LINE
  5
F6
330
C4
100
AcDbEntity
  8
DV2_Default
  6
Continuous
 62
     7
100
AcDbLine
 10
21.650000224
 20
432.3027357015
 30
0.0
 11
21.650000224
 21
400.3027357015
 31
0.0
  0
ARC
  5
F7
330
C4
100
AcDbEntity
  8
DV2_Default
  6
Continuous
 62
     7
100
AcDbCircle
 10
29.900000224
 20
400.3027357015
 30
0.0
 40
8.249999999999979
100
AcDbArc
 50
180.0
 51
215.1527029668
  0
ARC
  5
F8
330
C4
100
AcDbEntity
  8
DV2_Default
  6
Continuous
 62
     7
100
AcDbCircle
 10
285.800000224
 20
400.3027357015
 30
0.0
 40
8.25
100
AcDbArc
 50
324.8472970332
 51
0.0
  0
LINE
  5
F9
330
C4
100
AcDbEntity
  8
DV2_Default
  6
Continuous
 62
     7
100
AcDbLine
 10
294.050000224
 20
400.3027357015
 30
0.0
 11
294.050000224
 21
432.3027357015
 31
0.0
  0
LINE
  5
FA
330
C4
100
AcDbEntity
  8
DV2_Default
  6
Continuous
 62
     7
100
AcDbLine
 10
41.150000224
 20
400.3027357015
 30
0.0
 11
41.150000224
 21
432.3027357015
 31
0.0
  0
LINE
  5
FB
330
C4
100
AcDbEntity
  8
DV2_Default
  6
Continuous
 62
     7
100
AcDbLine
 10
37.650000224
 20
431.724211827
 30
0.0
 11
37.650000224
 21
400.3027357015
 31
0.0
  0
ARC
  5
FC
330
C4
100
AcDbEntity
  8
DV2_Default
  6
Continuous
 62
     7
100
AcDbCircle
 10
45.900000224
 20
400.3027357015
 30
0.0
 40
4.749999999999997
100
AcDbArc
 50
180.0
 51
270.0
  0
ARC
  5
FD
330
C4
100
AcDbEntity
  8
DV2_Default
  6
Continuous
 62
     7
100
AcDbCircle
 10
45.900000224
 20
400.3027357015
 30
0.0
 40
8.250000000000007
100
AcDbArc
 50
180.0
 51
215.1527029668
  0
ARC
  5
FE
330
C4
100
AcDbEntity
  8
DV2_Default
  6
Continuous
 62
     7
100
AcDbCircle
 10
269.800000224
 20
400.3027357015
 30
0.0
 40
4.750000000000004
100
AcDbArc
 50
270.0
 51
0.0
  0
ARC
  5
FF
330
C4
100
AcDbEntity
  8
DV2_Default
  6
Continuous
 62
     7
100
AcDbCircle
 10
269.800000224
 20
400.3027357015
 30
0.0
 40
8.25
100
AcDbArc
 50
324.8472970332
 51
0.0
  0
LINE
  5
100
330
C4
100
AcDbEntity
  8
DV2_Default
  6
Continuous
 62
     7
100
AcDbLine
 10
274.550000224
 20
432.3027357015
 30
0.0
 11
274.550000224
 21
400.3027357015
 31
0.0
  0
LINE
  5
101
330
C4
100
AcDbEntity
  8
DV2_Default
  6
Continuous
 62
     7
100
AcDbLine
 10
278.050000224
 20
400.3027357015
 30
0.0
 11
278.050000224
 21
431.7242116159
 31
0.0
  0
LINE
  5
102
330
C4
100
AcDbEntity
  8
DV2_Default
  6
Continuous
 62
     7
100
AcDbLine
 10
57.150000224
 20
400.3027357015
 30
0.0
 11
57.150000224
 21
432.3027357015
 31
0.0
  0
LINE
  5
103
330
C4
100
AcDbEntity
  8
DV2_Default
  6
Continuous
 62
     7
100
AcDbLine
 10
53.650000224
 20
432.3027357015
 30
0.0
 11
53.650000224
 21
400.3027357015
 31
0.0
  0
ARC
  5
104
330
C4
100
AcDbEntity
  8
DV2_Default
  6
Continuous
 62
     7
100
AcDbCircle
 10
61.900000224
 20
400.3027357015
 30
0.0
 40
4.749999999999997
100
AcDbArc
 50
180.0
 51
270.0
  0
ARC
  5
105
330
C4
100
AcDbEntity
  8
DV2_Default
  6
Continuous
 62
     7
100
AcDbCircle
 10
61.900000224
 20
400.3027357015
 30
0.0
 40
8.249999999999993
100
AcDbArc
 50
180.0
 51
211.5575178055
  0
ARC
  5
106
330
C4
100
AcDbEntity
  8
DV2_Default
  6
Continuous
 62
     7
100
AcDbCircle
 10
253.800000224
 20
400.3027357015
 30
0.0
 40
4.750000000000004
100
AcDbArc
 50
270.0
 51
0.0
  0
ARC
  5
107
330
C4
100
AcDbEntity
  8
DV2_Default
  6
Continuous
 62
     7
100
AcDbCircle
 10
253.800000224
 20
400.3027357015
 30
0.0
 40
8.25
100
AcDbArc
 50
328.4424821945
 51
0.0
  0
LINE
  5
108
330
C4
100
AcDbEntity
  8
DV2_Default
  6
Continuous
 62
     7
100
AcDbLine
 10
258.550000224
 20
432.3027357015
 30
0.0
 11
258.550000224
 21
400.3027357015
 31
0.0
  0
LINE
  5
109
330
C4
100
AcDbEntity
  8
DV2_Default
  6
Continuous
 62
     7
100
AcDbLine
 10
262.050000224
 20
400.3027357015
 30
0.0
 11
262.050000224
 21
432.3027357015
 31
0.0
  0
LINE
  5
10A
330
C4
100
AcDbEntity
  8
DV2_Default
  6
Continuous
 62
     7
100
AcDbLine
 10
73.150000224
 20
400.3027357015
 30
0.0
 11
73.150000224
 21
432.3027357015
 31
0.0
  0
LINE
  5
10B
330
C4
100
AcDbEntity
  8
DV2_Default
  6
Continuous
 62
     7
100
AcDbLine
 10
69.650000224
 20
432.3027357015
 30
0.0
 11
69.650000224
 21
400.3027357015
 31
0.0
  0
ARC
  5
10C
330
C4
100
AcDbEntity
  8
DV2_Default
  6
Continuous
 62
     7
100
AcDbCircle
 10
77.900000224
 20
400.3027357015
 30
0.0
 40
4.749999999999997
100
AcDbArc
 50
180.0
 51
270.0
  0
ARC
  5
10D
330
C4
100
AcDbEntity
  8
DV2_Default
  6
Continuous
 62
     7
100
AcDbCircle
 10
77.900000224
 20
400.3027357015
 30
0.0
 40
8.250000000000007
100
AcDbArc
 50
180.0
 51
215.1527029668
  0
ARC
  5
10E
330
C4
100
AcDbEntity
  8
DV2_Default
  6
Continuous
 62
     7
100
AcDbCircle
 10
237.800000224
 20
400.3027357015
 30
0.0
 40
4.750000000000004
100
AcDbArc
 50
270.0
 51
0.0
  0
ARC
  5
10F
330
C4
100
AcDbEntity
  8
DV2_Default
  6
Continuous
 62
     7
100
AcDbCircle
 10
237.800000224
 20
400.3027357015
 30
0.0
 40
8.25
100
AcDbArc
 50
324.8472970332
 51
0.0
  0
LINE
  5
110
330
C4
100
AcDbEntity
  8
DV2_Default
  6
Continuous
 62
     7
100
AcDbLine
 10
242.550000224
 20
432.3027357015
 30
0.0
 11
242.550000224
 21
400.3027357015
 31
0.0
  0
LINE
  5
111
330
C4
100
AcDbEntity
  8
DV2_Default
  6
Continuous
 62
     7
100
AcDbLine
 10
246.050000224
 20
400.3027357015
 30
0.0
 11
246.050000224
 21
432.3027357015
 31
0.0
  0
LINE
  5
112
330
C4
100
AcDbEntity
  8
DV2_Default
  6
Continuous
 62
     7
100
AcDbLine
 10
226.550000224
 20
432.3027357015
 30
0.0
 11
226.550000224
 21
400.3027357015
 31
0.0
  0
ARC
  5
113
330
C4
100
AcDbEntity
  8
DV2_Default
  6
Continuous
 62
     7
100
AcDbCircle
 10
221.800000224
 20
400.3027357015
 30
0.0
 40
4.750000000000004
100
AcDbArc
 50
270.0
 51
0.0
  0
ARC
  5
114
330
C4
100
AcDbEntity
  8
DV2_Default
  6
Continuous
 62
     7
100
AcDbCircle
 10
93.900000224
 20
400.3027357015
 30
0.0
 40
4.749999999999997
100
AcDbArc
 50
180.0
 51
270.0
  0
LINE
  5
115
330
C4
100
AcDbEntity
  8
DV2_Default
  6
Continuous
 62
     7
100
AcDbLine
 10
89.150000224
 20
400.3027357015
 30
0.0
 11
89.150000224
 21
432.3027357015
 31
0.0
  0
LINE
  5
116
330
C4
100
AcDbEntity
  8
DV2_Default
  6
Continuous
 62
     7
100
AcDbLine
 10
105.150000224
 20
400.3027357015
 30
0.0
 11
105.150000224
 21
432.3027357015
 31
0.0
  0
LINE
  5
117
330
C4
100
AcDbEntity
  8
DV2_Default
  6
Continuous
 62
     7
100
AcDbLine
 10
101.650000224
 20
432.3027357015
 30
0.0
 11
101.650000224
 21
400.3027357015
 31
0.0
  0
ARC
  5
118
330
C4
100
AcDbEntity
  8
DV2_Default
  6
Continuous
 62
     7
100
AcDbCircle
 10
109.900000224
 20
400.3027357015
 30
0.0
 40
4.749999999999997
100
AcDbArc
 50
180.0
 51
270.0
  0
ARC
  5
119
330
C4
100
AcDbEntity
  8
DV2_Default
  6
Continuous
 62
     7
100
AcDbCircle
 10
109.900000224
 20
400.3027357015
 30
0.0
 40
8.25
100
AcDbArc
 50
180.0
 51
215.1527029668
  0
ARC
  5
11A
330
C4
100
AcDbEntity
  8
DV2_Default
  6
Continuous
 62
     7
100
AcDbCircle
 10
205.800000224
 20
400.3027357015
 30
0.0
 40
4.749999999999997
100
AcDbArc
 50
270.0
 51
0.0
  0
ARC
  5
11B
330
C4
100
AcDbEntity
  8
DV2_Default
  6
Continuous
 62
     7
100
AcDbCircle
 10
205.800000224
 20
400.3027357015
 30
0.0
 40
8.25
100
AcDbArc
 50
324.8472970332
 51
0.0
  0
LINE
  5
11C
330
C4
100
AcDbEntity
  8
DV2_Default
  6
Continuous
 62
     7
100
AcDbLine
 10
210.550000224
 20
432.3027357015
 30
0.0
 11
210.550000224
 21
400.3027357015
 31
0.0
  0
LINE
  5
11D
330
C4
100
AcDbEntity
  8
DV2_Default
  6
Continuous
 62
     7
100
AcDbLine
 10
214.050000224
 20
400.3027357015
 30
0.0
 11
214.050000224
 21
432.3027357015
 31
0.0
  0
LINE
  5
11E
330
C4
100
AcDbEntity
  8
DV2_Default
  6
Continuous
 62
     7
100
AcDbLine
 10
121.150000224
 20
400.3027357015
 30
0.0
 11
121.150000224
 21
432.3027357015
 31
0.0
  0
LINE
  5
11F
330
C4
100
AcDbEntity
  8
DV2_Default
  6
Continuous
 62
     7
100
AcDbLine
 10
117.650000224
 20
432.3027357015
 30
0.0
 11
117.650000224
 21
400.3027357015
 31
0.0
  0
ARC
  5
120
330
C4
100
AcDbEntity
  8
DV2_Default
  6
Continuous
 62
     7
100
AcDbCircle
 10
125.900000224
 20
400.3027357015
 30
0.0
 40
4.749999999999997
100
AcDbArc
 50
180.0
 51
270.0
  0
ARC
  5
121
330
C4
100
AcDbEntity
  8
DV2_Default
  6
Continuous
 62
     7
100
AcDbCircle
 10
125.900000224
 20
400.3027357015
 30
0.0
 40
8.25
100
AcDbArc
 50
180.0
 51
215.1527029668
  0
ARC
  5
122
330
C4
100
AcDbEntity
  8
DV2_Default
  6
Continuous
 62
     7
100
AcDbCircle
 10
189.800000224
 20
400.3027357015
 30
0.0
 40
4.749999999999997
100
AcDbArc
 50
270.0
 51
0.0
  0
ARC
  5
123
330
C4
100
AcDbEntity
  8
DV2_Default
  6
Continuous
 62
     7
100
AcDbCircle
 10
189.800000224
 20
400.3027357015
 30
0.0
 40
8.25
100
AcDbArc
 50
324.8472970332
 51
0.0
  0
LINE
  5
124
330
C4
100
AcDbEntity
  8
DV2_Default
  6
Continuous
 62
     7
100
AcDbLine
 10
194.550000224
 20
432.3027357015
 30
0.0
 11
194.550000224
 21
400.3027357015
 31
0.0
  0
LINE
  5
125
330
C4
100
AcDbEntity
  8
DV2_Default
  6
Continuous
 62
     7
100
AcDbLine
 10
198.050000224
 20
400.3027357015
 30
0.0
 11
198.050000224
 21
432.3027357015
 31
0.0
  0
LINE
  5
126
330
C4
100
AcDbEntity
  8
DV2_Default
  6
Continuous
 62
     7
100
AcDbLine
 10
137.2599606658
 20
400.3037092795
 30
0.0
 11
137.2422593538
 21
432.3027357015
 31
0.0
  0
LINE
  5
127
330
C4
100
AcDbEntity
  8
DV2_Default
  6
Continuous
 62
     7
100
AcDbLine
 10
133.7422588183
 20
432.3027357015
 30
0.0
 11
133.7599612013
 21
400.3017731399
 31
0.0
  0
ARC
  5
128
330
C4
100
AcDbEntity
  8
DV2_Default
  6
Continuous
 62
     7
100
AcDbCircle
 10
142.009959939
 20
400.3063368975
 30
0.0
 40
4.749999999999992
100
AcDbArc
 50
180.0316950382
 51
270.0316950382
  0
ARC
  5
129
330
C4
100
AcDbEntity
  8
DV2_Default
  6
Continuous
 62
     7
100
AcDbCircle
 10
142.009959939
 20
400.3063368975
 30
0.0
 40
8.25
100
AcDbArc
 50
180.0316950382
 51
270.0316950382
  0
LINE
  5
12A
330
C4
100
AcDbEntity
  8
DV2_Default
  6
Continuous
 62
     7
100
AcDbLine
 10
173.7125827068
 20
395.5738735173
 30
0.0
 11
142.0125875571
 21
395.5563376243
 31
0.0
  0
LINE
  5
12B
330
C4
100
AcDbEntity
  8
DV2_Default
  6
Continuous
 62
     7
100
AcDbLine
 10
142.0145236967
 20
392.0563381598
 30
0.0
 11
173.7145188464
 21
392.0738740529
 31
0.0
  0
ARC
  5
12C
330
C4
100
AcDbEntity
  8
DV2_Default
  6
Continuous
 62
     7
100
AcDbCircle
 10
173.7099550887
 20
400.3238727906
 30
0.0
 40
4.75
100
AcDbArc
 50
270.0316950382
 51
0.0316950382
  0
ARC
  5
12D
330
C4
100
AcDbEntity
  8
DV2_Default
  6
Continuous
 62
     7
100
AcDbCircle
 10
173.7099550887
 20
400.3238727906
 30
0.0
 40
8.249999999999996
100
AcDbArc
 50
270.0316950382
 51
0.0316950382
  0
LINE
  5
12E
330
C4
100
AcDbEntity
  8
DV2_Default
  6
Continuous
 62
     7
100
AcDbLine
 10
178.4422656576
 20
432.3027357015
 30
0.0
 11
178.459954362
 21
400.3265004086
 31
0.0
  0
LINE
  5
12F
330
C4
100
AcDbEntity
  8
DV2_Default
  6
Continuous
 62
     7
100
AcDbLine
 10
181.9599538264
 20
400.3284365482
 30
0.0
 11
181.9422661931
 21
432.3027357015
 31
0.0
  0
LINE
  5
130
330
C4
100
AcDbEntity
  8
DV2_Default
  6
Continuous
 62
     7
100
AcDbLine
 10
181.950000224
 20
418.3217687022
 30
0.0
 11
181.950000224
 21
432.3027357015
 31
0.0
  0
LINE
  5
131
330
C4
100
AcDbEntity
  8
DV2_Default
  6
Continuous
 62
     7
100
AcDbLine
 10
178.450000224
 20
418.3208006323
 30
0.0
 11
178.450000224
 21
400.3027357015
 31
0.0
  0
ARC
  5
132
330
C4
100
AcDbEntity
  8
DV2_Default
  6
Continuous
 62
     7
100
AcDbCircle
 10
173.700000224
 20
400.3027357015
 30
0.0
 40
4.750000000000001
100
AcDbArc
 50
334.922038628
 51
0.0
  0
ARC
  5
133
330
C4
100
AcDbEntity
  8
DV2_Default
  6
Continuous
 62
     7
100
AcDbCircle
 10
173.700000224
 20
400.3027357015
 30
0.0
 40
8.25
100
AcDbArc
 50
324.8472970332
 51
334.8622007569
  0
ARC
  5
134
330
C4
100
AcDbEntity
  8
DV2_Default
  6
Continuous
 62
     7
100
AcDbCircle
 10
142.000000224
 20
400.3027357015
 30
0.0
 40
8.25
100
AcDbArc
 50
180.0
 51
215.1527029668
  0
LINE
  5
135
330
C4
100
AcDbEntity
  8
DV2_Default
  6
Continuous
 62
     7
100
AcDbLine
 10
133.750000224
 20
418.308436997
 30
0.0
 11
133.750000224
 21
400.3027357015
 31
0.0
  0
LINE
  5
136
330
C4
100
AcDbEntity
  8
DV2_Default
  6
Continuous
 62
     7
100
AcDbLine
 10
137.250000224
 20
418.3094050669
 30
0.0
 11
137.250000224
 21
432.3027357015
 31
0.0
  0
LINE
  5
137
330
C4
100
AcDbEntity
  8
DV2_Default
  6
Continuous
 62
     7
100
AcDbLine
 10
299.176358552
 20
432.3027357015
 30
0.0
 11
309.3500000192
 21
432.3027357015
 31
0.0
  0
LINE
  5
138
330
C4
100
AcDbEntity
  8
DV2_Default
  6
Continuous
 62
     7
100
AcDbLine
 10
16.52364161
 20
432.3027357015
 30
0.0
 11
299.1763586797
 21
432.3027357015
 31
0.0
  0
LINE
  5
139
330
C4
100
AcDbEntity
  8
DV2_Default
  6
Continuous
 62
     7
100
AcDbLine
 10
6.35
 20
432.3027357015
 30
0.0
 11
16.5236414705
 21
432.3027357015
 31
0.0
  0
LINE
  5
13A
330
C4
100
AcDbEntity
  8
DV2_Default
  6
Continuous
 62
     7
100
AcDbLine
 10
309.350000224
 20
432.3027357015
 30
0.0
 11
309.350000224
 21
439.3027357015
 31
0.0
  0
LINE
  5
13B
330
C4
100
AcDbEntity
  8
DV2_Default
  6
Continuous
 62
     7
100
AcDbLine
 10
6.350000224
 20
439.3027357015
 30
0.0
 11
6.350000224
 21
432.3027357015
 31
0.0
  0
ARC
  5
13C
330
C4
100
AcDbEntity
  8
DV2_Default
  6
Continuous
 62
     7
100
AcDbCircle
 10
9.350000224
 20
439.3027357015
 30
0.0
 40
3.000000000000001
100
AcDbArc
 50
90.0
 51
180.0
  0
LINE
  5
13D
330
C4
100
AcDbEntity
  8
DV2_Default
  6
Continuous
 62
     7
100
AcDbLine
 10
18.3925110741
 20
442.3027357015
 30
0.0
 11
9.3500002239
 21
442.3027357015
 31
0.0
  0
ARC
  5
13E
330
C4
100
AcDbEntity
  8
DV2_Default
  6
Continuous
 62
     7
100
AcDbCircle
 10
306.350000224
 20
439.3027357015
 30
0.0
 40
3.000000000000114
100
AcDbArc
 50
0.0
 51
90.0
  0
LINE
  5
13F
330
C4
100
AcDbEntity
  8
DV2_Default
  6
Continuous
 62
     7
100
AcDbLine
 10
306.350000224
 20
442.3027357015
 30
0.0
 11
297.3074883677
 21
442.3027357015
 31
0.0
  0
LINE
  5
140
330
C4
100
AcDbEntity
  8
DV2_Default
  6
Continuous
 62
     7
100
AcDbLine
 10
297.3074882401
 20
442.3027357015
 30
0.0
 11
18.3925112017
 21
442.3027357015
 31
0.0
  0
LINE
  5
141
330
C4
100
AcDbEntity
  8
DV2_Default
  6
Continuous
 62
     7
100
AcDbLine
 10
37.650000224
 20
431.7457752682
 30
0.0
 11
37.650000224
 21
432.3027357015
 31
0.0
  0
LINE
  5
142
330
C4
100
AcDbEntity
  8
DV2_Default
  6
Continuous
 62
     7
100
AcDbLine
 10
278.050000224
 20
431.7457752682
 30
0.0
 11
278.050000224
 21
432.3027357015
 31
0.0
  0
ENDBLK
  5
144
330
C4
100
AcDbEntity
  8
0
100
AcDbBlockEnd
  0
BLOCK
  5
1BE
330
145
100
AcDbEntity
  8
0
100
AcDbBlockBegin
  2
SE2
 70
     0
 10
0.0
 20
0.0
 30
0.0
  3
SE2
  1

  0
LINE
  5
148
330
145
100
AcDbEntity
  8
DV3_Default
  6
Continuous
 62
     7
100
AcDbLine
 10
93.500000224
 20
122.6054131021
 30
0.0
 11
91.329821539
 21
122.6054131021
 31
0.0
  0
LINE
  5
149
330
145
100
AcDbEntity
  8
DV3_Default
  6
Continuous
 62
     7
100
AcDbLine
 10
222.200000224
 20
122.6054131021
 30
0.0
 11
93.500000224
 21
122.6054131021
 31
0.0
  0
LINE
  5
14A
330
145
100
AcDbEntity
  8
DV3_Default
  6
Continuous
 62
     7
100
AcDbLine
 10
103.6427821135
 20
119.1054131021
 30
0.0
 11
212.0572183346
 21
119.1054131021
 31
0.0
  0
LINE
  5
14B
330
145
100
AcDbEntity
  8
DV3_Default
  6
Continuous
 62
     7
100
AcDbLine
 10
224.3701789091
 20
122.6054131021
 30
0.0
 11
222.200000224
 21
122.6054131021
 31
0.0
  0
LINE
  5
14C
330
145
100
AcDbEntity
  8
DV3_Default
  6
Continuous
 62
     7
100
AcDbLine
 10
262.2933634612
 20
138.6054131021
 30
0.0
 11
258.850000224
 21
138.6054131021
 31
0.0
  0
LINE
  5
14D
330
145
100
AcDbEntity
  8
DV3_Default
  6
Continuous
 62
     7
100
AcDbLine
 10
60.2082855357
 20
135.1054131021
 30
0.0
 11
255.4917149124
 21
135.1054131021
 31
0.0
  0
LINE
  5
14E
330
145
100
AcDbEntity
  8
DV3_Default
  6
Continuous
 62
     7
100
AcDbLine
 10
258.850000224
 20
138.6054131021
 30
0.0
 11
56.850000224
 21
138.6054131021
 31
0.0
  0
LINE
  5
14F
330
145
100
AcDbEntity
  8
DV3_Default
  6
Continuous
 62
     7
100
AcDbLine
 10
56.850000224
 20
138.6054131021
 30
0.0
 11
53.4066369869
 21
138.6054131021
 31
0.0
  0
LINE
  5
150
330
145
100
AcDbEntity
  8
DV3_Default
  6
Continuous
 62
     7
100
AcDbLine
 10
31.750000224
 20
154.6054131021
 30
0.0
 11
27.9273383198
 21
154.6054131021
 31
0.0
  0
LINE
  5
151
330
145
100
AcDbEntity
  8
DV3_Default
  6
Continuous
 62
     7
100
AcDbLine
 10
283.950000224
 20
154.6054131021
 30
0.0
 11
31.750000224
 21
154.6054131021
 31
0.0
  0
LINE
  5
152
330
145
100
AcDbEntity
  8
DV3_Default
  6
Continuous
 62
     7
100
AcDbLine
 10
32.8804583377
 20
151.1054131021
 30
0.0
 11
282.8195421104
 21
151.1054131021
 31
0.0
  0
LINE
  5
153
330
145
100
AcDbEntity
  8
DV3_Default
  6
Continuous
 62
     7
100
AcDbLine
 10
287.7726621283
 20
154.6054131021
 30
0.0
 11
283.950000224
 21
154.6054131021
 31
0.0
  0
LINE
  5
154
330
145
100
AcDbEntity
  8
DV3_Default
  6
Continuous
 62
     7
100
AcDbLine
 10
17.200000224
 20
170.6054131021
 30
0.0
 11
13.3024469331
 21
170.6054131021
 31
0.0
  0
LINE
  5
155
330
145
100
AcDbEntity
  8
DV3_Default
  6
Continuous
 62
     7
100
AcDbLine
 10
14.7528505251
 20
167.1054131021
 30
0.0
 11
17.200000224
 21
167.1054131021
 31
0.0
  0
LINE
  5
156
330
145
100
AcDbEntity
  8
DV3_Default
  6
Continuous
 62
     7
100
AcDbLine
 10
298.500000224
 20
170.6054131021
 30
0.0
 11
17.200000224
 21
170.6054131021
 31
0.0
  0
LINE
  5
157
330
145
100
AcDbEntity
  8
DV3_Default
  6
Continuous
 62
     7
100
AcDbLine
 10
17.200000224
 20
167.1054131021
 30
0.0
 11
298.500000224
 21
167.1054131021
 31
0.0
  0
LINE
  5
158
330
145
100
AcDbEntity
  8
DV3_Default
  6
Continuous
 62
     7
100
AcDbLine
 10
302.397553515
 20
170.6054131021
 30
0.0
 11
298.500000224
 21
170.6054131021
 31
0.0
  0
LINE
  5
159
330
145
100
AcDbEntity
  8
DV3_Default
  6
Continuous
 62
     7
100
AcDbLine
 10
298.500000224
 20
167.1054131021
 30
0.0
 11
300.9471499229
 21
167.1054131021
 31
0.0
  0
LINE
  5
15A
330
145
100
AcDbEntity
  8
DV3_Default
  6
Continuous
 62
     7
100
AcDbLine
 10
17.200000224
 20
186.6054131021
 30
0.0
 11
14.7528505251
 21
186.6054131021
 31
0.0
  0
LINE
  5
15B
330
145
100
AcDbEntity
  8
DV3_Default
  6
Continuous
 62
     7
100
AcDbLine
 10
13.3024469331
 20
183.1054131021
 30
0.0
 11
17.200000224
 21
183.1054131021
 31
0.0
  0
LINE
  5
15C
330
145
100
AcDbEntity
  8
DV3_Default
  6
Continuous
 62
     7
100
AcDbLine
 10
298.500000224
 20
186.6054131021
 30
0.0
 11
17.200000224
 21
186.6054131021
 31
0.0
  0
LINE
  5
15D
330
145
100
AcDbEntity
  8
DV3_Default
  6
Continuous
 62
     7
100
AcDbLine
 10
17.200000224
 20
183.1054131021
 30
0.0
 11
298.500000224
 21
183.1054131021
 31
0.0
  0
LINE
  5
15E
330
145
100
AcDbEntity
  8
DV3_Default
  6
Continuous
 62
     7
100
AcDbLine
 10
300.9471499229
 20
186.6054131021
 30
0.0
 11
298.500000224
 21
186.6054131021
 31
0.0
  0
LINE
  5
15F
330
145
100
AcDbEntity
  8
DV3_Default
  6
Continuous
 62
     7
100
AcDbLine
 10
298.500000224
 20
183.1054131021
 30
0.0
 11
302.397553515
 21
183.1054131021
 31
0.0
  0
LINE
  5
160
330
145
100
AcDbEntity
  8
DV3_Default
  6
Continuous
 62
     7
100
AcDbLine
 10
29.900000224
 20
202.6054131021
 30
0.0
 11
29.4087141563
 21
202.6054131021
 31
0.0
  0
LINE
  5
161
330
145
100
AcDbEntity
  8
DV3_Default
  6
Continuous
 62
     7
100
AcDbLine
 10
25.9087141633
 20
199.1054131021
 30
0.0
 11
29.900000224
 21
199.1054131021
 31
0.0
  0
LINE
  5
162
330
145
100
AcDbEntity
  8
DV3_Default
  6
Continuous
 62
     7
100
AcDbLine
 10
285.800000224
 20
202.6054131021
 30
0.0
 11
285.5292701042
 21
202.6054131021
 31
0.0
  0
LINE
  5
163
330
145
100
AcDbEntity
  8
DV3_Default
  6
Continuous
 62
     7
100
AcDbLine
 10
278.0605542956
 20
202.6054131021
 30
0.0
 11
37.6394451506
 21
202.6054131021
 31
0.0
  0
LINE
  5
164
330
145
100
AcDbEntity
  8
DV3_Default
  6
Continuous
 62
     7
100
AcDbLine
 10
30.1707303439
 20
202.6054131021
 30
0.0
 11
29.900000224
 21
202.6054131021
 31
0.0
  0
LINE
  5
165
330
145
100
AcDbEntity
  8
DV3_Default
  6
Continuous
 62
     7
100
AcDbLine
 10
29.900000224
 20
199.1054131021
 30
0.0
 11
285.800000224
 21
199.1054131021
 31
0.0
  0
LINE
  5
166
330
145
100
AcDbEntity
  8
DV3_Default
  6
Continuous
 62
     7
100
AcDbLine
 10
286.2912857499
 20
202.6054131021
 30
0.0
 11
285.800000224
 21
202.6054131021
 31
0.0
  0
LINE
  5
167
330
145
100
AcDbEntity
  8
DV3_Default
  6
Continuous
 62
     7
100
AcDbLine
 10
285.800000224
 20
199.1054131021
 30
0.0
 11
289.791285756
 21
199.1054131021
 31
0.0
  0
LINE
  5
168
330
145
100
AcDbEntity
  8
DV3_Default
  6
Continuous
 62
     7
100
AcDbLine
 10
45.900000224
 20
218.6054131021
 30
0.0
 11
45.4087141242
 21
218.6054131021
 31
0.0
  0
LINE
  5
169
330
145
100
AcDbEntity
  8
DV3_Default
  6
Continuous
 62
     7
100
AcDbLine
 10
41.9087141312
 20
215.1054131021
 30
0.0
 11
45.900000224
 21
215.1054131021
 31
0.0
  0
LINE
  5
16A
330
145
100
AcDbEntity
  8
DV3_Default
  6
Continuous
 62
     7
100
AcDbLine
 10
269.800000224
 20
218.6054131021
 30
0.0
 11
45.900000224
 21
218.6054131021
 31
0.0
  0
LINE
  5
16B
330
145
100
AcDbEntity
  8
DV3_Default
  6
Continuous
 62
     7
100
AcDbLine
 10
45.900000224
 20
215.1054131021
 30
0.0
 11
269.800000224
 21
215.1054131021
 31
0.0
  0
LINE
  5
16C
330
145
100
AcDbEntity
  8
DV3_Default
  6
Continuous
 62
     7
100
AcDbLine
 10
270.2912857219
 20
218.6054131021
 30
0.0
 11
269.800000224
 21
218.6054131021
 31
0.0
  0
LINE
  5
16D
330
145
100
AcDbEntity
  8
DV3_Default
  6
Continuous
 62
     7
100
AcDbLine
 10
269.800000224
 20
215.1054131021
 30
0.0
 11
273.791285728
 21
215.1054131021
 31
0.0
  0
LINE
  5
16E
330
145
100
AcDbEntity
  8
DV3_Default
  6
Continuous
 62
     7
100
AcDbLine
 10
61.900000224
 20
234.6054131021
 30
0.0
 11
61.4087140921
 21
234.6054131021
 31
0.0
  0
LINE
  5
16F
330
145
100
AcDbEntity
  8
DV3_Default
  6
Continuous
 62
     7
100
AcDbLine
 10
57.9087140991
 20
231.1054131021
 30
0.0
 11
61.900000224
 21
231.1054131021
 31
0.0
  0
LINE
  5
170
330
145
100
AcDbEntity
  8
DV3_Default
  6
Continuous
 62
     7
100
AcDbLine
 10
253.800000224
 20
234.6054131021
 30
0.0
 11
61.900000224
 21
234.6054131021
 31
0.0
  0
LINE
  5
171
330
145
100
AcDbEntity
  8
DV3_Default
  6
Continuous
 62
     7
100
AcDbLine
 10
61.900000224
 20
231.1054131021
 30
0.0
 11
253.800000224
 21
231.1054131021
 31
0.0
  0
LINE
  5
172
330
145
100
AcDbEntity
  8
DV3_Default
  6
Continuous
 62
     7
100
AcDbLine
 10
254.2912856939
 20
234.6054131021
 30
0.0
 11
253.800000224
 21
234.6054131021
 31
0.0
  0
LINE
  5
173
330
145
100
AcDbEntity
  8
DV3_Default
  6
Continuous
 62
     7
100
AcDbLine
 10
253.800000224
 20
231.1054131021
 30
0.0
 11
257.7912857001
 21
231.1054131021
 31
0.0
  0
LINE
  5
174
330
145
100
AcDbEntity
  8
DV3_Default
  6
Continuous
 62
     7
100
AcDbLine
 10
77.900000224
 20
250.6054131021
 30
0.0
 11
77.40871406
 21
250.6054131021
 31
0.0
  0
LINE
  5
175
330
145
100
AcDbEntity
  8
DV3_Default
  6
Continuous
 62
     7
100
AcDbLine
 10
73.908714067
 20
247.1054131021
 30
0.0
 11
77.900000224
 21
247.1054131021
 31
0.0
  0
LINE
  5
176
330
145
100
AcDbEntity
  8
DV3_Default
  6
Continuous
 62
     7
100
AcDbLine
 10
237.800000224
 20
250.6054131021
 30
0.0
 11
237.5292701042
 21
250.6054131021
 31
0.0
  0
LINE
  5
177
330
145
100
AcDbEntity
  8
DV3_Default
  6
Continuous
 62
     7
100
AcDbLine
 10
230.0605542956
 20
250.6054131021
 30
0.0
 11
85.6394451506
 21
250.6054131021
 31
0.0
  0
LINE
  5
178
330
145
100
AcDbEntity
  8
DV3_Default
  6
Continuous
 62
     7
100
AcDbLine
 10
78.1707303439
 20
250.6054131021
 30
0.0
 11
77.900000224
 21
250.6054131021
 31
0.0
  0
LINE
  5
179
330
145
100
AcDbEntity
  8
DV3_Default
  6
Continuous
 62
     7
100
AcDbLine
 10
77.900000224
 20
247.1054131021
 30
0.0
 11
237.800000224
 21
247.1054131021
 31
0.0
  0
LINE
  5
17A
330
145
100
AcDbEntity
  8
DV3_Default
  6
Continuous
 62
     7
100
AcDbLine
 10
238.291285666
 20
250.6054131021
 30
0.0
 11
237.800000224
 21
250.6054131021
 31
0.0
  0
LINE
  5
17B
330
145
100
AcDbEntity
  8
DV3_Default
  6
Continuous
 62
     7
100
AcDbLine
 10
237.800000224
 20
247.1054131021
 30
0.0
 11
241.7912856721
 21
247.1054131021
 31
0.0
  0
LINE
  5
17C
330
145
100
AcDbEntity
  8
DV3_Default
  6
Continuous
 62
     7
100
AcDbLine
 10
221.800000224
 20
263.1054131021
 30
0.0
 11
225.7912856441
 21
263.1054131021
 31
0.0
  0
LINE
  5
17D
330
145
100
AcDbEntity
  8
DV3_Default
  6
Continuous
 62
     7
100
AcDbLine
 10
222.291285638
 20
266.6054131021
 30
0.0
 11
221.800000224
 21
266.6054131021
 31
0.0
  0
LINE
  5
17E
330
145
100
AcDbEntity
  8
DV3_Default
  6
Continuous
 62
     7
100
AcDbLine
 10
93.900000224
 20
263.1054131021
 30
0.0
 11
221.800000224
 21
263.1054131021
 31
0.0
  0
LINE
  5
17F
330
145
100
AcDbEntity
  8
DV3_Default
  6
Continuous
 62
     7
100
AcDbLine
 10
221.800000224
 20
266.6054131021
 30
0.0
 11
93.900000224
 21
266.6054131021
 31
0.0
  0
LINE
  5
180
330
145
100
AcDbEntity
  8
DV3_Default
  6
Continuous
 62
     7
100
AcDbLine
 10
89.9087140349
 20
263.1054131021
 30
0.0
 11
93.900000224
 21
263.1054131021
 31
0.0
  0
LINE
  5
181
330
145
100
AcDbEntity
  8
DV3_Default
  6
Continuous
 62
     7
100
AcDbLine
 10
93.900000224
 20
266.6054131021
 30
0.0
 11
93.4087140278
 21
266.6054131021
 31
0.0
  0
LINE
  5
182
330
145
100
AcDbEntity
  8
DV3_Default
  6
Continuous
 62
     7
100
AcDbLine
 10
109.900000224
 20
282.6054131021
 30
0.0
 11
109.4087139957
 21
282.6054131021
 31
0.0
  0
LINE
  5
183
330
145
100
AcDbEntity
  8
DV3_Default
  6
Continuous
 62
     7
100
AcDbLine
 10
105.9087140028
 20
279.1054131021
 30
0.0
 11
109.900000224
 21
279.1054131021
 31
0.0
  0
LINE
  5
184
330
145
100
AcDbEntity
  8
DV3_Default
  6
Continuous
 62
     7
100
AcDbLine
 10
205.800000224
 20
282.6054131021
 30
0.0
 11
109.900000224
 21
282.6054131021
 31
0.0
  0
LINE
  5
185
330
145
100
AcDbEntity
  8
DV3_Default
  6
Continuous
 62
     7
100
AcDbLine
 10
109.900000224
 20
279.1054131021
 30
0.0
 11
205.800000224
 21
279.1054131021
 31
0.0
  0
LINE
  5
186
330
145
100
AcDbEntity
  8
DV3_Default
  6
Continuous
 62
     7
100
AcDbLine
 10
206.29128561
 20
282.6054131021
 30
0.0
 11
205.800000224
 21
282.6054131021
 31
0.0
  0
LINE
  5
187
330
145
100
AcDbEntity
  8
DV3_Default
  6
Continuous
 62
     7
100
AcDbLine
 10
205.800000224
 20
279.1054131021
 30
0.0
 11
209.7912856162
 21
279.1054131021
 31
0.0
  0
LINE
  5
188
330
145
100
AcDbEntity
  8
DV3_Default
  6
Continuous
 62
     7
100
AcDbLine
 10
125.900000224
 20
298.6054131021
 30
0.0
 11
125.4087139636
 21
298.6054131021
 31
0.0
  0
LINE
  5
189
330
145
100
AcDbEntity
  8
DV3_Default
  6
Continuous
 62
     7
100
AcDbLine
 10
121.9087139706
 20
295.1054131021
 30
0.0
 11
125.900000224
 21
295.1054131021
 31
0.0
  0
LINE
  5
18A
330
145
100
AcDbEntity
  8
DV3_Default
  6
Continuous
 62
     7
100
AcDbLine
 10
189.800000224
 20
298.6054131021
 30
0.0
 11
125.900000224
 21
298.6054131021
 31
0.0
  0
LINE
  5
18B
330
145
100
AcDbEntity
  8
DV3_Default
  6
Continuous
 62
     7
100
AcDbLine
 10
125.900000224
 20
295.1054131021
 30
0.0
 11
189.800000224
 21
295.1054131021
 31
0.0
  0
LINE
  5
18C
330
145
100
AcDbEntity
  8
DV3_Default
  6
Continuous
 62
     7
100
AcDbLine
 10
190.2912855821
 20
298.6054131021
 30
0.0
 11
189.800000224
 21
298.6054131021
 31
0.0
  0
LINE
  5
18D
330
145
100
AcDbEntity
  8
DV3_Default
  6
Continuous
 62
     7
100
AcDbLine
 10
189.800000224
 20
295.1054131021
 30
0.0
 11
193.7912855882
 21
295.1054131021
 31
0.0
  0
LINE
  5
18E
330
145
100
AcDbEntity
  8
DV3_Default
  6
Continuous
 62
     7
100
AcDbLine
 10
173.700000224
 20
311.1793391021
 30
0.0
 11
177.7173595601
 21
311.1793391021
 31
0.0
  0
LINE
  5
18F
330
145
100
AcDbEntity
  8
DV3_Default
  6
Continuous
 62
     7
100
AcDbLine
 10
174.217359554
 20
314.6793391021
 30
0.0
 11
173.700000224
 21
314.6793391021
 31
0.0
  0
LINE
  5
190
330
145
100
AcDbEntity
  8
DV3_Default
  6
Continuous
 62
     7
100
AcDbLine
 10
142.000000224
 20
311.1793391021
 30
0.0
 11
173.700000224
 21
311.1793391021
 31
0.0
  0
LINE
  5
191
330
145
100
AcDbEntity
  8
DV3_Default
  6
Continuous
 62
     7
100
AcDbLine
 10
173.700000224
 20
314.6793391021
 30
0.0
 11
142.000000224
 21
314.6793391021
 31
0.0
  0
LINE
  5
192
330
145
100
AcDbEntity
  8
DV3_Default
  6
Continuous
 62
     7
100
AcDbLine
 10
137.9826399384
 20
311.1793391021
 30
0.0
 11
142.000000224
 21
311.1793391021
 31
0.0
  0
LINE
  5
193
330
145
100
AcDbEntity
  8
DV3_Default
  6
Continuous
 62
     7
100
AcDbLine
 10
142.000000224
 20
314.6793391021
 30
0.0
 11
141.4826399314
 21
314.6793391021
 31
0.0
  0
LINE
  5
194
330
145
100
AcDbEntity
  8
DV3_Default
  6
Continuous
 62
     7
100
AcDbLine
 10
14.253026548
 20
195.9350068456
 30
0.0
 11
147.4101544116
 21
329.0921349801
 31
0.0
  0
LINE
  5
195
330
145
100
AcDbEntity
  8
DV3_Default
  6
Continuous
 62
     7
100
AcDbLine
 10
147.4101544134
 20
329.0921349783
 30
0.0
 11
147.6680188807
 21
329.3499994455
 31
0.0
  0
SPLINE
  5
196
330
145
100
AcDbEntity
  8
DV3_Default
  6
Continuous
 62
     7
100
AcDbSpline
210
0.0
220
0.0
230
1.0
 70
     8
 71
     3
 72
    18
 73
    14
 74
     0
 42
0.0000000011717408
 43
0.0000000001
 40
0.0
 40
0.0
 40
0.0
 40
0.0
 40
0.2499999999999633
 40
0.2499999999999633
 40
0.3749999999999528
 40
0.3749999999999528
 40
0.4999999999999423
 40
0.4999999999999423
 40
0.6249999999999317
 40
0.6249999999999317
 40
0.7499999999999213
 40
0.7499999999999213
 40
1.0
 40
1.0
 40
1.0
 40
1.0
 10
147.4101544116451
 20
329.092134980134
 30
0.0
 10
147.1807560684329
 20
328.8627366330496
 30
0.0
 10
147.0572555190258
 20
328.2393457593955
 30
0.0
 10
147.0211383194907
 20
327.1223591811018
 30
0.0
 10
147.033818151992
 20
326.712468894897
 30
0.0
 10
147.1906259574745
 20
325.8737053494733
 30
0.0
 10
147.3482676973173
 20
325.4245892957597
 30
0.0
 10
147.9966795620441
 20
324.7812536665849
 30
0.0
 10
148.4437562838573
 20
324.6269025372314
 30
0.0
 10
149.2873490763161
 20
324.4718444397691
 30
0.0
 10
149.6885786975893
 20
324.4602499907719
 30
0.0
 10
150.8113789111172
 20
324.4977914538954
 30
0.0
 10
151.4234530194685
 20
324.6201522104544
 30
0.0
 10
151.6527950986851
 20
324.8494942931696
 30
0.0
  0
LINE
  5
197
330
145
100
AcDbEntity
  8
DV3_Default
  6
Continuous
 62
     7
100
AcDbLine
 10
151.910659566
 20
325.1073587602
 30
0.0
 11
151.652795099
 21
324.8494942929
 31
0.0
  0
LINE
  5
198
330
145
100
AcDbEntity
  8
DV3_Default
  6
Continuous
 62
     7
100
AcDbLine
 10
164.047204802
 20
324.8494938552
 30
0.0
 11
163.7893403884
 21
325.1073582666
 31
0.0
  0
SPLINE
  5
199
330
145
100
AcDbEntity
  8
DV3_Default
  6
Continuous
 62
     7
100
AcDbSpline
210
0.0
220
0.0
230
1.0
 70
     8
 71
     3
 72
    18
 73
    14
 74
     0
 42
0.0000000011717407
 43
0.0000000001
 40
0.0
 40
0.0
 40
0.0
 40
0.0
 40
0.2499999999999994
 40
0.2499999999999994
 40
0.3749999999999995
 40
0.3749999999999995
 40
0.4999999999999996
 40
0.4999999999999996
 40
0.6249999999999996
 40
0.6249999999999996
 40
0.7499999999999997
 40
0.7499999999999997
 40
1.0
 40
1.0
 40
1.0
 40
1.0
 10
164.0472047911499
 20
324.849493844377
 30
0.0
 10
164.2766029593093
 20
324.6200955145007
 30
0.0
 10
164.8999939349705
 20
324.4965949160229
 30
0.0
 10
166.0169805090224
 20
324.4604776945554
 30
0.0
 10
166.4268708033113
 20
324.4731575198128
 30
0.0
 10
167.2656343605117
 20
324.6299653000829
 30
0.0
 10
167.7147504271229
 20
324.7876070126702
 30
0.0
 10
168.3580861189542
 20
325.4360188578162
 30
0.0
 10
168.5124372664149
 20
325.8830955796961
 30
0.0
 10
168.6674953845993
 20
326.726688404901
 30
0.0
 10
168.6790898352011
 20
327.127918025765
 30
0.0
 10
168.6415483757547
 20
328.2507182907091
 30
0.0
 10
168.5191876211803
 20
328.8627923915316
 30
0.0
 10
168.2898455329505
 20
329.09213447658
 30
0.0
  0
LINE
  5
19A
330
145
100
AcDbEntity
  8
DV3_Default
  6
Continuous
 62
     7
100
AcDbLine
 10
168.0319810658
 20
329.349998944
 30
0.0
 11
168.2898455332
 21
329.0921344768
 31
0.0
  0
LINE
  5
19B
330
145
100
AcDbEntity
  8
DV3_Default
  6
Continuous
 62
     7
100
AcDbLine
 10
168.289845533
 20
329.0921344766
 30
0.0
 11
301.446974003
 21
195.9350062432
 31
0.0
  0
ARC
  5
19C
330
145
100
AcDbEntity
  8
DV3_Default
  6
Continuous
 62
     7
100
AcDbCircle
 10
282.367380224
 20
176.8554131021
 30
0.0
 40
26.98261983576761
100
AcDbArc
 50
308.5322938734
 51
44.9999990422
  0
ARC
  5
19D
330
145
100
AcDbEntity
  8
DV3_Default
  6
Continuous
 62
     7
100
AcDbCircle
 10
157.850000224
 20
333.2142241021
 30
0.0
 40
226.8642241020645
100
AcDbArc
 50
231.4677036301
 51
308.5322960699
  0
ARC
  5
19E
330
145
100
AcDbEntity
  8
DV3_Default
  6
Continuous
 62
     7
100
AcDbCircle
 10
33.332620224
 20
176.8554131021
 30
0.0
 40
26.98261989757036
100
AcDbArc
 50
134.9999998986
 51
231.467703605
  0
ARC
  5
19F
330
145
100
AcDbEntity
  8
DV3_Default
  6
Continuous
 62
     7
100
AcDbCircle
 10
33.332620224
 20
176.8554131021
 30
0.0
 40
20.98261999963169
100
AcDbArc
 50
135.0000016999
 51
231.4677030693
  0
LINE
  5
1A0
330
145
100
AcDbEntity
  8
DV3_Default
  6
Continuous
 62
     7
100
AcDbLine
 10
151.6527950987
 20
324.8494942932
 30
0.0
 11
83.7453279875
 21
256.9420269072
 31
0.0
  0
LINE
  5
1A1
330
145
100
AcDbEntity
  8
DV3_Default
  6
Continuous
 62
     7
100
AcDbLine
 10
79.3294484282
 20
252.52614733
 30
0.0
 11
35.7453280849
 21
208.9420268103
 31
0.0
  0
LINE
  5
1A2
330
145
100
AcDbEntity
  8
DV3_Default
  6
Continuous
 62
     7
100
AcDbLine
 10
31.3294485251
 20
204.5261472326
 30
0.0
 11
18.495666895
 21
191.6923655507
 31
0.0
  0
ARC
  5
1A3
330
145
100
AcDbEntity
  8
DV3_Default
  6
Continuous
 62
     7
100
AcDbCircle
 10
157.850000224
 20
333.2142241021
 30
0.0
 40
220.86422420469
100
AcDbArc
 50
231.4677035799
 51
308.5322960966
  0
ARC
  5
1A4
330
145
100
AcDbEntity
  8
DV3_Default
  6
Continuous
 62
     7
100
AcDbCircle
 10
282.367380224
 20
176.8554131021
 30
0.0
 40
20.98261989777477
100
AcDbArc
 50
308.5322935264
 51
44.9999988432
  0
LINE
  5
1A5
330
145
100
AcDbEntity
  8
DV3_Default
  6
Continuous
 62
     7
100
AcDbLine
 10
297.204333296
 20
191.692365575
 30
0.0
 11
284.3705518833
 21
204.526146965
 31
0.0
  0
LINE
  5
1A6
330
145
100
AcDbEntity
  8
DV3_Default
  6
Continuous
 62
     7
100
AcDbLine
 10
279.9546720783
 20
208.9420267622
 30
0.0
 11
236.3705518878
 21
252.5261468756
 31
0.0
  0
LINE
  5
1A7
330
145
100
AcDbEntity
  8
DV3_Default
  6
Continuous
 62
     7
100
AcDbLine
 10
231.954671989
 20
256.9420267666
 30
0.0
 11
164.0472047911
 21
324.8494938444
 31
0.0
  0
LINE
  5
1A8
330
145
100
AcDbEntity
  8
DV3_Default
  6
Continuous
 62
     7
100
AcDbLine
 10
151.9106595678
 20
325.1073587585
 30
0.0
 11
147.6680188808
 21
329.3499994455
 31
0.0
  0
LINE
  5
1A9
330
145
100
AcDbEntity
  8
DV3_Default
  6
Continuous
 62
     7
100
AcDbLine
 10
168.0319810673
 20
329.3499989455
 30
0.0
 11
163.7893403803
 21
325.1073582585
 31
0.0
  0
LINE
  5
1AA
330
145
100
AcDbEntity
  8
DV3_Default
  6
Continuous
 62
     7
100
AcDbLine
 10
29.7897221278
 20
202.9864213182
 30
0.0
 11
37.2850540083
 21
210.4817531988
 31
0.0
  0
LINE
  5
1AB
330
145
100
AcDbEntity
  8
DV3_Default
  6
Continuous
 62
     7
100
AcDbLine
 10
40.3256131674
 20
207.4411940397
 30
0.0
 11
32.8302812869
 21
199.9458621591
 31
0.0
  0
LINE
  5
1AC
330
145
100
AcDbEntity
  8
DV3_Default
  6
Continuous
 62
     7
100
AcDbLine
 10
29.7897221278
 20
202.9864213182
 30
0.0
 11
32.8302812869
 21
199.9458621591
 31
0.0
  0
LINE
  5
1AD
330
145
100
AcDbEntity
  8
DV3_Default
  6
Continuous
 62
     7
100
AcDbLine
 10
40.3256131674
 20
207.4411940397
 30
0.0
 11
37.2850540083
 21
210.4817531988
 31
0.0
  0
ARC
  5
1AE
330
145
100
AcDbEntity
  8
DV3_Default
  6
Continuous
 62
     7
100
AcDbCircle
 10
30.5816983998
 20
209.6897769268
 30
0.0
 40
10.00000000000018
100
AcDbArc
 50
282.9945451722
 51
347.0054548278
  0
LINE
  5
1AF
330
145
100
AcDbEntity
  8
DV3_Default
  6
Continuous
 62
     7
100
AcDbLine
 10
230.4149459398
 20
258.4817526988
 30
0.0
 11
237.9102778203
 21
250.9864208182
 31
0.0
  0
LINE
  5
1B0
330
145
100
AcDbEntity
  8
DV3_Default
  6
Continuous
 62
     7
100
AcDbLine
 10
234.8697186612
 20
247.9458616591
 30
0.0
 11
227.3743867807
 21
255.4411935397
 31
0.0
  0
LINE
  5
1B1
330
145
100
AcDbEntity
  8
DV3_Default
  6
Continuous
 62
     7
100
AcDbLine
 10
230.4149459398
 20
258.4817526988
 30
0.0
 11
227.3743867807
 21
255.4411935397
 31
0.0
  0
LINE
  5
1B2
330
145
100
AcDbEntity
  8
DV3_Default
  6
Continuous
 62
     7
100
AcDbLine
 10
234.8697186612
 20
247.9458616591
 30
0.0
 11
237.9102778203
 21
250.9864208182
 31
0.0
  0
ARC
  5
1B3
330
145
100
AcDbEntity
  8
DV3_Default
  6
Continuous
 62
     7
100
AcDbCircle
 10
237.1183015483
 20
257.6897764268
 30
0.0
 40
10.00000000000019
100
AcDbArc
 50
192.9945451722
 51
257.0054548278
  0
LINE
  5
1B4
330
145
100
AcDbEntity
  8
DV3_Default
  6
Continuous
 62
     7
100
AcDbLine
 10
278.4149459398
 20
210.4817526988
 30
0.0
 11
285.9102778203
 21
202.9864208182
 31
0.0
  0
LINE
  5
1B5
330
145
100
AcDbEntity
  8
DV3_Default
  6
Continuous
 62
     7
100
AcDbLine
 10
282.8697186612
 20
199.9458616591
 30
0.0
 11
275.3743867807
 21
207.4411935397
 31
0.0
  0
LINE
  5
1B6
330
145
100
AcDbEntity
  8
DV3_Default
  6
Continuous
 62
     7
100
AcDbLine
 10
278.4149459398
 20
210.4817526988
 30
0.0
 11
275.3743867807
 21
207.4411935397
 31
0.0
  0
LINE
  5
1B7
330
145
100
AcDbEntity
  8
DV3_Default
  6
Continuous
 62
     7
100
AcDbLine
 10
282.8697186612
 20
199.9458616591
 30
0.0
 11
285.9102778203
 21
202.9864208182
 31
0.0
  0
ARC
  5
1B8
330
145
100
AcDbEntity
  8
DV3_Default
  6
Continuous
 62
     7
100
AcDbCircle
 10
285.1183015483
 20
209.6897764268
 30
0.0
 40
10.00000000000021
100
AcDbArc
 50
192.9945451722
 51
257.0054548278
  0
LINE
  5
1B9
330
145
100
AcDbEntity
  8
DV3_Default
  6
Continuous
 62
     7
100
AcDbLine
 10
77.7897221278
 20
250.9864213182
 30
0.0
 11
85.2850540083
 21
258.4817531988
 31
0.0
  0
LINE
  5
1BA
330
145
100
AcDbEntity
  8
DV3_Default
  6
Continuous
 62
     7
100
AcDbLine
 10
88.3256131674
 20
255.4411940397
 30
0.0
 11
80.8302812869
 21
247.9458621591
 31
0.0
  0
LINE
  5
1BB
330
145
100
AcDbEntity
  8
DV3_Default
  6
Continuous
 62
     7
100
AcDbLine
 10
77.7897221278
 20
250.9864213182
 30
0.0
 11
80.8302812869
 21
247.9458621591
 31
0.0
  0
LINE
  5
1BC
330
145
100
AcDbEntity
  8
DV3_Default
  6
Continuous
 62
     7
100
AcDbLine
 10
88.3256131674
 20
255.4411940397
 30
0.0
 11
85.2850540083
 21
258.4817531988
 31
0.0
  0
ARC
  5
1BD
330
145
100
AcDbEntity
  8
DV3_Default
  6
Continuous
 62
     7
100
AcDbCircle
 10
78.5816983998
 20
257.6897769268
 30
0.0
 40
10.00000000000019
100
AcDbArc
 50
282.9945451722
 51
347.0054548278
  0
ENDBLK
  5
1BF
330
145
100
AcDbEntity
  8
0
100
AcDbBlockEnd
  0
ENDSEC
  0
SECTION
  2
ENTITIES
  0
INSERT
  5
5F
330
1F
100
AcDbEntity
  8
Default
100
AcDbBlockReference
  2
SEANNOT_GROUP
 10
0.0
 20
0.0
 30
0.0
  0
INSERT
  5
66
330
1F
100
AcDbEntity
  8
Default
100
AcDbBlockReference
  2
SE
 10
0.0
 20
0.0
 30
0.0
  0
INSERT
  5
C5
330
1F
100
AcDbEntity
  8
Default
100
AcDbBlockReference
  2
SE1
 10
0.0
 20
0.0
 30
0.0
  0
INSERT
  5
146
330
1F
100
AcDbEntity
  8
Default
100
AcDbBlockReference
  2
SE2
 10
0.0
 20
0.0
 30
0.0
  0
TEXT
  5
1C1
330
1F
100
AcDbEntity
  8
Default
  6
Continuous
 62
     7
100
AcDbText
 10
5.9362635081
 20
53.4225120485
 30
0.0
 40
10.0
  1
Grohe AG^J
  7
SEACAD_seiso_ttf
 11
5.9362635081
 21
63.4225120485
 31
0.0
100
AcDbText
 73
     3
  0
TEXT
  5
1C2
330
1F
100
AcDbEntity
  8
Default
  6
Continuous
 62
     7
100
AcDbText
 10
5.9362635081
 20
37.0588756849
 30
0.0
 40
10.0
  1
 
  7
SEACAD_seiso_ttf
 11
5.9362635081
 21
47.0588756849
 31
0.0
100
AcDbText
 73
     3
  0
TEXT
  5
1C3
330
1F
100
AcDbEntity
  8
Default
  6
Continuous
 62
     7
100
AcDbText
 10
5.9362635081
 20
20.6952393213
 30
0.0
 40
10.0
  1
ecn:
  7
SEACAD_seiso_ttf
 11
5.9362635081
 21
30.6952393213
 31
0.0
100
AcDbText
 73
     3
  0
TEXT
  5
1C4
330
1F
100
AcDbEntity
  8
Default
  6
Continuous
 62
     7
100
AcDbText
 10
5.9362635081
 20
4.3316029576
 30
0.0
 40
10.0
  1
unit: mm
  7
SEACAD_seiso_ttf
 11
5.9362635081
 21
14.3316029576
 31
0.0
100
AcDbText
 73
     3
  0
LINE
  5
1C5
330
1F
100
AcDbEntity
  8
Default
  6
Continuous
 62
     7
100
AcDbLine
 10
0.0
 20
0.0
 30
0.0
 11
100.0
 21
0.0
 31
0.0
  0
LINE
  5
1C6
330
1F
100
AcDbEntity
  8
Default
  6
Continuous
 62
     7
100
AcDbLine
 10
0.0
 20
0.0
 30
0.0
 11
0.0
 21
100.0
 31
0.0
  0
TEXT
  5
1C7
330
1F
100
AcDbEntity
  8
Default
  6
Continuous
 62
     7
100
AcDbText
 10
24.3923665681
 20
-18.2375342018
 30
0.0
 40
10.0
  1
100 mm
  7
SEACAD_seiso_ttf
 11
24.3923665681
 21
-8.2375342018
 31
0.0
100
AcDbText
 73
     3
  0
TEXT
  5
1C8
330
1F
100
AcDbEntity
  8
Default
  6
Continuous
 62
     7
100
AcDbText
 10
-7.6150308803
 20
24.6231930421
 30
0.0
 40
10.0
  1
100 mm
 50
90.0
  7
SEACAD_seiso_ttf
 11
-17.6150308803
 21
24.6231930421
 31
0.0
100
AcDbText
 73
     3
  0
TEXT
  5
1C9
330
1F
100
AcDbEntity
  8
Default
  6
Continuous
 62
     7
100
AcDbText
 10
28.4878128572
 20
20.0907663715
 30
0.0
 40
10.0
  1
226136
  7
SEACAD_seiso_ttf
 11
28.4878128572
 21
30.0907663715
 31
0.0
100
AcDbText
 73
     3
  0
TEXT
  5
1CA
330
1F
100
AcDbEntity
  8
Default
  6
Continuous
 62
     7
100
AcDbText
 10
5.9012241913
 20
36.7242780188
 30
0.0
 40
10.0
  1
40663000
  7
SEACAD_seiso_ttf
 11
5.9012241913
 21
46.7242780188
 31
0.0
100
AcDbText
 73
     3
  0
ENDSEC
  0
SECTION
  2
OBJECTS
  0
DICTIONARY
  5
C
330
0
100
AcDbDictionary
281
     1
  3
ACAD_GROUP
350
D
  3
ACAD_LAYOUT
350
1A
  3
ACAD_MLEADERSTYLE
350
1CE
  3
ACAD_MLINESTYLE
350
17
  3
ACAD_PLOTSETTINGS
350
19
  3
ACAD_PLOTSTYLENAME
350
E
  3
ACAD_SCALELIST
350
3B
  3
ACAD_TABLESTYLE
350
1CD
  3
ACAD_VISUALSTYLE
350
2A
  3
AcDbVariableDictionary
350
1CB
  0
DICTIONARY
  5
D
102
{ACAD_REACTORS
330
C
102
}
330
C
100
AcDbDictionary
281
     1
  0
DICTIONARY
  5
1A
102
{ACAD_REACTORS
330
C
102
}
330
C
100
AcDbDictionary
281
     1
  3
Layout1
350
1E
  3
Model
350
22
  0
DICTIONARY
  5
1CE
102
{ACAD_REACTORS
330
C
102
}
330
C
100
AcDbDictionary
281
     1
  0
DICTIONARY
  5
17
102
{ACAD_REACTORS
330
C
102
}
330
C
100
AcDbDictionary
281
     1
  3
Standard
350
18
  0
DICTIONARY
  5
19
102
{ACAD_REACTORS
330
C
102
}
330
C
100
AcDbDictionary
281
     1
  0
ACDBDICTIONARYWDFLT
  5
E
102
{ACAD_REACTORS
330
C
102
}
330
C
100
AcDbDictionary
281
     1
  3
Normal
350
F
100
AcDbDictionaryWithDefault
340
F
  0
DICTIONARY
  5
3B
102
{ACAD_REACTORS
330
C
102
}
330
C
100
AcDbDictionary
281
     1
  3
A0
350
3C
  3
A1
350
3D
  3
A2
350
3E
  3
A3
350
3F
  3
A4
350
40
  3
A5
350
41
  3
A6
350
42
  3
A7
350
43
  3
A8
350
44
  3
A9
350
45
  3
B0
350
46
  3
B1
350
47
  3
B2
350
48
  3
B3
350
49
  3
B4
350
4A
  3
B5
350
4B
  3
B6
350
4C
  3
B7
350
4D
  3
B8
350
4E
  3
B9
350
4F
  3
C0
350
50
  3
C1
350
51
  3
C2
350
52
  3
C3
350
53
  3
C4
350
54
  3
C5
350
55
  3
C6
350
56
  3
C7
350
57
  3
C8
350
58
  3
C9
350
59
  3
D0
350
5A
  3
D1
350
5B
  3
D2
350
5C
  0
DICTIONARY
  5
1CD
102
{ACAD_REACTORS
330
C
102
}
330
C
100
AcDbDictionary
281
     1
  0
DICTIONARY
  5
2A
102
{ACAD_REACTORS
330
C
102
}
330
C
100
AcDbDictionary
281
     1
  3
2dWireframe
350
2F
  3
3D Hidden
350
31
  3
3dWireframe
350
30
  3
Basic
350
32
  3
Brighten
350
36
  3
ColorChange
350
3A
  3
Conceptual
350
34
  3
Dim
350
35
  3
Facepattern
350
39
  3
Flat
350
2B
  3
FlatWithEdges
350
2C
  3
Gouraud
350
2D
  3
GouraudWithEdges
350
2E
  3
Linepattern
350
38
  3
Realistic
350
33
  3
Thicken
350
37
  0
DICTIONARY
  5
1CB
102
{ACAD_REACTORS
330
C
102
}
330
C
100
AcDbDictionary
281
     1
  3
CANNOSCALE
350
1CC
  3
PSOLHEIGHT
350
1D0
  3
PSOLWIDTH
350
1CF
  0
LAYOUT
  5
1E
102
{ACAD_REACTORS
330
1A
102
}
330
1A
100
AcDbPlotSettings
  1

  2
none_device
  4

  6

 40
0.0
 41
0.0
 42
0.0
 43
0.0
 44
0.0
 45
0.0
 46
0.0
 47
0.0
 48
0.0
 49
0.0
140
0.0
141
0.0
142
1.0
143
1.0
 70
   688
 72
     0
 73
     0
 74
     5
  7

 75
    16
147
1.0
148
0.0
149
0.0
100
AcDbLayout
  1
Layout1
 70
     1
 71
     1
 10
0.0
 20
0.0
 11
3000.0
 21
4500.0
 12
0.0
 22
0.0
 32
0.0
 14
0.0
 24
0.0
 34
0.0
 15
3000.0
 25
4500.0
 35
0.0
146
0.0
 13
0.0
 23
0.0
 33
0.0
 16
1.0
 26
0.0
 36
0.0
 17
0.0
 27
1.0
 37
0.0
 76
     0
330
1B
  0
LAYOUT
  5
22
102
{ACAD_REACTORS
330
1A
102
}
330
1A
100
AcDbPlotSettings
  1

  2
none_device
  4

  6

 40
0.0
 41
0.0
 42
0.0
 43
0.0
 44
0.0
 45
0.0
 46
0.0
 47
0.0
 48
0.0
 49
0.0
140
0.0
141
0.0
142
1.0
143
1.0
 70
  1712
 72
     0
 73
     0
 74
     0
  7

 75
     0
147
1.0
148
0.0
149
0.0
100
AcDbLayout
  1
Model
 70
     1
 71
     0
 10
0.0
 20
0.0
 11
3000.0
 21
4500.0
 12
0.0
 22
0.0
 32
0.0
 14
0.0
 24
0.0
 34
0.0
 15
3000.0
 25
4500.0
 35
0.0
146
0.0
 13
0.0
 23
0.0
 33
0.0
 16
1.0
 26
0.0
 36
0.0
 17
0.0
 27
1.0
 37
0.0
 76
     0
330
1F
331
29
  0
MLINESTYLE
  5
18
102
{ACAD_REACTORS
330
17
102
}
330
17
100
AcDbMlineStyle
  2
Standard
 70
     0
  3

 62
   256
 51
90.0
 52
90.0
 71
     2
 49
0.5
 62
   256
  6
BYLAYER
 49
-0.5
 62
   256
  6
BYLAYER
  0
ACDBPLACEHOLDER
  5
F
102
{ACAD_REACTORS
330
E
102
}
330
E
  0
SCALE
  5
3C
102
{ACAD_REACTORS
330
3B
102
}
330
3B
100
AcDbScale
 70
     0
300
1:1
140
1.0
141
1.0
290
     1
  0
SCALE
  5
3D
102
{ACAD_REACTORS
330
3B
102
}
330
3B
100
AcDbScale
 70
     0
300
1:2
140
1.0
141
2.0
290
     0
  0
SCALE
  5
3E
102
{ACAD_REACTORS
330
3B
102
}
330
3B
100
AcDbScale
 70
     0
300
1:4
140
1.0
141
4.0
290
     0
  0
SCALE
  5
3F
102
{ACAD_REACTORS
330
3B
102
}
330
3B
100
AcDbScale
 70
     0
300
1:5
140
1.0
141
5.0
290
     0
  0
SCALE
  5
40
102
{ACAD_REACTORS
330
3B
102
}
330
3B
100
AcDbScale
 70
     0
300
1:8
140
1.0
141
8.0
290
     0
  0
SCALE
  5
41
102
{ACAD_REACTORS
330
3B
102
}
330
3B
100
AcDbScale
 70
     0
300
1:10
140
1.0
141
10.0
290
     0
  0
SCALE
  5
42
102
{ACAD_REACTORS
330
3B
102
}
330
3B
100
AcDbScale
 70
     0
300
1:16
140
1.0
141
16.0
290
     0
  0
SCALE
  5
43
102
{ACAD_REACTORS
330
3B
102
}
330
3B
100
AcDbScale
 70
     0
300
1:20
140
1.0
141
20.0
290
     0
  0
SCALE
  5
44
102
{ACAD_REACTORS
330
3B
102
}
330
3B
100
AcDbScale
 70
     0
300
1:30
140
1.0
141
30.0
290
     0
  0
SCALE
  5
45
102
{ACAD_REACTORS
330
3B
102
}
330
3B
100
AcDbScale
 70
     0
300
1:40
140
1.0
141
40.0
290
     0
  0
SCALE
  5
46
102
{ACAD_REACTORS
330
3B
102
}
330
3B
100
AcDbScale
 70
     0
300
1:50
140
1.0
141
50.0
290
     0
  0
SCALE
  5
47
102
{ACAD_REACTORS
330
3B
102
}
330
3B
100
AcDbScale
 70
     0
300
1:100
140
1.0
141
100.0
290
     0
  0
SCALE
  5
48
102
{ACAD_REACTORS
330
3B
102
}
330
3B
100
AcDbScale
 70
     0
300
2:1
140
2.0
141
1.0
290
     0
  0
SCALE
  5
49
102
{ACAD_REACTORS
330
3B
102
}
330
3B
100
AcDbScale
 70
     0
300
4:1
140
4.0
141
1.0
290
     0
  0
SCALE
  5
4A
102
{ACAD_REACTORS
330
3B
102
}
330
3B
100
AcDbScale
 70
     0
300
8:1
140
8.0
141
1.0
290
     0
  0
SCALE
  5
4B
102
{ACAD_REACTORS
330
3B
102
}
330
3B
100
AcDbScale
 70
     0
300
10:1
140
10.0
141
1.0
290
     0
  0
SCALE
  5
4C
102
{ACAD_REACTORS
330
3B
102
}
330
3B
100
AcDbScale
 70
     0
300
100:1
140
100.0
141
1.0
290
     0
  0
SCALE
  5
4D
102
{ACAD_REACTORS
330
3B
102
}
330
3B
100
AcDbScale
 70
     0
300
1/128" = 1'-0"
140
0.0078125
141
12.0
290
     0
  0
SCALE
  5
4E
102
{ACAD_REACTORS
330
3B
102
}
330
3B
100
AcDbScale
 70
     0
300
1/64" = 1'-0"
140
0.015625
141
12.0
290
     0
  0
SCALE
  5
4F
102
{ACAD_REACTORS
330
3B
102
}
330
3B
100
AcDbScale
 70
     0
300
1/32" = 1'-0"
140
0.03125
141
12.0
290
     0
  0
SCALE
  5
50
102
{ACAD_REACTORS
330
3B
102
}
330
3B
100
AcDbScale
 70
     0
300
1/16" = 1'-0"
140
0.0625
141
12.0
290
     0
  0
SCALE
  5
51
102
{ACAD_REACTORS
330
3B
102
}
330
3B
100
AcDbScale
 70
     0
300
3/32" = 1'-0"
140
0.09375
141
12.0
290
     0
  0
SCALE
  5
52
102
{ACAD_REACTORS
330
3B
102
}
330
3B
100
AcDbScale
 70
     0
300
1/8" = 1'-0"
140
0.125
141
12.0
290
     0
  0
SCALE
  5
53
102
{ACAD_REACTORS
330
3B
102
}
330
3B
100
AcDbScale
 70
     0
300
3/16" = 1'-0"
140
0.1875
141
12.0
290
     0
  0
SCALE
  5
54
102
{ACAD_REACTORS
330
3B
102
}
330
3B
100
AcDbScale
 70
     0
300
1/4" = 1'-0"
140
0.25
141
12.0
290
     0
  0
SCALE
  5
55
102
{ACAD_REACTORS
330
3B
102
}
330
3B
100
AcDbScale
 70
     0
300
3/8" = 1'-0"
140
0.375
141
12.0
290
     0
  0
SCALE
  5
56
102
{ACAD_REACTORS
330
3B
102
}
330
3B
100
AcDbScale
 70
     0
300
1/2" = 1'-0"
140
0.5
141
12.0
290
     0
  0
SCALE
  5
57
102
{ACAD_REACTORS
330
3B
102
}
330
3B
100
AcDbScale
 70
     0
300
3/4" = 1'-0"
140
0.75
141
12.0
290
     0
  0
SCALE
  5
58
102
{ACAD_REACTORS
330
3B
102
}
330
3B
100
AcDbScale
 70
     0
300
1" = 1'-0"
140
1.0
141
12.0
290
     0
  0
SCALE
  5
59
102
{ACAD_REACTORS
330
3B
102
}
330
3B
100
AcDbScale
 70
     0
300
1-1/2" = 1'-0"
140
1.5
141
12.0
290
     0
  0
SCALE
  5
5A
102
{ACAD_REACTORS
330
3B
102
}
330
3B
100
AcDbScale
 70
     0
300
3" = 1'-0"
140
3.0
141
12.0
290
     0
  0
SCALE
  5
5B
102
{ACAD_REACTORS
330
3B
102
}
330
3B
100
AcDbScale
 70
     0
300
6" = 1'-0"
140
6.0
141
12.0
290
     0
  0
SCALE
  5
5C
102
{ACAD_REACTORS
330
3B
102
}
330
3B
100
AcDbScale
 70
     0
300
1'-0" = 1'-0"
140
12.0
141
12.0
290
     0
  0
VISUALSTYLE
  5
2F
102
{ACAD_REACTORS
330
2A
102
}
330
2A
100
AcDbVisualStyle
  2
2dWireframe
 70
     4
 71
     0
 72
     2
 73
     0
 90
        0
 40
-0.6
 41
-30.0
 62
     5
 63
     7
 74
     1
 91
        4
 64
     7
 65
   257
 75
     1
175
     1
 42
1.0
 92
        0
 66
   257
 43
1.0
 76
     1
 77
     6
 78
     2
 67
     7
 79
     5
170
     0
171
     0
290
     0
174
     0
 93
        1
 44
0.0
173
     0
291
     0
 45
0.0
1001
ACAD
1000
AcDbSavedByObjectVersion
1070
     0
  0
VISUALSTYLE
  5
31
102
{ACAD_REACTORS
330
2A
102
}
330
2A
100
AcDbVisualStyle
  2
3D Hidden
 70
     6
 71
     1
 72
     2
 73
     2
 90
        0
 40
-0.6
 41
-30.0
 62
     5
 63
     7
 74
     2
 91
        2
 64
     7
 65
   257
 75
     2
175
     1
 42
40.0
 92
        0
 66
   257
 43
1.0
 76
     1
 77
     6
 78
     2
 67
     7
 79
     3
170
     0
171
     0
290
     0
174
     0
 93
        1
 44
0.0
173
     0
291
     0
 45
0.0
1001
ACAD
1000
AcDbSavedByObjectVersion
1070
     0
  0
VISUALSTYLE
  5
30
102
{ACAD_REACTORS
330
2A
102
}
330
2A
100
AcDbVisualStyle
  2
3dWireframe
 70
     5
 71
     0
 72
     2
 73
     0
 90
        0
 40
-0.6
 41
-30.0
 62
     5
 63
     7
 74
     1
 91
        4
 64
     7
 65
   257
 75
     1
175
     1
 42
1.0
 92
        0
 66
   257
 43
1.0
 76
     1
 77
     6
 78
     2
 67
     7
 79
     5
170
     0
171
     0
290
     0
174
     0
 93
        1
 44
0.0
173
     0
291
     0
 45
0.0
1001
ACAD
1000
AcDbSavedByObjectVersion
1070
     0
  0
VISUALSTYLE
  5
32
102
{ACAD_REACTORS
330
2A
102
}
330
2A
100
AcDbVisualStyle
  2
Basic
 70
     7
 71
     1
 72
     0
 73
     1
 90
        0
 40
-0.6
 41
-30.0
 62
     5
 63
     7
 74
     0
 91
        4
 64
     7
 65
   257
 75
     1
175
     1
 42
1.0
 92
        8
 66
     7
 43
1.0
 76
     1
 77
     6
 78
     2
 67
     7
 79
     5
170
     0
171
     0
290
     0
174
     0
 93
        1
 44
0.0
173
     0
291
     1
 45
0.0
1001
ACAD
1000
AcDbSavedByObjectVersion
1070
     0
  0
VISUALSTYLE
  5
36
102
{ACAD_REACTORS
330
2A
102
}
330
2A
100
AcDbVisualStyle
  2
Brighten
 70
    12
 71
     2
 72
     2
 73
     0
 90
        0
 40
-0.6
 41
-30.0
 62
     5
 63
     7
 74
     1
 91
        4
 64
     7
 65
   257
 75
     1
175
     1
 42
1.0
 92
        8
 66
     7
 43
1.0
 76
     1
 77
     6
 78
     2
 67
     7
 79
     5
170
     0
171
     0
290
     0
174
     0
 93
        1
 44
50.0
173
     0
291
     1
 45
0.0
1001
ACAD
1000
AcDbSavedByObjectVersion
1070
     0
  0
VISUALSTYLE
  5
3A
102
{ACAD_REACTORS
330
2A
102
}
330
2A
100
AcDbVisualStyle
  2
ColorChange
 70
    16
 71
     2
 72
     2
 73
     3
 90
        0
 40
-0.6
 41
-30.0
 62
     5
 63
     8
 74
     1
 91
        4
 64
     7
 65
   257
 75
     1
175
     1
 42
1.0
 92
        8
 66
     8
 43
1.0
 76
     1
 77
     6
 78
     2
 67
     7
 79
     5
170
     0
171
     0
290
     0
174
     0
 93
        1
 44
0.0
173
     0
291
     1
 45
0.0
1001
ACAD
1000
AcDbSavedByObjectVersion
1070
     0
  0
VISUALSTYLE
  5
34
102
{ACAD_REACTORS
330
2A
102
}
330
2A
100
AcDbVisualStyle
  2
Conceptual
 70
     9
 71
     3
 72
     2
 73
     0
 90
        0
 40
-0.6
 41
-30.0
 62
     5
 63
     7
 74
     2
 91
        2
 64
     7
 65
   257
 75
     1
175
     1
 42
40.0
 92
        8
 66
     7
 43
1.0
 76
     1
 77
     6
 78
     2
 67
     7
 79
     3
170
     0
171
     0
290
     0
174
     0
 93
        1
 44
0.0
173
     0
291
     0
 45
0.0
1001
ACAD
1000
AcDbSavedByObjectVersion
1070
     0
  0
VISUALSTYLE
  5
35
102
{ACAD_REACTORS
330
2A
102
}
330
2A
100
AcDbVisualStyle
  2
Dim
 70
    11
 71
     2
 72
     2
 73
     0
 90
        0
 40
-0.6
 41
-30.0
 62
     5
 63
     7
 74
     1
 91
        4
 64
     7
 65
   257
 75
     1
175
     1
 42
1.0
 92
        8
 66
     7
 43
1.0
 76
     1
 77
     6
 78
     2
 67
     7
 79
     5
170
     0
171
     0
290
     0
174
     0
 93
        1
 44
-50.0
173
     0
291
     1
 45
0.0
1001
ACAD
1000
AcDbSavedByObjectVersion
1070
     0
  0
VISUALSTYLE
  5
39
102
{ACAD_REACTORS
330
2A
102
}
330
2A
100
AcDbVisualStyle
  2
Facepattern
 70
    15
 71
     2
 72
     2
 73
     0
 90
        0
 40
-0.6
 41
-30.0
 62
     5
 63
     7
 74
     1
 91
        4
 64
     7
 65
   257
 75
     1
175
     1
 42
1.0
 92
        8
 66
     7
 43
1.0
 76
     1
 77
     6
 78
     2
 67
     7
 79
     5
170
     0
171
     0
290
     0
174
     0
 93
        1
 44
0.0
173
     0
291
     1
 45
0.0
1001
ACAD
1000
AcDbSavedByObjectVersion
1070
     0
  0
VISUALSTYLE
  5
2B
102
{ACAD_REACTORS
330
2A
102
}
330
2A
100
AcDbVisualStyle
  2
Flat
 70
     0
 71
     2
 72
     1
 73
     1
 90
        2
 40
-0.6
 41
30.0
 62
     5
 63
     7
 74
     0
 91
        4
 64
     7
 65
   257
 75
     1
175
     1
 42
1.0
 92
        8
 66
     7
 43
1.0
 76
     1
 77
     6
 78
     2
 67
     7
 79
     5
170
     0
171
     0
290
     0
174
     0
 93
       13
 44
0.0
173
     0
291
     1
 45
0.0
1001
ACAD
1000
AcDbSavedByObjectVersion
1070
     0
  0
VISUALSTYLE
  5
2C
102
{ACAD_REACTORS
330
2A
102
}
330
2A
100
AcDbVisualStyle
  2
FlatWithEdges
 70
     1
 71
     2
 72
     1
 73
     1
 90
        2
 40
-0.6
 41
30.0
 62
     5
 63
     7
 74
     1
 91
        4
 64
     7
 65
   257
 75
     1
175
     1
 42
1.0
 92
        0
 66
   257
 43
1.0
 76
     1
 77
     6
 78
     2
 67
     7
 79
     5
170
     0
171
     0
290
     0
174
     0
 93
       13
 44
0.0
173
     0
291
     1
 45
0.0
1001
ACAD
1000
AcDbSavedByObjectVersion
1070
     0
  0
VISUALSTYLE
  5
2D
102
{ACAD_REACTORS
330
2A
102
}
330
2A
100
AcDbVisualStyle
  2
Gouraud
 70
     2
 71
     2
 72
     2
 73
     1
 90
        2
 40
-0.6
 41
30.0
 62
     5
 63
     7
 74
     0
 91
        4
 64
     7
 65
   257
 75
     1
175
     1
 42
1.0
 92
        0
 66
     7
 43
1.0
 76
     1
 77
     6
 78
     2
 67
     7
 79
     5
170
     0
171
     0
290
     0
174
     0
 93
       13
 44
0.0
173
     0
291
     1
 45
0.0
1001
ACAD
1000
AcDbSavedByObjectVersion
1070
     0
  0
VISUALSTYLE
  5
2E
102
{ACAD_REACTORS
330
2A
102
}
330
2A
100
AcDbVisualStyle
  2
GouraudWithEdges
 70
     3
 71
     2
 72
     2
 73
     1
 90
        2
 40
-0.6
 41
30.0
 62
     5
 63
     7
 74
     1
 91
        4
 64
     7
 65
   257
 75
     1
175
     1
 42
1.0
 92
        0
 66
   257
 43
1.0
 76
     1
 77
     6
 78
     2
 67
     7
 79
     5
170
     0
171
     0
290
     0
174
     0
 93
       13
 44
0.0
173
     0
291
     1
 45
0.0
1001
ACAD
1000
AcDbSavedByObjectVersion
1070
     0
  0
VISUALSTYLE
  5
38
102
{ACAD_REACTORS
330
2A
102
}
330
2A
100
AcDbVisualStyle
  2
Linepattern
 70
    14
 71
     2
 72
     2
 73
     0
 90
        0
 40
-0.6
 41
-30.0
 62
     5
 63
     7
 74
     1
 91
        4
 64
     7
 65
   257
 75
     7
175
     7
 42
1.0
 92
        8
 66
     7
 43
1.0
 76
     1
 77
     6
 78
     2
 67
     7
 79
     5
170
     0
171
     0
290
     0
174
     0
 93
        1
 44
0.0
173
     0
291
     1
 45
0.0
1001
ACAD
1000
AcDbSavedByObjectVersion
1070
     0
  0
VISUALSTYLE
  5
33
102
{ACAD_REACTORS
330
2A
102
}
330
2A
100
AcDbVisualStyle
  2
Realistic
 70
     8
 71
     2
 72
     2
 73
     0
 90
        0
 40
-0.6
 41
-30.0
 62
     5
 63
     7
 74
     1
 91
        0
 64
     7
 65
   257
 75
     1
175
     1
 42
1.0
 92
        8
 66
     8
 43
1.0
 76
     1
 77
     6
 78
     2
 67
     7
 79
     5
170
     0
171
     0
290
     0
174
     0
 93
       13
 44
0.0
173
     0
291
     0
 45
0.0
1001
ACAD
1000
AcDbSavedByObjectVersion
1070
     0
  0
VISUALSTYLE
  5
37
102
{ACAD_REACTORS
330
2A
102
}
330
2A
100
AcDbVisualStyle
  2
Thicken
 70
    13
 71
     2
 72
     2
 73
     0
 90
        0
 40
-0.6
 41
-30.0
 62
     5
 63
     7
 74
     1
 91
        4
 64
     7
 65
   257
 75
     1
175
     1
 42
1.0
 92
       12
 66
     7
 43
1.0
 76
     1
 77
     6
 78
     2
 67
     7
 79
     5
170
     0
171
     0
290
     0
174
     0
 93
        1
 44
0.0
173
     0
291
     1
 45
0.0
1001
ACAD
1000
AcDbSavedByObjectVersion
1070
     0
  0
DICTIONARYVAR
  5
1CC
102
{ACAD_REACTORS
330
1CB
102
}
330
1CB
100
DictionaryVariables
280
     0
  1
1:1
  0
DICTIONARYVAR
  5
1D0
102
{ACAD_REACTORS
330
1CB
102
}
330
1CB
100
DictionaryVariables
280
     0
  1
80.000000
  0
DICTIONARYVAR
  5
1CF
102
{ACAD_REACTORS
330
1CB
102
}
330
1CB
100
DictionaryVariables
280
     0
  1
5.000000
  0
ENDSEC
  0
EOF
