  0
SECTION
  2
HEADER
  9
$ACADVER
  1
AC1015
  9
$ACADMAINTVER
 70
     6
  9
$DWGCODEPAGE
  3
ANSI_1252
  9
$INSBASE
 10
0.0
 20
0.0
 30
0.0
  9
$EXTMIN
 10
0.0
 20
0.0
 30
0.0
  9
$EXTMAX
 10
1682.0
 20
2378.0
 30
0.0
  9
$LIMMIN
 10
0.0
 20
0.0
  9
$LIMMAX
 10
1682.0
 20
2378.0
  9
$ORTHOMODE
 70
     0
  9
$REGENMODE
 70
     1
  9
$FILLMODE
 70
     1
  9
$QTEXTMODE
 70
     0
  9
$MIRRTEXT
 70
     1
  9
$LTSCALE
 40
1.0
  9
$ATTMODE
 70
     1
  9
$TEXTSIZE
 40
2.5
  9
$TRACEWID
 40
1.0
  9
$TEXTSTYLE
  7
Standard
  9
$CLAYER
  8
0
  9
$CELTYPE
  6
ByLayer
  9
$CECOLOR
 62
   256
  9
$CELTSCALE
 40
1.0
  9
$DISPSILH
 70
     0
  9
$DIMSCALE
 40
1.0
  9
$DIMASZ
 40
2.5
  9
$DIMEXO
 40
0.625
  9
$DIMDLI
 40
3.75
  9
$DIMRND
 40
0.0
  9
$DIMDLE
 40
0.0
  9
$DIMEXE
 40
1.25
  9
$DIMTP
 40
0.0
  9
$DIMTM
 40
0.0
  9
$DIMTXT
 40
2.5
  9
$DIMCEN
 40
2.5
  9
$DIMTSZ
 40
0.0
  9
$DIMTOL
 70
     0
  9
$DIMLIM
 70
     0
  9
$DIMTIH
 70
     0
  9
$DIMTOH
 70
     0
  9
$DIMSE1
 70
     0
  9
$DIMSE2
 70
     0
  9
$DIMTAD
 70
     1
  9
$DIMZIN
 70
     8
  9
$DIMBLK
  1

  9
$DIMASO
 70
     1
  9
$DIMSHO
 70
     1
  9
$DIMPOST
  1

  9
$DIMAPOST
  1

  9
$DIMALT
 70
     0
  9
$DIMALTD
 70
     3
  9
$DIMALTF
 40
0.0393700787
  9
$DIMLFAC
 40
1.0
  9
$DIMTOFL
 70
     1
  9
$DIMTVP
 40
0.0
  9
$DIMTIX
 70
     0
  9
$DIMSOXD
 70
     0
  9
$DIMSAH
 70
     0
  9
$DIMBLK1
  1

  9
$DIMBLK2
  1

  9
$DIMSTYLE
  2
ISO-25
  9
$DIMCLRD
 70
     0
  9
$DIMCLRE
 70
     0
  9
$DIMCLRT
 70
     0
  9
$DIMTFAC
 40
1.0
  9
$DIMGAP
 40
0.625
  9
$DIMJUST
 70
     0
  9
$DIMSD1
 70
     0
  9
$DIMSD2
 70
     0
  9
$DIMTOLJ
 70
     0
  9
$DIMTZIN
 70
     8
  9
$DIMALTZ
 70
     0
  9
$DIMALTTZ
 70
     0
  9
$DIMUPT
 70
     0
  9
$DIMDEC
 70
     2
  9
$DIMTDEC
 70
     2
  9
$DIMALTU
 70
     2
  9
$DIMALTTD
 70
     3
  9
$DIMTXSTY
  7
Standard
  9
$DIMAUNIT
 70
     0
  9
$DIMADEC
 70
     0
  9
$DIMALTRND
 40
0.0
  9
$DIMAZIN
 70
     0
  9
$DIMDSEP
 70
    44
  9
$DIMATFIT
 70
     3
  9
$DIMFRAC
 70
     0
  9
$DIMLDRBLK
  1

  9
$DIMLUNIT
 70
     2
  9
$DIMLWD
 70
    -2
  9
$DIMLWE
 70
    -2
  9
$DIMTMOVE
 70
     0
  9
$LUNITS
 70
     2
  9
$LUPREC
 70
     4
  9
$SKETCHINC
 40
1.0
  9
$FILLETRAD
 40
10.0
  9
$AUNITS
 70
     0
  9
$AUPREC
 70
     0
  9
$MENU
  1
.
  9
$ELEVATION
 40
0.0
  9
$PELEVATION
 40
0.0
  9
$THICKNESS
 40
0.0
  9
$LIMCHECK
 70
     0
  9
$CHAMFERA
 40
10.0
  9
$CHAMFERB
 40
10.0
  9
$CHAMFERC
 40
20.0
  9
$CHAMFERD
 40
0.0
  9
$SKPOLY
 70
     0
  9
$TDCREATE
 40
2455649.466439514
  9
$TDUCREATE
 40
2455649.38310618
  9
$TDUPDATE
 40
2455649.466439526
  9
$TDUUPDATE
 40
2455649.383106192
  9
$TDINDWG
 40
0.0000000116
  9
$TDUSRTIMER
 40
0.0000000116
  9
$USRTIMER
 70
     1
  9
$ANGBASE
 50
0.0
  9
$ANGDIR
 70
     0
  9
$PDMODE
 70
     0
  9
$PDSIZE
 40
0.0
  9
$PLINEWID
 40
0.0
  9
$SPLFRAME
 70
     0
  9
$SPLINETYPE
 70
     6
  9
$SPLINESEGS
 70
     8
  9
$HANDSEED
  5
2FD
  9
$SURFTAB1
 70
     6
  9
$SURFTAB2
 70
     6
  9
$SURFTYPE
 70
     6
  9
$SURFU
 70
     6
  9
$SURFV
 70
     6
  9
$UCSBASE
  2

  9
$UCSNAME
  2

  9
$UCSORG
 10
0.0
 20
0.0
 30
0.0
  9
$UCSXDIR
 10
1.0
 20
0.0
 30
0.0
  9
$UCSYDIR
 10
0.0
 20
1.0
 30
0.0
  9
$UCSORTHOREF
  2

  9
$UCSORTHOVIEW
 70
     0
  9
$UCSORGTOP
 10
0.0
 20
0.0
 30
0.0
  9
$UCSORGBOTTOM
 10
0.0
 20
0.0
 30
0.0
  9
$UCSORGLEFT
 10
0.0
 20
0.0
 30
0.0
  9
$UCSORGRIGHT
 10
0.0
 20
0.0
 30
0.0
  9
$UCSORGFRONT
 10
0.0
 20
0.0
 30
0.0
  9
$UCSORGBACK
 10
0.0
 20
0.0
 30
0.0
  9
$PUCSBASE
  2

  9
$PUCSNAME
  2

  9
$PUCSORG
 10
0.0
 20
0.0
 30
0.0
  9
$PUCSXDIR
 10
1.0
 20
0.0
 30
0.0
  9
$PUCSYDIR
 10
0.0
 20
1.0
 30
0.0
  9
$PUCSORTHOREF
  2

  9
$PUCSORTHOVIEW
 70
     0
  9
$PUCSORGTOP
 10
0.0
 20
0.0
 30
0.0
  9
$PUCSORGBOTTOM
 10
0.0
 20
0.0
 30
0.0
  9
$PUCSORGLEFT
 10
0.0
 20
0.0
 30
0.0
  9
$PUCSORGRIGHT
 10
0.0
 20
0.0
 30
0.0
  9
$PUCSORGFRONT
 10
0.0
 20
0.0
 30
0.0
  9
$PUCSORGBACK
 10
0.0
 20
0.0
 30
0.0
  9
$USERI1
 70
     0
  9
$USERI2
 70
     0
  9
$USERI3
 70
     0
  9
$USERI4
 70
     0
  9
$USERI5
 70
     0
  9
$USERR1
 40
0.0
  9
$USERR2
 40
0.0
  9
$USERR3
 40
0.0
  9
$USERR4
 40
0.0
  9
$USERR5
 40
0.0
  9
$WORLDVIEW
 70
     1
  9
$SHADEDGE
 70
     3
  9
$SHADEDIF
 70
    70
  9
$TILEMODE
 70
     1
  9
$MAXACTVP
 70
    64
  9
$PINSBASE
 10
0.0
 20
0.0
 30
0.0
  9
$PLIMCHECK
 70
     0
  9
$PEXTMIN
 10
0.0
 20
0.0
 30
0.0
  9
$PEXTMAX
 10
1682.0
 20
2378.0
 30
0.0
  9
$PLIMMIN
 10
0.0
 20
0.0
  9
$PLIMMAX
 10
1682.0
 20
2378.0
  9
$UNITMODE
 70
     0
  9
$VISRETAIN
 70
     1
  9
$PLINEGEN
 70
     0
  9
$PSLTSCALE
 70
     1
  9
$TREEDEPTH
 70
  3020
  9
$CMLSTYLE
  2
Standard
  9
$CMLJUST
 70
     0
  9
$CMLSCALE
 40
20.0
  9
$PROXYGRAPHICS
 70
     1
  9
$MEASUREMENT
 70
     1
  9
$CELWEIGHT
370
    -1
  9
$ENDCAPS
280
     0
  9
$JOINSTYLE
280
     0
  9
$LWDISPLAY
290
     0
  9
$INSUNITS
 70
     4
  9
$HYPERLINKBASE
  1

  9
$STYLESHEET
  1

  9
$XEDIT
290
     1
  9
$CEPSNTYPE
380
     0
  9
$PSTYLEMODE
290
     1
  9
$FINGERPRINTGUID
  2
{7671F832-20F0-4C9A-AFE0-F559942CD398}
  9
$VERSIONGUID
  2
{FAEB1C32-E019-11D5-929B-00C0DF256EC4}
  9
$EXTNAMES
290
     1
  9
$PSVPSCALE
 40
0.0
  9
$OLESTARTUP
290
     0
  0
ENDSEC
  0
SECTION
  2
CLASSES
  0
CLASS
  1
ACDBDICTIONARYWDFLT
  2
AcDbDictionaryWithDefault
  3
ObjectDBX Classes
 90
        0
280
     0
281
     0
  0
CLASS
  1
VISUALSTYLE
  2
AcDbVisualStyle
  3
ObjectDBX Classes
 90
     4095
280
     0
281
     0
  0
CLASS
  1
SCALE
  2
AcDbScale
  3
ObjectDBX Classes
 90
     1153
280
     0
281
     0
  0
CLASS
  1
DICTIONARYVAR
  2
AcDbDictionaryVar
  3
ObjectDBX Classes
 90
        0
280
     0
281
     0
  0
CLASS
  1
ACDBPLACEHOLDER
  2
AcDbPlaceHolder
  3
ObjectDBX Classes
 90
        0
280
     0
281
     0
  0
CLASS
  1
LAYOUT
  2
AcDbLayout
  3
ObjectDBX Classes
 90
        0
280
     0
281
     0
  0
ENDSEC
  0
SECTION
  2
TABLES
  0
TABLE
  2
VPORT
  5
8
330
0
100
AcDbSymbolTable
 70
     1
  0
VPORT
  5
29
330
8
100
AcDbSymbolTableRecord
100
AcDbViewportTableRecord
  2
*Active
 70
     0
 10
0.0
 20
0.0
 11
1.0
 21
1.0
 12
344.1869158879
 22
148.5
 13
0.0
 23
0.0
 14
10.0
 24
10.0
 15
10.0
 25
10.0
 16
0.0
 26
0.0
 36
1.0
 17
0.0
 27
0.0
 37
0.0
 40
297.0
 41
1.9729729729
 42
50.0
 43
0.0
 44
0.0
 50
0.0
 51
0.0
 71
     0
 72
   100
 73
     1
 74
     3
 75
     0
 76
     0
 77
     0
 78
     0
281
     0
 65
     1
110
0.0
120
0.0
130
0.0
111
1.0
121
0.0
131
0.0
112
0.0
122
1.0
132
0.0
 79
     0
146
0.0
  0
ENDTAB
  0
TABLE
  2
LTYPE
  5
5
330
0
100
AcDbSymbolTable
 70
     2
  0
LTYPE
  5
14
330
5
100
AcDbSymbolTableRecord
100
AcDbLinetypeTableRecord
  2
ByBlock
 70
     0
  3

 72
    65
 73
     0
 40
0.0
  0
LTYPE
  5
15
330
5
100
AcDbSymbolTableRecord
100
AcDbLinetypeTableRecord
  2
ByLayer
 70
     0
  3

 72
    65
 73
     0
 40
0.0
  0
LTYPE
  5
16
330
5
100
AcDbSymbolTableRecord
100
AcDbLinetypeTableRecord
  2
Continuous
 70
     0
  3
Solid line
 72
    65
 73
     0
 40
0.0
  0
LTYPE
  5
60
330
5
100
AcDbSymbolTableRecord
100
AcDbLinetypeTableRecord
  2
CENTER2
 70
     0
  3
Center (.5x) ___ _ ___ _ ___ _ ___ _ ___ _ ___
 72
    65
 73
     4
 40
28.575
 49
19.05
 74
     4
 75
     0
340
0
 46
0.0
 50
0.0
 44
0.0
 45
0.0
 49
-3.175
 74
     4
 75
     0
340
0
 46
0.0
 50
0.0
 44
0.0
 45
0.0
 49
3.175
 74
     4
 75
     0
340
0
 46
0.0
 50
0.0
 44
0.0
 45
0.0
 49
-3.175
 74
     4
 75
     0
340
0
 46
0.0
 50
0.0
 44
0.0
 45
0.0
  0
ENDTAB
  0
TABLE
  2
LAYER
  5
2
330
0
100
AcDbSymbolTable
 70
    18
  0
LAYER
  5
10
330
2
100
AcDbSymbolTableRecord
100
AcDbLayerTableRecord
  2
0
 70
     0
 62
     7
  6
Continuous
370
    -3
390
F
  0
LAYER
  5
5D
330
2
100
AcDbSymbolTableRecord
100
AcDbLayerTableRecord
  2
Default
 70
     0
 62
     7
  6
Continuous
370
    -3
390
F
  0
LAYER
  5
9C
330
2
100
AcDbSymbolTableRecord
100
AcDbLayerTableRecord
  2
$DDT_AUDIT_GENERATED_(9C)
 70
     0
 62
     7
  6
Continuous
370
    -3
390
F
  0
LAYER
  5
A5
330
2
100
AcDbSymbolTableRecord
100
AcDbLayerTableRecord
  2
$DDT_AUDIT_GENERATED_(A5)
 70
     0
 62
     7
  6
Continuous
370
    -3
390
F
  0
LAYER
  5
AB
330
2
100
AcDbSymbolTableRecord
100
AcDbLayerTableRecord
  2
$DDT_AUDIT_GENERATED_(AB)
 70
     0
 62
     7
  6
Continuous
370
    -3
390
F
  0
LAYER
  5
B8
330
2
100
AcDbSymbolTableRecord
100
AcDbLayerTableRecord
  2
$DDT_AUDIT_GENERATED_(B8)
 70
     0
 62
     7
  6
Continuous
370
    -3
390
F
  0
LAYER
  5
BB
330
2
100
AcDbSymbolTableRecord
100
AcDbLayerTableRecord
  2
$DDT_AUDIT_GENERATED_(BB)
 70
     0
 62
     7
  6
Continuous
370
    -3
390
F
  0
LAYER
  5
C4
330
2
100
AcDbSymbolTableRecord
100
AcDbLayerTableRecord
  2
$DDT_AUDIT_GENERATED_(C4)
 70
     0
 62
     7
  6
Continuous
370
    -3
390
F
  0
LAYER
  5
CD
330
2
100
AcDbSymbolTableRecord
100
AcDbLayerTableRecord
  2
$DDT_AUDIT_GENERATED_(CD)
 70
     0
 62
     7
  6
Continuous
370
    -3
390
F
  0
LAYER
  5
D9
330
2
100
AcDbSymbolTableRecord
100
AcDbLayerTableRecord
  2
$DDT_AUDIT_GENERATED_(D9)
 70
     0
 62
     7
  6
Continuous
370
    -3
390
F
  0
LAYER
  5
128
330
2
100
AcDbSymbolTableRecord
100
AcDbLayerTableRecord
  2
$DDT_AUDIT_GENERATED_(128)
 70
     0
 62
     7
  6
Continuous
370
    -3
390
F
  0
LAYER
  5
12E
330
2
100
AcDbSymbolTableRecord
100
AcDbLayerTableRecord
  2
$DDT_AUDIT_GENERATED_(12E)
 70
     0
 62
     7
  6
Continuous
370
    -3
390
F
  0
LAYER
  5
137
330
2
100
AcDbSymbolTableRecord
100
AcDbLayerTableRecord
  2
$DDT_AUDIT_GENERATED_(137)
 70
     0
 62
     7
  6
Continuous
370
    -3
390
F
  0
LAYER
  5
144
330
2
100
AcDbSymbolTableRecord
100
AcDbLayerTableRecord
  2
$DDT_AUDIT_GENERATED_(144)
 70
     0
 62
     7
  6
Continuous
370
    -3
390
F
  0
LAYER
  5
146
330
2
100
AcDbSymbolTableRecord
100
AcDbLayerTableRecord
  2
$DDT_AUDIT_GENERATED_(146)
 70
     0
 62
     7
  6
Continuous
370
    -3
390
F
  0
LAYER
  5
168
330
2
100
AcDbSymbolTableRecord
100
AcDbLayerTableRecord
  2
$DDT_AUDIT_GENERATED_(168)
 70
     0
 62
     7
  6
Continuous
370
    -3
390
F
  0
LAYER
  5
16B
330
2
100
AcDbSymbolTableRecord
100
AcDbLayerTableRecord
  2
$DDT_AUDIT_GENERATED_(16B)
 70
     0
 62
     7
  6
Continuous
370
    -3
390
F
  0
LAYER
  5
230
330
2
100
AcDbSymbolTableRecord
100
AcDbLayerTableRecord
  2
$DDT_AUDIT_GENERATED_(230)
 70
     0
 62
     7
  6
Continuous
370
    -3
390
F
  0
ENDTAB
  0
TABLE
  2
STYLE
  5
3
330
0
100
AcDbSymbolTable
 70
     2
  0
STYLE
  5
11
330
3
100
AcDbSymbolTableRecord
100
AcDbTextStyleTableRecord
  2
Standard
 70
     0
 40
0.0
 41
1.0
 50
0.0
 71
     0
 42
2.5
  3
txt
  4

  0
STYLE
  5
2EC
330
3
100
AcDbSymbolTableRecord
100
AcDbTextStyleTableRecord
  2
SEACAD_seiso_ttf
 70
     0
 40
0.0
 41
1.0
 50
0.0
 71
     0
 42
0.2
  3
seiso.ttf
  4

  0
ENDTAB
  0
TABLE
  2
VIEW
  5
6
330
0
100
AcDbSymbolTable
 70
     0
  0
ENDTAB
  0
TABLE
  2
UCS
  5
7
330
0
100
AcDbSymbolTable
 70
     0
  0
ENDTAB
  0
TABLE
  2
APPID
  5
9
330
0
100
AcDbSymbolTable
 70
     1
  0
APPID
  5
12
330
9
100
AcDbSymbolTableRecord
100
AcDbRegAppTableRecord
  2
ACAD
 70
     0
  0
ENDTAB
  0
TABLE
  2
DIMSTYLE
  5
A
330
0
100
AcDbSymbolTable
 70
     1
100
AcDbDimStyleTable
  0
DIMSTYLE
105
27
330
A
100
AcDbSymbolTableRecord
100
AcDbDimStyleTableRecord
  2
ISO-25
 70
     0
 41
2.5
 42
0.625
 43
3.75
 44
1.25
 73
     0
 74
     0
 77
     1
 78
     8
140
2.5
141
2.5
143
0.0393700787
147
0.625
171
     3
172
     1
271
     2
272
     2
274
     3
278
    44
283
     0
284
     8
340
11
  0
ENDTAB
  0
TABLE
  2
BLOCK_RECORD
  5
1
330
0
100
AcDbSymbolTable
 70
    13
  0
BLOCK_RECORD
  5
1F
330
1
100
AcDbSymbolTableRecord
100
AcDbBlockTableRecord
  2
*Model_Space
340
22
  0
BLOCK_RECORD
  5
1B
330
1
100
AcDbSymbolTableRecord
100
AcDbBlockTableRecord
  2
*Paper_Space
340
1E
  0
BLOCK_RECORD
  5
5E
330
1
100
AcDbSymbolTableRecord
100
AcDbBlockTableRecord
  2
SEANNOT_GROUP
340
0
102
{BLKREFS
331
5F
102
}
  0
BLOCK_RECORD
  5
65
330
1
100
AcDbSymbolTableRecord
100
AcDbBlockTableRecord
  2
SEANNOT_GROUP1
340
0
102
{BLKREFS
331
66
102
}
  0
BLOCK_RECORD
  5
6B
330
1
100
AcDbSymbolTableRecord
100
AcDbBlockTableRecord
  2
SEANNOT_GROUP2
340
0
102
{BLKREFS
331
6C
102
}
  0
BLOCK_RECORD
  5
71
330
1
100
AcDbSymbolTableRecord
100
AcDbBlockTableRecord
  2
SEANNOT_GROUP3
340
0
102
{BLKREFS
331
72
102
}
  0
BLOCK_RECORD
  5
78
330
1
100
AcDbSymbolTableRecord
100
AcDbBlockTableRecord
  2
SEANNOT_GROUP4
340
0
102
{BLKREFS
331
79
102
}
  0
BLOCK_RECORD
  5
82
330
1
100
AcDbSymbolTableRecord
100
AcDbBlockTableRecord
  2
SEANNOT_GROUP5
340
0
102
{BLKREFS
331
83
102
}
  0
BLOCK_RECORD
  5
88
330
1
100
AcDbSymbolTableRecord
100
AcDbBlockTableRecord
  2
SEANNOT_GROUP6
340
0
102
{BLKREFS
331
89
102
}
  0
BLOCK_RECORD
  5
8E
330
1
100
AcDbSymbolTableRecord
100
AcDbBlockTableRecord
  2
SEANNOT_GROUP7
340
0
102
{BLKREFS
331
8F
102
}
  0
BLOCK_RECORD
  5
94
330
1
100
AcDbSymbolTableRecord
100
AcDbBlockTableRecord
  2
SEANNOT_GROUP8
340
0
102
{BLKREFS
331
95
102
}
  0
BLOCK_RECORD
  5
9A
330
1
100
AcDbSymbolTableRecord
100
AcDbBlockTableRecord
  2
SE
340
0
102
{BLKREFS
331
9B
102
}
  0
BLOCK_RECORD
  5
176
330
1
100
AcDbSymbolTableRecord
100
AcDbBlockTableRecord
  2
SE1
340
0
102
{BLKREFS
331
177
102
}
  0
BLOCK_RECORD
  5
21B
330
1
100
AcDbSymbolTableRecord
100
AcDbBlockTableRecord
  2
SE2
340
0
102
{BLKREFS
331
21C
102
}
  0
ENDTAB
  0
ENDSEC
  0
SECTION
  2
BLOCKS
  0
BLOCK
  5
20
330
1F
100
AcDbEntity
  8
0
100
AcDbBlockBegin
  2
*Model_Space
 70
     0
 10
0.0
 20
0.0
 30
0.0
  3
*Model_Space
  1

  0
ENDBLK
  5
21
330
1F
100
AcDbEntity
  8
0
100
AcDbBlockEnd
  0
BLOCK
  5
1C
330
1B
100
AcDbEntity
 67
     1
  8
0
100
AcDbBlockBegin
  2
*Paper_Space
 70
     0
 10
0.0
 20
0.0
 30
0.0
  3
*Paper_Space
  1

  0
ENDBLK
  5
1D
330
1B
100
AcDbEntity
 67
     1
  8
0
100
AcDbBlockEnd
  0
BLOCK
  5
63
330
5E
100
AcDbEntity
  8
0
100
AcDbBlockBegin
  2
SEANNOT_GROUP
 70
     0
 10
0.0
 20
0.0
 30
0.0
  3
SEANNOT_GROUP
  1

  0
LINE
  5
61
330
5E
100
AcDbEntity
  8
Default
  6
CENTER2
 62
     7
100
AcDbLine
 10
90.5220315606
 20
535.3383810314
 30
0.0
 11
50.5220324547
 21
535.3383810314
 31
0.0
  0
LINE
  5
62
330
5E
100
AcDbEntity
  8
Default
  6
CENTER2
 62
     7
100
AcDbLine
 10
70.5220320077
 20
555.3383805843
 30
0.0
 11
70.5220320077
 21
515.3383814784
 31
0.0
  0
ENDBLK
  5
64
330
5E
100
AcDbEntity
  8
0
100
AcDbBlockEnd
  0
BLOCK
  5
69
330
65
100
AcDbEntity
  8
0
100
AcDbBlockBegin
  2
SEANNOT_GROUP1
 70
     0
 10
0.0
 20
0.0
 30
0.0
  3
SEANNOT_GROUP1
  1

  0
LINE
  5
67
330
65
100
AcDbEntity
  8
Default
  6
CENTER2
 62
     7
100
AcDbLine
 10
245.5220315606
 20
535.0383810314
 30
0.0
 11
205.5220324547
 21
535.0383810314
 31
0.0
  0
LINE
  5
68
330
65
100
AcDbEntity
  8
Default
  6
CENTER2
 62
     7
100
AcDbLine
 10
225.5220320077
 20
555.0383805843
 30
0.0
 11
225.5220320077
 21
515.0383814784
 31
0.0
  0
ENDBLK
  5
6A
330
65
100
AcDbEntity
  8
0
100
AcDbBlockEnd
  0
BLOCK
  5
6F
330
6B
100
AcDbEntity
  8
0
100
AcDbBlockBegin
  2
SEANNOT_GROUP2
 70
     0
 10
0.0
 20
0.0
 30
0.0
  3
SEANNOT_GROUP2
  1

  0
LINE
  5
6D
330
6B
100
AcDbEntity
  8
Default
  6
CENTER2
 62
     7
100
AcDbLine
 10
435.5220315606
 20
535.0383810314
 30
0.0
 11
395.5220324547
 21
535.0383810314
 31
0.0
  0
LINE
  5
6E
330
6B
100
AcDbEntity
  8
Default
  6
CENTER2
 62
     7
100
AcDbLine
 10
415.5220320077
 20
555.0383805843
 30
0.0
 11
415.5220320077
 21
515.0383814784
 31
0.0
  0
ENDBLK
  5
70
330
6B
100
AcDbEntity
  8
0
100
AcDbBlockEnd
  0
BLOCK
  5
75
330
71
100
AcDbEntity
  8
0
100
AcDbBlockBegin
  2
SEANNOT_GROUP3
 70
     0
 10
0.0
 20
0.0
 30
0.0
  3
SEANNOT_GROUP3
  1

  0
LINE
  5
73
330
71
100
AcDbEntity
  8
Default
  6
CENTER2
 62
     7
100
AcDbLine
 10
590.5220315606
 20
535.0383810314
 30
0.0
 11
550.5220324547
 21
535.0383810314
 31
0.0
  0
LINE
  5
74
330
71
100
AcDbEntity
  8
Default
  6
CENTER2
 62
     7
100
AcDbLine
 10
570.5220320077
 20
555.0383805843
 30
0.0
 11
570.5220320077
 21
515.0383814784
 31
0.0
  0
ENDBLK
  5
76
330
71
100
AcDbEntity
  8
0
100
AcDbBlockEnd
  0
BLOCK
  5
7C
330
78
100
AcDbEntity
  8
0
100
AcDbBlockBegin
  2
SEANNOT_GROUP4
 70
     0
 10
0.0
 20
0.0
 30
0.0
  3
SEANNOT_GROUP4
  1

  0
LINE
  5
7A
330
78
100
AcDbEntity
  8
Default
  6
CENTER2
 62
     7
100
AcDbLine
 10
905.2220315606
 20
535.0383810314
 30
0.0
 11
865.2220324547
 21
535.0383810314
 31
0.0
  0
LINE
  5
7B
330
78
100
AcDbEntity
  8
Default
  6
CENTER2
 62
     7
100
AcDbLine
 10
885.2220320077
 20
555.0383805843
 30
0.0
 11
885.2220320077
 21
515.0383814784
 31
0.0
  0
ENDBLK
  5
7D
330
78
100
AcDbEntity
  8
0
100
AcDbBlockEnd
  0
BLOCK
  5
86
330
82
100
AcDbEntity
  8
0
100
AcDbBlockBegin
  2
SEANNOT_GROUP5
 70
     0
 10
0.0
 20
0.0
 30
0.0
  3
SEANNOT_GROUP5
  1

  0
LINE
  5
84
330
82
100
AcDbEntity
  8
Default
  6
CENTER2
 62
     7
100
AcDbLine
 10
90.5220315606
 20
342.35
 30
0.0
 11
50.5220324547
 21
342.35
 31
0.0
  0
LINE
  5
85
330
82
100
AcDbEntity
  8
Default
  6
CENTER2
 62
     7
100
AcDbLine
 10
70.5220320077
 20
362.349999553
 30
0.0
 11
70.5220320077
 21
322.350000447
 31
0.0
  0
ENDBLK
  5
87
330
82
100
AcDbEntity
  8
0
100
AcDbBlockEnd
  0
BLOCK
  5
8C
330
88
100
AcDbEntity
  8
0
100
AcDbBlockBegin
  2
SEANNOT_GROUP6
 70
     0
 10
0.0
 20
0.0
 30
0.0
  3
SEANNOT_GROUP6
  1

  0
LINE
  5
8A
330
88
100
AcDbEntity
  8
Default
  6
CENTER2
 62
     7
100
AcDbLine
 10
245.5220315606
 20
342.35
 30
0.0
 11
205.5220324547
 21
342.35
 31
0.0
  0
LINE
  5
8B
330
88
100
AcDbEntity
  8
Default
  6
CENTER2
 62
     7
100
AcDbLine
 10
225.5220320077
 20
362.349999553
 30
0.0
 11
225.5220320077
 21
322.350000447
 31
0.0
  0
ENDBLK
  5
8D
330
88
100
AcDbEntity
  8
0
100
AcDbBlockEnd
  0
BLOCK
  5
92
330
8E
100
AcDbEntity
  8
0
100
AcDbBlockBegin
  2
SEANNOT_GROUP7
 70
     0
 10
0.0
 20
0.0
 30
0.0
  3
SEANNOT_GROUP7
  1

  0
LINE
  5
90
330
8E
100
AcDbEntity
  8
Default
  6
CENTER2
 62
     7
100
AcDbLine
 10
435.5220315606
 20
342.35
 30
0.0
 11
395.5220324547
 21
342.35
 31
0.0
  0
LINE
  5
91
330
8E
100
AcDbEntity
  8
Default
  6
CENTER2
 62
     7
100
AcDbLine
 10
415.5220320077
 20
362.349999553
 30
0.0
 11
415.5220320077
 21
322.350000447
 31
0.0
  0
ENDBLK
  5
93
330
8E
100
AcDbEntity
  8
0
100
AcDbBlockEnd
  0
BLOCK
  5
98
330
94
100
AcDbEntity
  8
0
100
AcDbBlockBegin
  2
SEANNOT_GROUP8
 70
     0
 10
0.0
 20
0.0
 30
0.0
  3
SEANNOT_GROUP8
  1

  0
LINE
  5
96
330
94
100
AcDbEntity
  8
Default
  6
CENTER2
 62
     7
100
AcDbLine
 10
590.5220315606
 20
342.35
 30
0.0
 11
550.5220324547
 21
342.35
 31
0.0
  0
LINE
  5
97
330
94
100
AcDbEntity
  8
Default
  6
CENTER2
 62
     7
100
AcDbLine
 10
570.5220320077
 20
362.349999553
 30
0.0
 11
570.5220320077
 21
322.350000447
 31
0.0
  0
ENDBLK
  5
99
330
94
100
AcDbEntity
  8
0
100
AcDbBlockEnd
  0
BLOCK
  5
174
330
9A
100
AcDbEntity
  8
0
100
AcDbBlockBegin
  2
SE
 70
     0
 10
0.0
 20
0.0
 30
0.0
  3
SE
  1

  0
LINE
  5
9D
330
9A
100
AcDbEntity
  8
$DDT_AUDIT_GENERATED_(9C)
  6
Continuous
 62
     7
100
AcDbLine
 10
39.0220320077
 20
535.3383810314
 30
0.0
 11
102.0220320077
 21
535.3383810314
 31
0.0
  0
LINE
  5
9E
330
9A
100
AcDbEntity
  8
$DDT_AUDIT_GENERATED_(9C)
  6
Continuous
 62
     7
100
AcDbLine
 10
103.0220320077
 20
535.3383810314
 30
0.0
 11
102.0220320077
 21
535.3383810314
 31
0.0
  0
LINE
  5
9F
330
9A
100
AcDbEntity
  8
$DDT_AUDIT_GENERATED_(9C)
  6
Continuous
 62
     7
100
AcDbLine
 10
39.0220320077
 20
535.3383810314
 30
0.0
 11
38.0220320077
 21
535.3383810314
 31
0.0
  0
LINE
  5
A0
330
9A
100
AcDbEntity
  8
$DDT_AUDIT_GENERATED_(9C)
  6
Continuous
 62
     7
100
AcDbLine
 10
38.0220320077
 20
535.3383810314
 30
0.0
 11
38.0220320077
 21
544.0383810314
 31
0.0
  0
LINE
  5
A1
330
9A
100
AcDbEntity
  8
$DDT_AUDIT_GENERATED_(9C)
  6
Continuous
 62
     7
100
AcDbLine
 10
39.0220320077
 20
545.0383810314
 30
0.0
 11
102.0220320077
 21
545.0383810314
 31
0.0
  0
LINE
  5
A2
330
9A
100
AcDbEntity
  8
$DDT_AUDIT_GENERATED_(9C)
  6
Continuous
 62
     7
100
AcDbLine
 10
103.0220320077
 20
544.0383810314
 30
0.0
 11
103.0220320077
 21
535.3383810314
 31
0.0
  0
ARC
  5
A3
330
9A
100
AcDbEntity
  8
$DDT_AUDIT_GENERATED_(9C)
  6
Continuous
 62
     7
100
AcDbCircle
 10
102.0220320077
 20
544.0383810314
 30
0.0
 40
1.000000000000001
100
AcDbArc
 50
0.0
 51
90.0
  0
ARC
  5
A4
330
9A
100
AcDbEntity
  8
$DDT_AUDIT_GENERATED_(9C)
  6
Continuous
 62
     7
100
AcDbCircle
 10
39.0220320077
 20
544.0383810314
 30
0.0
 40
1.000000000000001
100
AcDbArc
 50
90.0
 51
180.0
  0
LINE
  5
A6
330
9A
100
AcDbEntity
  8
$DDT_AUDIT_GENERATED_(A5)
  6
Continuous
 62
     7
100
AcDbLine
 10
596.5220358224
 20
591.3384690231
 30
0.0
 11
596.5220358224
 21
545.0383810314
 31
0.0
  0
LINE
  5
A7
330
9A
100
AcDbEntity
  8
$DDT_AUDIT_GENERATED_(A5)
  6
Continuous
 62
     7
100
AcDbLine
 10
545.022028193
 20
591.8384690231
 30
0.0
 11
596.0220358224
 21
591.8384690231
 31
0.0
  0
ARC
  5
A8
330
9A
100
AcDbEntity
  8
$DDT_AUDIT_GENERATED_(A5)
  6
Continuous
 62
     7
100
AcDbCircle
 10
545.022028193
 20
591.3384690231
 30
0.0
 40
0.5000000000000004
100
AcDbArc
 50
90.0
 51
180.0
  0
ARC
  5
A9
330
9A
100
AcDbEntity
  8
$DDT_AUDIT_GENERATED_(A5)
  6
Continuous
 62
     7
100
AcDbCircle
 10
596.0220358224
 20
591.3384690231
 30
0.0
 40
0.5000000000000004
100
AcDbArc
 50
0.0
 51
90.0
  0
LINE
  5
AA
330
9A
100
AcDbEntity
  8
$DDT_AUDIT_GENERATED_(A5)
  6
Continuous
 62
     7
100
AcDbLine
 10
544.522028193
 20
545.0383810314
 30
0.0
 11
544.522028193
 21
591.3384690231
 31
0.0
  0
LINE
  5
AC
330
9A
100
AcDbEntity
  8
$DDT_AUDIT_GENERATED_(AB)
  6
Continuous
 62
     7
100
AcDbLine
 10
236.2720320077
 20
619.3383810314
 30
0.0
 11
214.7720320077
 21
619.3383810314
 31
0.0
  0
LINE
  5
AD
330
9A
100
AcDbEntity
  8
$DDT_AUDIT_GENERATED_(AB)
  6
Continuous
 62
     7
100
AcDbLine
 10
236.5220320077
 20
622.3383810314
 30
0.0
 11
237.3220320077
 21
622.3383810314
 31
0.0
  0
LINE
  5
AE
330
9A
100
AcDbEntity
  8
$DDT_AUDIT_GENERATED_(AB)
  6
Continuous
 62
     7
100
AcDbLine
 10
236.5220320077
 20
619.6559236794
 30
0.0
 11
236.5220320077
 21
620.5219490832
 31
0.0
  0
LINE
  5
AF
330
9A
100
AcDbEntity
  8
$DDT_AUDIT_GENERATED_(AB)
  6
Continuous
 62
     7
100
AcDbLine
 10
236.5220320077
 20
620.5219490832
 30
0.0
 11
236.5220320077
 21
622.3383810314
 31
0.0
  0
LINE
  5
B0
330
9A
100
AcDbEntity
  8
$DDT_AUDIT_GENERATED_(AB)
  6
Continuous
 62
     7
100
AcDbLine
 10
214.5220320077
 20
620.5219490832
 30
0.0
 11
236.5220320077
 21
620.5219490832
 31
0.0
  0
LINE
  5
B1
330
9A
100
AcDbEntity
  8
$DDT_AUDIT_GENERATED_(AB)
  6
Continuous
 62
     7
100
AcDbLine
 10
214.5220320077
 20
622.3383810314
 30
0.0
 11
213.7220320077
 21
622.3383810314
 31
0.0
  0
LINE
  5
B2
330
9A
100
AcDbEntity
  8
$DDT_AUDIT_GENERATED_(AB)
  6
Continuous
 62
     7
100
AcDbLine
 10
214.5220320077
 20
622.3383810314
 30
0.0
 11
214.5220320077
 21
620.5219490832
 31
0.0
  0
LINE
  5
B3
330
9A
100
AcDbEntity
  8
$DDT_AUDIT_GENERATED_(AB)
  6
Continuous
 62
     7
100
AcDbLine
 10
214.5220320077
 20
620.5219490832
 30
0.0
 11
214.5220320077
 21
619.6559236794
 31
0.0
  0
LINE
  5
B4
330
9A
100
AcDbEntity
  8
$DDT_AUDIT_GENERATED_(AB)
  6
Continuous
 62
     7
100
AcDbLine
 10
214.5220320077
 20
619.4827185987
 30
0.0
 11
214.7720320077
 21
619.3383810314
 31
0.0
  0
LINE
  5
B5
330
9A
100
AcDbEntity
  8
$DDT_AUDIT_GENERATED_(AB)
  6
Continuous
 62
     7
100
AcDbLine
 10
236.2720320077
 20
619.3383810314
 30
0.0
 11
236.5220320077
 21
619.4827185987
 31
0.0
  0
LINE
  5
B6
330
9A
100
AcDbEntity
  8
$DDT_AUDIT_GENERATED_(AB)
  6
Continuous
 62
     7
100
AcDbLine
 10
213.7220320077
 20
626.0383810314
 30
0.0
 11
213.7220320077
 21
622.3383810314
 31
0.0
  0
LINE
  5
B7
330
9A
100
AcDbEntity
  8
$DDT_AUDIT_GENERATED_(AB)
  6
Continuous
 62
     7
100
AcDbLine
 10
237.3220320077
 20
622.3383810314
 30
0.0
 11
237.3220320077
 21
626.0383810314
 31
0.0
  0
ARC
  5
B9
330
9A
100
AcDbEntity
  8
$DDT_AUDIT_GENERATED_(B8)
  6
Continuous
 62
     7
100
AcDbCircle
 10
570.5220320077
 20
583.7384690231
 30
0.0
 40
24.9999999999999
100
AcDbArc
 50
156.4402402459
 51
161.0949986971
  0
ARC
  5
BA
330
9A
100
AcDbEntity
  8
$DDT_AUDIT_GENERATED_(B8)
  6
Continuous
 62
     7
100
AcDbCircle
 10
570.5220320077
 20
583.7384690231
 30
0.0
 40
25.00000000000001
100
AcDbArc
 50
18.9050013029
 51
23.5597597541
  0
LINE
  5
BC
330
9A
100
AcDbEntity
  8
$DDT_AUDIT_GENERATED_(BB)
  6
Continuous
 62
     7
100
AcDbLine
 10
49.8720320077
 20
549.9383810314
 30
0.0
 11
49.8720320077
 21
568.9383810314
 31
0.0
  0
LINE
  5
BD
330
9A
100
AcDbEntity
  8
$DDT_AUDIT_GENERATED_(BB)
  6
Continuous
 62
     7
100
AcDbLine
 10
90.6720320077
 20
549.4383810314
 30
0.0
 11
50.3720320077
 21
549.4383810314
 31
0.0
  0
LINE
  5
BE
330
9A
100
AcDbEntity
  8
$DDT_AUDIT_GENERATED_(BB)
  6
Continuous
 62
     7
100
AcDbLine
 10
50.3720320077
 20
569.4383810314
 30
0.0
 11
90.6720320077
 21
569.4383810314
 31
0.0
  0
LINE
  5
BF
330
9A
100
AcDbEntity
  8
$DDT_AUDIT_GENERATED_(BB)
  6
Continuous
 62
     7
100
AcDbLine
 10
91.1720320077
 20
568.9383810314
 30
0.0
 11
91.1720320077
 21
549.9383810314
 31
0.0
  0
ARC
  5
C0
330
9A
100
AcDbEntity
  8
$DDT_AUDIT_GENERATED_(BB)
  6
Continuous
 62
     7
100
AcDbCircle
 10
90.6720320077
 20
568.9383810314
 30
0.0
 40
0.5000000000000004
100
AcDbArc
 50
0.0
 51
90.0
  0
ARC
  5
C1
330
9A
100
AcDbEntity
  8
$DDT_AUDIT_GENERATED_(BB)
  6
Continuous
 62
     7
100
AcDbCircle
 10
90.6720320077
 20
549.9383810314
 30
0.0
 40
0.5000000000000004
100
AcDbArc
 50
270.0
 51
0.0
  0
ARC
  5
C2
330
9A
100
AcDbEntity
  8
$DDT_AUDIT_GENERATED_(BB)
  6
Continuous
 62
     7
100
AcDbCircle
 10
50.3720320077
 20
568.9383810314
 30
0.0
 40
0.5000000000000004
100
AcDbArc
 50
90.0
 51
180.0
  0
ARC
  5
C3
330
9A
100
AcDbEntity
  8
$DDT_AUDIT_GENERATED_(BB)
  6
Continuous
 62
     7
100
AcDbCircle
 10
50.3720320077
 20
549.9383810314
 30
0.0
 40
0.5000000000000004
100
AcDbArc
 50
180.0
 51
270.0
  0
LINE
  5
C5
330
9A
100
AcDbEntity
  8
$DDT_AUDIT_GENERATED_(C4)
  6
Continuous
 62
     7
100
AcDbLine
 10
194.0220320077
 20
535.0383810314
 30
0.0
 11
257.0220320077
 21
535.0383810314
 31
0.0
  0
LINE
  5
C6
330
9A
100
AcDbEntity
  8
$DDT_AUDIT_GENERATED_(C4)
  6
Continuous
 62
     7
100
AcDbLine
 10
194.0220320077
 20
535.0383810314
 30
0.0
 11
193.0220320077
 21
535.0383810314
 31
0.0
  0
LINE
  5
C7
330
9A
100
AcDbEntity
  8
$DDT_AUDIT_GENERATED_(C4)
  6
Continuous
 62
     7
100
AcDbLine
 10
258.0220320077
 20
535.0383810314
 30
0.0
 11
257.0220320077
 21
535.0383810314
 31
0.0
  0
LINE
  5
C8
330
9A
100
AcDbEntity
  8
$DDT_AUDIT_GENERATED_(C4)
  6
Continuous
 62
     7
100
AcDbLine
 10
258.0220320077
 20
544.0383810314
 30
0.0
 11
258.0220320077
 21
535.0383810314
 31
0.0
  0
LINE
  5
C9
330
9A
100
AcDbEntity
  8
$DDT_AUDIT_GENERATED_(C4)
  6
Continuous
 62
     7
100
AcDbLine
 10
193.0220320077
 20
535.0383810314
 30
0.0
 11
193.0220320077
 21
544.0383810314
 31
0.0
  0
LINE
  5
CA
330
9A
100
AcDbEntity
  8
$DDT_AUDIT_GENERATED_(C4)
  6
Continuous
 62
     7
100
AcDbLine
 10
194.0220320077
 20
545.0383810314
 30
0.0
 11
257.0220320077
 21
545.0383810314
 31
0.0
  0
ARC
  5
CB
330
9A
100
AcDbEntity
  8
$DDT_AUDIT_GENERATED_(C4)
  6
Continuous
 62
     7
100
AcDbCircle
 10
194.0220320077
 20
544.0383810314
 30
0.0
 40
1.000000000000001
100
AcDbArc
 50
90.0
 51
180.0
  0
ARC
  5
CC
330
9A
100
AcDbEntity
  8
$DDT_AUDIT_GENERATED_(C4)
  6
Continuous
 62
     7
100
AcDbCircle
 10
257.0220320077
 20
544.0383810314
 30
0.0
 40
0.9999999999999991
100
AcDbArc
 50
0.0
 51
90.0
  0
LINE
  5
CE
330
9A
100
AcDbEntity
  8
$DDT_AUDIT_GENERATED_(CD)
  6
Continuous
 62
     7
100
AcDbLine
 10
403.7220320077
 20
576.0883810314
 30
0.0
 11
427.3220320077
 21
576.0883810314
 31
0.0
  0
LINE
  5
CF
330
9A
100
AcDbEntity
  8
$DDT_AUDIT_GENERATED_(CD)
  6
Continuous
 62
     7
100
AcDbLine
 10
404.0220320077
 20
576.3883810314
 30
0.0
 11
427.0220320077
 21
576.3883810314
 31
0.0
  0
LINE
  5
D0
330
9A
100
AcDbEntity
  8
$DDT_AUDIT_GENERATED_(CD)
  6
Continuous
 62
     7
100
AcDbLine
 10
404.5220320077
 20
579.5883810314
 30
0.0
 11
426.5220320077
 21
579.5883810314
 31
0.0
  0
LINE
  5
D1
330
9A
100
AcDbEntity
  8
$DDT_AUDIT_GENERATED_(CD)
  6
Continuous
 62
     7
100
AcDbLine
 10
403.7220320077
 20
576.0883810314
 30
0.0
 11
403.774439787
 21
575.0883810314
 31
0.0
  0
LINE
  5
D2
330
9A
100
AcDbEntity
  8
$DDT_AUDIT_GENERATED_(CD)
  6
Continuous
 62
     7
100
AcDbLine
 10
427.2696242284
 20
575.0883810314
 30
0.0
 11
427.3220320077
 21
576.0883810314
 31
0.0
  0
LINE
  5
D3
330
9A
100
AcDbEntity
  8
$DDT_AUDIT_GENERATED_(CD)
  6
Continuous
 62
     7
100
AcDbLine
 10
427.3220320077
 20
576.0883810314
 30
0.0
 11
427.0220320077
 21
576.3883810314
 31
0.0
  0
LINE
  5
D4
330
9A
100
AcDbEntity
  8
$DDT_AUDIT_GENERATED_(CD)
  6
Continuous
 62
     7
100
AcDbLine
 10
404.0220320077
 20
576.3883810314
 30
0.0
 11
403.7220320077
 21
576.0883810314
 31
0.0
  0
LINE
  5
D5
330
9A
100
AcDbEntity
  8
$DDT_AUDIT_GENERATED_(CD)
  6
Continuous
 62
     7
100
AcDbLine
 10
404.0220320077
 20
579.0883810314
 30
0.0
 11
404.0220320077
 21
576.3883810314
 31
0.0
  0
LINE
  5
D6
330
9A
100
AcDbEntity
  8
$DDT_AUDIT_GENERATED_(CD)
  6
Continuous
 62
     7
100
AcDbLine
 10
427.0220320077
 20
576.3883810314
 30
0.0
 11
427.0220320077
 21
579.0883810314
 31
0.0
  0
ARC
  5
D7
330
9A
100
AcDbEntity
  8
$DDT_AUDIT_GENERATED_(CD)
  6
Continuous
 62
     7
100
AcDbCircle
 10
404.5220320077
 20
579.0883810314
 30
0.0
 40
0.5000000000000004
100
AcDbArc
 50
90.0
 51
180.0
  0
ARC
  5
D8
330
9A
100
AcDbEntity
  8
$DDT_AUDIT_GENERATED_(CD)
  6
Continuous
 62
     7
100
AcDbCircle
 10
426.5220320077
 20
579.0883810314
 30
0.0
 40
0.5000000000000004
100
AcDbArc
 50
0.0
 51
90.0
  0
LINE
  5
DA
330
9A
100
AcDbEntity
  8
$DDT_AUDIT_GENERATED_(D9)
  6
Continuous
 62
     7
100
AcDbLine
 10
405.2720320077
 20
580.5883810314
 30
0.0
 11
405.2720320077
 21
579.5883810314
 31
0.0
  0
LINE
  5
DB
330
9A
100
AcDbEntity
  8
$DDT_AUDIT_GENERATED_(D9)
  6
Continuous
 62
     7
100
AcDbLine
 10
425.7720320077
 20
580.5883810314
 30
0.0
 11
425.7720320077
 21
579.5883810314
 31
0.0
  0
SPLINE
  5
DC
330
9A
100
AcDbEntity
  8
$DDT_AUDIT_GENERATED_(D9)
  6
Continuous
 62
     7
100
AcDbSpline
210
0.0
220
0.0
230
1.0
 70
    12
 71
     5
 72
    12
 73
     6
 74
     0
 42
0.0000000251373102
 43
0.0000000001
 40
0.0
 40
0.0
 40
0.0
 40
0.0
 40
0.0
 40
0.0
 40
1.0
 40
1.0
 40
1.0
 40
1.0
 40
1.0
 40
1.0
 10
403.5220321019253
 20
786.0883810313804
 30
0.0
 41
1.0
 10
403.5220321027942
 20
786.1712237438534
 30
0.0
 41
1.0
 10
403.5388214380173
 20
786.2501449693235
 30
0.0
 41
1.0
 10
403.5702554905803
 20
786.3230005163815
 30
0.0
 41
1.0
 10
403.6141893885813
 20
786.3876451000955
 30
0.0
 41
1.0
 10
403.6684787104633
 20
786.4419344219764
 30
0.0
 41
1.0
  0
SPLINE
  5
DD
330
9A
100
AcDbEntity
  8
$DDT_AUDIT_GENERATED_(D9)
  6
Continuous
 62
     7
100
AcDbSpline
210
0.0
220
0.0
230
1.0
 70
    12
 71
     5
 72
    12
 73
     6
 74
     0
 42
0.0000000251373102
 43
0.0000000001
 40
0.0
 40
0.0
 40
0.0
 40
0.0
 40
0.0
 40
0.0
 40
1.0
 40
1.0
 40
1.0
 40
1.0
 40
1.0
 40
1.0
 10
403.6684787104633
 20
786.4419344219764
 30
0.0
 41
1.0
 10
403.7227680323443
 20
786.4962237438575
 30
0.0
 41
1.0
 10
403.7874126160533
 20
786.5401576443816
 30
0.0
 41
1.0
 10
403.8602681631243
 20
786.5715916899885
 30
0.0
 41
1.0
 10
403.9391893885813
 20
786.5883810313834
 30
0.0
 41
1.0
 10
404.0220321010563
 20
786.5883810313834
 30
0.0
 41
1.0
  0
SPLINE
  5
DE
330
9A
100
AcDbEntity
  8
$DDT_AUDIT_GENERATED_(D9)
  6
Continuous
 62
     7
100
AcDbSpline
210
0.0
220
0.0
230
1.0
 70
    12
 71
     5
 72
    12
 73
     6
 74
     0
 42
0.0000000251373102
 43
0.0000000001
 40
0.0
 40
0.0
 40
0.0
 40
0.0
 40
0.0
 40
0.0
 40
1.0
 40
1.0
 40
1.0
 40
1.0
 40
1.0
 40
1.0
 10
403.6684787104633
 20
580.7348276407895
 30
0.0
 41
1.0
 10
403.6141893885823
 20
580.7891169626704
 30
0.0
 41
1.0
 10
403.5702554880602
 20
580.8537615463795
 30
0.0
 41
1.0
 10
403.5388214424493
 20
580.9266170934495
 30
0.0
 41
1.0
 10
403.5220321010563
 20
581.0055383189075
 30
0.0
 41
1.0
 10
403.5220322796425
 20
581.0883810313816
 30
0.0
 41
1.0
  0
SPLINE
  5
DF
330
9A
100
AcDbEntity
  8
$DDT_AUDIT_GENERATED_(D9)
  6
Continuous
 62
     7
100
AcDbSpline
210
0.0
220
0.0
230
1.0
 70
    12
 71
     5
 72
    12
 73
     6
 74
     0
 42
0.0000000251373102
 43
0.0000000001
 40
0.0
 40
0.0
 40
0.0
 40
0.0
 40
0.0
 40
0.0
 40
1.0
 40
1.0
 40
1.0
 40
1.0
 40
1.0
 40
1.0
 10
427.3755854916493
 20
580.7348276407895
 30
0.0
 41
1.0
 10
427.3212961697683
 20
580.6805383189085
 30
0.0
 41
1.0
 10
427.2566515860593
 20
580.6366044183865
 30
0.0
 41
1.0
 10
427.1837960389882
 20
580.6051703727765
 30
0.0
 41
1.0
 10
427.1048748135313
 20
580.5883810313834
 30
0.0
 41
1.0
 10
427.0220321010563
 20
580.5883810313834
 30
0.0
 41
1.0
  0
SPLINE
  5
E0
330
9A
100
AcDbEntity
  8
$DDT_AUDIT_GENERATED_(D9)
  6
Continuous
 62
     7
100
AcDbSpline
210
0.0
220
0.0
230
1.0
 70
    12
 71
     5
 72
    12
 73
     6
 74
     0
 42
0.0000000251373102
 43
0.0000000001
 40
0.0
 40
0.0
 40
0.0
 40
0.0
 40
0.0
 40
0.0
 40
1.0
 40
1.0
 40
1.0
 40
1.0
 40
1.0
 40
1.0
 10
427.5220321006218
 20
786.0883810313835
 30
0.0
 41
1.0
 10
427.5220321010563
 20
786.1712237438574
 30
0.0
 41
1.0
 10
427.5052427596633
 20
786.2501449693144
 30
0.0
 41
1.0
 10
427.4738087140523
 20
786.3230005163875
 30
0.0
 41
1.0
 10
427.4298748135313
 20
786.3876451000955
 30
0.0
 41
1.0
 10
427.3755854916493
 20
786.4419344219764
 30
0.0
 41
1.0
  0
SPLINE
  5
E1
330
9A
100
AcDbEntity
  8
$DDT_AUDIT_GENERATED_(D9)
  6
Continuous
 62
     7
100
AcDbSpline
210
0.0
220
0.0
230
1.0
 70
    12
 71
     5
 72
    12
 73
     6
 74
     0
 42
0.0000000251373102
 43
0.0000000001
 40
0.0
 40
0.0
 40
0.0
 40
0.0
 40
0.0
 40
0.0
 40
1.0
 40
1.0
 40
1.0
 40
1.0
 40
1.0
 40
1.0
 10
427.3755854916493
 20
786.4419344219764
 30
0.0
 41
1.0
 10
427.3212961697683
 20
786.4962237438584
 30
0.0
 41
1.0
 10
427.2566515860593
 20
786.5401576443816
 30
0.0
 41
1.0
 10
427.1837960389882
 20
786.5715916899885
 30
0.0
 41
1.0
 10
427.1048748135313
 20
786.5883810313834
 30
0.0
 41
1.0
 10
427.0220321010563
 20
786.5883810313834
 30
0.0
 41
1.0
  0
SPLINE
  5
E2
330
9A
100
AcDbEntity
  8
$DDT_AUDIT_GENERATED_(D9)
  6
Continuous
 62
     7
100
AcDbSpline
210
0.0
220
0.0
230
1.0
 70
    12
 71
     5
 72
    12
 73
     6
 74
     0
 42
0.0000000251373102
 43
0.0000000001
 40
0.0
 40
0.0
 40
0.0
 40
0.0
 40
0.0
 40
0.0
 40
1.0
 40
1.0
 40
1.0
 40
1.0
 40
1.0
 40
1.0
 10
403.6684787104633
 20
580.7348276407895
 30
0.0
 41
1.0
 10
403.7227680323453
 20
580.6805383189085
 30
0.0
 41
1.0
 10
403.7874126160533
 20
580.6366044183865
 30
0.0
 41
1.0
 10
403.8602681631243
 20
580.6051703727765
 30
0.0
 41
1.0
 10
403.9391893885823
 20
580.5883810313834
 30
0.0
 41
1.0
 10
404.0220321010563
 20
580.5883810313834
 30
0.0
 41
1.0
  0
SPLINE
  5
E3
330
9A
100
AcDbEntity
  8
$DDT_AUDIT_GENERATED_(D9)
  6
Continuous
 62
     7
100
AcDbSpline
210
0.0
220
0.0
230
1.0
 70
    12
 71
     5
 72
    12
 73
     6
 74
     0
 42
0.0000000251373088
 43
0.0000000001
 40
0.0
 40
0.0
 40
0.0
 40
0.0
 40
0.0
 40
0.0
 40
1.0
 40
1.0
 40
1.0
 40
1.0
 40
1.0
 40
1.0
 10
427.3755854916493
 20
580.7348276407895
 30
0.0
 41
1.0
 10
427.4298748135303
 20
580.7891169626704
 30
0.0
 41
1.0
 10
427.4738076782583
 20
580.8537615463795
 30
0.0
 41
1.0
 10
427.5052445812353
 20
580.9266170934465
 30
0.0
 41
1.0
 10
427.5220313867123
 20
581.0055383189065
 30
0.0
 41
1.0
 10
427.5220317438843
 20
581.0883810313807
 30
0.0
 41
1.0
  0
LINE
  5
E4
330
9A
100
AcDbEntity
  8
$DDT_AUDIT_GENERATED_(D9)
  6
Continuous
 62
     7
100
AcDbLine
 10
427.0220321011
 20
580.5883810314
 30
0.0
 11
404.0220321011
 21
580.5883810314
 31
0.0
  0
LINE
  5
E5
330
9A
100
AcDbEntity
  8
$DDT_AUDIT_GENERATED_(D9)
  6
Continuous
 62
     7
100
AcDbLine
 10
404.0220321011
 20
786.5883810314
 30
0.0
 11
427.0220321011
 21
786.5883810314
 31
0.0
  0
LINE
  5
E6
330
9A
100
AcDbEntity
  8
$DDT_AUDIT_GENERATED_(D9)
  6
Continuous
 62
     7
100
AcDbLine
 10
427.5220321011
 20
786.0883810314
 30
0.0
 11
427.5220321011
 21
581.0883810314
 31
0.0
  0
LINE
  5
E7
330
9A
100
AcDbEntity
  8
$DDT_AUDIT_GENERATED_(D9)
  6
Continuous
 62
     7
100
AcDbLine
 10
403.5220321011
 20
581.0883810314
 30
0.0
 11
403.5220321011
 21
786.0883810314
 31
0.0
  0
SPLINE
  5
E8
330
9A
100
AcDbEntity
  8
$DDT_AUDIT_GENERATED_(D9)
  6
Continuous
 62
     7
100
AcDbSpline
210
0.0
220
0.0
230
1.0
 70
    12
 71
     5
 72
    19
 73
    13
 74
     0
 42
0.0000000022979788
 43
0.0000000001
 40
0.0
 40
0.0
 40
0.0
 40
0.0
 40
0.0
 40
0.0
 40
0.1227272727272599
 40
0.2499999999994104
 40
0.3772727272729524
 40
0.4999999999988208
 40
0.6272727272723627
 40
0.7500000000005896
 40
0.8772727272717731
 40
1.0
 40
1.0
 40
1.0
 40
1.0
 40
1.0
 40
1.0
 10
413.2720241010562
 20
745.6883333921485
 30
0.0
 41
1.0
 10
413.1674787559303
 20
745.6883333921485
 30
0.0
 41
1.0
 10
412.9564122979504
 20
745.6676885219165
 30
0.0
 41
1.0
 10
412.6435813492762
 20
745.5742670874525
 30
0.0
 41
1.0
 10
412.2799284531092
 20
745.3306829026984
 30
0.0
 41
1.0
 10
411.9741769838863
 20
744.8737224968995
 30
0.0
 41
1.0
 10
411.8691227532153
 20
744.3343343639484
 30
0.0
 41
1.0
 10
411.9780831384433
 20
743.7959914732085
 30
0.0
 41
1.0
 10
412.2828442617213
 20
743.3434760924374
 30
0.0
 41
1.0
 10
412.647758857579
 20
743.1015191616634
 30
0.0
 41
1.0
 10
412.9558928917493
 20
743.0089743531225
 30
0.0
 41
1.0
 10
413.1679284745783
 20
742.9885366939184
 30
0.0
 41
1.0
 10
413.2720202483796
 20
742.9885371796114
 30
0.0
 41
1.0
  0
SPLINE
  5
E9
330
9A
100
AcDbEntity
  8
$DDT_AUDIT_GENERATED_(D9)
  6
Continuous
 62
     7
100
AcDbSpline
210
0.0
220
0.0
230
1.0
 70
    12
 71
     5
 72
    19
 73
    13
 74
     0
 42
0.0000000022985083
 43
0.0000000001
 40
0.0
 40
0.0
 40
0.0
 40
0.0
 40
0.0
 40
0.0
 40
0.1272727272735419
 40
0.2499999999994106
 40
0.3727272727276371
 40
0.4999999999988207
 40
0.6227272727270475
 40
0.7500000000005895
 40
0.8727272727264579
 40
1.0
 40
1.0
 40
1.0
 40
1.0
 40
1.0
 40
1.0
 10
413.2720202483796
 20
742.9885371796114
 30
0.0
 41
1.0
 10
413.3799672730623
 20
742.9885376832946
 30
0.0
 41
1.0
 10
413.5920094062952
 20
743.0097343082355
 30
0.0
 41
1.0
 10
413.8998771098284
 20
743.1034082540224
 30
0.0
 41
1.0
 10
414.2637463308193
 20
743.3466305369755
 30
0.0
 41
1.0
 10
414.5667779312853
 20
743.7998903479165
 30
0.0
 41
1.0
 10
414.6749069503823
 20
744.3343397797695
 30
0.0
 41
1.0
 10
414.5706504625563
 20
744.8698043345354
 30
0.0
 41
1.0
 10
414.2666666476413
 20
745.3275332846935
 30
0.0
 41
1.0
 10
413.9040283562243
 20
745.5723483356714
 30
0.0
 41
1.0
 10
413.5915103170242
 20
745.6669372545065
 30
0.0
 41
1.0
 10
413.3804094627113
 20
745.6883333921485
 30
0.0
 41
1.0
 10
413.2720241010562
 20
745.6883333921485
 30
0.0
 41
1.0
  0
SPLINE
  5
EA
330
9A
100
AcDbEntity
  8
$DDT_AUDIT_GENERATED_(D9)
  6
Continuous
 62
     7
100
AcDbSpline
210
0.0
220
0.0
230
1.0
 70
    12
 71
     5
 72
    19
 73
    13
 74
     0
 42
0.0000000022982466
 43
0.0000000001
 40
0.0
 40
0.0
 40
0.0
 40
0.0
 40
0.0
 40
0.0
 40
0.1227272727271484
 40
0.2499999999994104
 40
0.3727272727278088
 40
0.4999999999988208
 40
0.6227272727272191
 40
0.749999999998231
 40
0.8727272727266294
 40
1.0
 40
1.0
 40
1.0
 40
1.0
 40
1.0
 40
1.0
 10
417.7720256010563
 20
753.1883333921485
 30
0.0
 41
1.0
 10
417.6674712825323
 20
753.1883333921485
 30
0.0
 41
1.0
 10
417.4564304989643
 20
753.1676773788054
 30
0.0
 41
1.0
 10
417.1473306424973
 20
753.0754216270554
 30
0.0
 41
1.0
 10
416.7831072672603
 20
752.8332026491504
 30
0.0
 41
1.0
 10
416.4779739136353
 20
752.3808841163975
 30
0.0
 41
1.0
 10
416.3691399950293
 20
751.8423912072545
 30
0.0
 41
1.0
 10
416.4734949102693
 20
751.3070579219506
 30
0.0
 41
1.0
 10
416.7771498870703
 20
750.8491722718584
 30
0.0
 41
1.0
 10
417.1404187725598
 20
750.6045616374595
 30
0.0
 41
1.0
 10
417.4520401611309
 20
750.5097383251544
 30
0.0
 41
1.0
 10
417.6640822344972
 20
750.4885383460424
 30
0.0
 41
1.0
 10
417.7720292963164
 20
750.4885369662825
 30
0.0
 41
1.0
  0
SPLINE
  5
EB
330
9A
100
AcDbEntity
  8
$DDT_AUDIT_GENERATED_(D9)
  6
Continuous
 62
     7
100
AcDbSpline
210
0.0
220
0.0
230
1.0
 70
    12
 71
     5
 72
    19
 73
    13
 74
     0
 42
0.0000000022982483
 43
0.0000000001
 40
0.0
 40
0.0
 40
0.0
 40
0.0
 40
0.0
 40
0.0
 40
0.1227272727263293
 40
0.2500000000000001
 40
0.372727272726329
 40
0.4999999999999999
 40
0.6227272727263291
 40
0.7499999999999999
 40
0.8727272727263291
 40
1.0
 40
1.0
 40
1.0
 40
1.0
 40
1.0
 40
1.0
 10
417.7720292963164
 20
750.4885369662825
 30
0.0
 41
1.0
 10
417.876121105926
 20
750.4885356358004
 30
0.0
 41
1.0
 10
418.0881568897742
 20
750.5089731491115
 30
0.0
 41
1.0
 10
418.3962913124178
 20
750.6015252880395
 30
0.0
 41
1.0
 10
418.7612030472893
 20
750.8434735501994
 30
0.0
 41
1.0
 10
419.0659691201903
 20
751.2959922371895
 30
0.0
 41
1.0
 10
419.1749216887893
 20
751.8343382415544
 30
0.0
 41
1.0
 10
419.0706413940492
 20
752.3698063038455
 30
0.0
 41
1.0
 10
418.7666763730633
 20
752.8275319500605
 30
0.0
 41
1.0
 10
418.4040237470793
 20
753.0723493795695
 30
0.0
 41
1.0
 10
418.0915143960103
 20
753.1669368353224
 30
0.0
 41
1.0
 10
417.8804106145543
 20
753.1883333921485
 30
0.0
 41
1.0
 10
417.7720256010563
 20
753.1883333921485
 30
0.0
 41
1.0
  0
SPLINE
  5
EC
330
9A
100
AcDbEntity
  8
$DDT_AUDIT_GENERATED_(D9)
  6
Continuous
 62
     7
100
AcDbSpline
210
0.0
220
0.0
230
1.0
 70
    12
 71
     5
 72
    19
 73
    13
 74
     0
 42
0.0000000022982466
 43
0.0000000001
 40
0.0
 40
0.0
 40
0.0
 40
0.0
 40
0.0
 40
0.0
 40
0.1227272727271484
 40
0.2499999999994104
 40
0.3727272727278088
 40
0.4999999999988208
 40
0.6227272727272191
 40
0.749999999998231
 40
0.8727272727266294
 40
1.0
 40
1.0
 40
1.0
 40
1.0
 40
1.0
 40
1.0
 10
417.7720256010563
 20
760.6883333921485
 30
0.0
 41
1.0
 10
417.6674712825323
 20
760.6883333921485
 30
0.0
 41
1.0
 10
417.4564304989643
 20
760.6676773788055
 30
0.0
 41
1.0
 10
417.1473306424973
 20
760.5754216270554
 30
0.0
 41
1.0
 10
416.7831072672603
 20
760.3332026491505
 30
0.0
 41
1.0
 10
416.4779739136353
 20
759.8808841163975
 30
0.0
 41
1.0
 10
416.3691399950293
 20
759.3423912072545
 30
0.0
 41
1.0
 10
416.4734949102693
 20
758.8070579219504
 30
0.0
 41
1.0
 10
416.7771498870703
 20
758.3491722718585
 30
0.0
 41
1.0
 10
417.1404187725598
 20
758.1045616374595
 30
0.0
 41
1.0
 10
417.4520401611309
 20
758.0097383251546
 30
0.0
 41
1.0
 10
417.6640822344972
 20
757.9885383460426
 30
0.0
 41
1.0
 10
417.7720292963164
 20
757.9885369662825
 30
0.0
 41
1.0
  0
SPLINE
  5
ED
330
9A
100
AcDbEntity
  8
$DDT_AUDIT_GENERATED_(D9)
  6
Continuous
 62
     7
100
AcDbSpline
210
0.0
220
0.0
230
1.0
 70
    12
 71
     5
 72
    19
 73
    13
 74
     0
 42
0.0000000022982483
 43
0.0000000001
 40
0.0
 40
0.0
 40
0.0
 40
0.0
 40
0.0
 40
0.0
 40
0.1227272727263293
 40
0.2500000000000001
 40
0.372727272726329
 40
0.4999999999999999
 40
0.6227272727263291
 40
0.7499999999999999
 40
0.8727272727263291
 40
1.0
 40
1.0
 40
1.0
 40
1.0
 40
1.0
 40
1.0
 10
417.7720292963164
 20
757.9885369662825
 30
0.0
 41
1.0
 10
417.876121105926
 20
757.9885356358005
 30
0.0
 41
1.0
 10
418.0881568897742
 20
758.0089731491115
 30
0.0
 41
1.0
 10
418.3962913124178
 20
758.1015252880394
 30
0.0
 41
1.0
 10
418.7612030472893
 20
758.3434735501995
 30
0.0
 41
1.0
 10
419.0659691201903
 20
758.7959922371895
 30
0.0
 41
1.0
 10
419.1749216887893
 20
759.3343382415545
 30
0.0
 41
1.0
 10
419.0706413940492
 20
759.8698063038455
 30
0.0
 41
1.0
 10
418.7666763730633
 20
760.3275319500605
 30
0.0
 41
1.0
 10
418.4040237470793
 20
760.5723493795696
 30
0.0
 41
1.0
 10
418.0915143960103
 20
760.6669368353225
 30
0.0
 41
1.0
 10
417.8804106145543
 20
760.6883333921485
 30
0.0
 41
1.0
 10
417.7720256010563
 20
760.6883333921485
 30
0.0
 41
1.0
  0
SPLINE
  5
EE
330
9A
100
AcDbEntity
  8
$DDT_AUDIT_GENERATED_(D9)
  6
Continuous
 62
     7
100
AcDbSpline
210
0.0
220
0.0
230
1.0
 70
    12
 71
     5
 72
    19
 73
    13
 74
     0
 42
0.0000000022979788
 43
0.0000000001
 40
0.0
 40
0.0
 40
0.0
 40
0.0
 40
0.0
 40
0.0
 40
0.1227272727272599
 40
0.2499999999994104
 40
0.3772727272729524
 40
0.4999999999988208
 40
0.6272727272723627
 40
0.7500000000005896
 40
0.8772727272717731
 40
1.0
 40
1.0
 40
1.0
 40
1.0
 40
1.0
 40
1.0
 10
413.2720241010562
 20
753.1883333921485
 30
0.0
 41
1.0
 10
413.1674787559303
 20
753.1883333921485
 30
0.0
 41
1.0
 10
412.9564122979504
 20
753.1676885219165
 30
0.0
 41
1.0
 10
412.6435813492762
 20
753.0742670874525
 30
0.0
 41
1.0
 10
412.2799284531092
 20
752.8306829026985
 30
0.0
 41
1.0
 10
411.9741769838863
 20
752.3737224968995
 30
0.0
 41
1.0
 10
411.8691227532153
 20
751.8343343639484
 30
0.0
 41
1.0
 10
411.9780831384433
 20
751.2959914732085
 30
0.0
 41
1.0
 10
412.2828442617213
 20
750.8434760924374
 30
0.0
 41
1.0
 10
412.647758857579
 20
750.6015191616635
 30
0.0
 41
1.0
 10
412.9558928917493
 20
750.5089743531224
 30
0.0
 41
1.0
 10
413.1679284745783
 20
750.4885366939185
 30
0.0
 41
1.0
 10
413.2720202483796
 20
750.4885371796115
 30
0.0
 41
1.0
  0
SPLINE
  5
EF
330
9A
100
AcDbEntity
  8
$DDT_AUDIT_GENERATED_(D9)
  6
Continuous
 62
     7
100
AcDbSpline
210
0.0
220
0.0
230
1.0
 70
    12
 71
     5
 72
    19
 73
    13
 74
     0
 42
0.0000000022985083
 43
0.0000000001
 40
0.0
 40
0.0
 40
0.0
 40
0.0
 40
0.0
 40
0.0
 40
0.1272727272735419
 40
0.2499999999994106
 40
0.3727272727276371
 40
0.4999999999988207
 40
0.6227272727270475
 40
0.7500000000005895
 40
0.8727272727264579
 40
1.0
 40
1.0
 40
1.0
 40
1.0
 40
1.0
 40
1.0
 10
413.2720202483796
 20
750.4885371796115
 30
0.0
 41
1.0
 10
413.3799672730623
 20
750.4885376832945
 30
0.0
 41
1.0
 10
413.5920094062952
 20
750.5097343082355
 30
0.0
 41
1.0
 10
413.8998771098284
 20
750.6034082540225
 30
0.0
 41
1.0
 10
414.2637463308193
 20
750.8466305369755
 30
0.0
 41
1.0
 10
414.5667779312853
 20
751.2998903479164
 30
0.0
 41
1.0
 10
414.6749069503823
 20
751.8343397797694
 30
0.0
 41
1.0
 10
414.5706504625563
 20
752.3698043345355
 30
0.0
 41
1.0
 10
414.2666666476413
 20
752.8275332846935
 30
0.0
 41
1.0
 10
413.9040283562243
 20
753.0723483356713
 30
0.0
 41
1.0
 10
413.5915103170242
 20
753.1669372545065
 30
0.0
 41
1.0
 10
413.3804094627113
 20
753.1883333921485
 30
0.0
 41
1.0
 10
413.2720241010562
 20
753.1883333921485
 30
0.0
 41
1.0
  0
SPLINE
  5
F0
330
9A
100
AcDbEntity
  8
$DDT_AUDIT_GENERATED_(D9)
  6
Continuous
 62
     7
100
AcDbSpline
210
0.0
220
0.0
230
1.0
 70
    12
 71
     5
 72
    19
 73
    13
 74
     0
 42
0.0000000022984387
 43
0.0000000001
 40
0.0
 40
0.0
 40
0.0
 40
0.0
 40
0.0
 40
0.0
 40
0.1272727272727165
 40
0.2499999999994104
 40
0.3727272727276372
 40
0.4999999999988208
 40
0.6272727272723627
 40
0.7500000000005896
 40
0.8727272727264579
 40
1.0
 40
1.0
 40
1.0
 40
1.0
 40
1.0
 40
1.0
 10
422.5220276010564
 20
753.1883343921485
 30
0.0
 41
1.0
 10
422.4136358684313
 20
753.1883343921485
 30
0.0
 41
1.0
 10
422.2025506034283
 20
753.1669307034315
 30
0.0
 41
1.0
 10
421.8937800217253
 20
753.0735091926914
 30
0.0
 41
1.0
 10
421.5305334415993
 20
752.8300778154145
 30
0.0
 41
1.0
 10
421.2249749601303
 20
752.3736501753825
 30
0.0
 41
1.0
 10
421.1187099331303
 20
751.8383671332915
 30
0.0
 41
1.0
 10
421.2250681339793
 20
751.3032164785905
 30
0.0
 41
1.0
 10
421.5303018867382
 20
750.8466202141965
 30
0.0
 41
1.0
 10
421.8941751893606
 20
750.6034140488415
 30
0.0
 41
1.0
 10
422.2020428887815
 20
750.5097355068795
 30
0.0
 41
1.0
 10
422.4140846137949
 20
750.4885378735964
 30
0.0
 41
1.0
 10
422.5220314384608
 20
750.4885373827734
 30
0.0
 41
1.0
  0
SPLINE
  5
F1
330
9A
100
AcDbEntity
  8
$DDT_AUDIT_GENERATED_(D9)
  6
Continuous
 62
     7
100
AcDbSpline
210
0.0
220
0.0
230
1.0
 70
    12
 71
     5
 72
    19
 73
    13
 74
     0
 42
0.0000000022979082
 43
0.0000000001
 40
0.0
 40
0.0
 40
0.0
 40
0.0
 40
0.0
 40
0.0
 40
0.1227272727282268
 40
0.2499999999994106
 40
0.3727272727276371
 40
0.4999999999988207
 40
0.6272727272723628
 40
0.7500000000005895
 40
0.8772727272717732
 40
1.0
 40
1.0
 40
1.0
 40
1.0
 40
1.0
 40
1.0
 10
422.5220314384608
 20
750.4885373827734
 30
0.0
 41
1.0
 10
422.6261230193887
 20
750.4885369094785
 30
0.0
 41
1.0
 10
422.8381582241097
 20
750.5089755906265
 30
0.0
 41
1.0
 10
423.1462923656558
 20
750.6015248862534
 30
0.0
 41
1.0
 10
423.5112106837203
 20
750.8434658028584
 30
0.0
 41
1.0
 10
423.8181871375822
 20
751.2993121825435
 30
0.0
 41
1.0
 10
423.9253636481652
 20
751.8383619856826
 30
0.0
 41
1.0
 10
423.8182865859963
 20
752.3775666989534
 30
0.0
 41
1.0
 10
423.5109638718513
 20
752.8332163814704
 30
0.0
 41
1.0
 10
423.1467103779373
 20
753.0754144519154
 30
0.0
 41
1.0
 10
422.8376292730223
 20
753.1676817339785
 30
0.0
 41
1.0
 10
422.6265803170273
 20
753.1883343921485
 30
0.0
 41
1.0
 10
422.5220276010564
 20
753.1883343921485
 30
0.0
 41
1.0
  0
SPLINE
  5
F2
330
9A
100
AcDbEntity
  8
$DDT_AUDIT_GENERATED_(D9)
  6
Continuous
 62
     7
100
AcDbSpline
210
0.0
220
0.0
230
1.0
 70
    12
 71
     5
 72
    19
 73
    13
 74
     0
 42
0.0000000022983432
 43
0.0000000001
 40
0.0
 40
0.0
 40
0.0
 40
0.0
 40
0.0
 40
0.0
 40
0.1261261261261259
 40
0.2477477477469935
 40
0.373873873872907
 40
0.4999999999988208
 40
0.6261261261270928
 40
0.7477477477481727
 40
0.8738738738740862
 40
1.0
 40
1.0
 40
1.0
 40
1.0
 40
1.0
 40
1.0
 10
408.5220226010563
 20
768.1883318921485
 30
0.0
 41
1.0
 10
408.4146006150823
 20
768.1883318921485
 30
0.0
 41
1.0
 10
408.2054257797653
 20
768.1673113694475
 30
0.0
 41
1.0
 10
407.8955598325603
 20
768.0744365836555
 30
0.0
 41
1.0
 10
407.5318306344143
 20
767.8316817498475
 30
0.0
 41
1.0
 10
407.2258996338282
 20
767.3764272591415
 30
0.0
 41
1.0
 10
407.1189201136353
 20
766.8422437408115
 30
0.0
 41
1.0
 10
407.2248565239863
 20
766.3042847268504
 30
0.0
 41
1.0
 10
407.5286878142893
 20
765.8479186325684
 30
0.0
 41
1.0
 10
407.8923013360086
 20
765.6039728698354
 30
0.0
 41
1.0
 10
408.2010980314075
 20
765.5097272874355
 30
0.0
 41
1.0
 10
408.4150471953486
 20
765.4885332792775
 30
0.0
 41
1.0
 10
408.5220222887642
 20
765.4885341853834
 30
0.0
 41
1.0
  0
SPLINE
  5
F3
330
9A
100
AcDbEntity
  8
$DDT_AUDIT_GENERATED_(D9)
  6
Continuous
 62
     7
100
AcDbSpline
210
0.0
220
0.0
230
1.0
 70
    12
 71
     5
 72
    19
 73
    13
 74
     0
 42
0.0000000022983437
 43
0.0000000001
 40
0.0
 40
0.0
 40
0.0
 40
0.0
 40
0.0
 40
0.0
 40
0.1261261261259136
 40
0.2477477477469933
 40
0.3738738738729072
 40
0.4999999999988207
 40
0.6261261261270927
 40
0.7477477477481725
 40
0.8738738738740864
 40
1.0
 40
1.0
 40
1.0
 40
1.0
 40
1.0
 40
1.0
 10
408.5220222887642
 20
765.4885341853834
 30
0.0
 41
1.0
 10
408.6289973821799
 20
765.4885350914903
 30
0.0
 41
1.0
 10
408.8391280345848
 20
765.5093541949205
 30
0.0
 41
1.0
 10
409.1480820489981
 20
765.6024780883124
 30
0.0
 41
1.0
 10
409.5124530428983
 20
765.8450121224964
 30
0.0
 41
1.0
 10
409.8180496263942
 20
766.3004359987444
 30
0.0
 41
1.0
 10
409.9251246122103
 20
766.8344817029545
 30
0.0
 41
1.0
 10
409.8192844395153
 20
767.3725840987904
 30
0.0
 41
1.0
 10
409.5151183495703
 20
767.8287614808264
 30
0.0
 41
1.0
 10
409.1521501612443
 20
768.0729608947325
 30
0.0
 41
1.0
 10
408.8424327134132
 20
768.1669249853716
 30
0.0
 41
1.0
 10
408.6294412999883
 20
768.1883318921485
 30
0.0
 41
1.0
 10
408.5220226010563
 20
768.1883318921485
 30
0.0
 41
1.0
  0
SPLINE
  5
F4
330
9A
100
AcDbEntity
  8
$DDT_AUDIT_GENERATED_(D9)
  6
Continuous
 62
     7
100
AcDbSpline
210
0.0
220
0.0
230
1.0
 70
    12
 71
     5
 72
    19
 73
    13
 74
     0
 42
0.0000000022983432
 43
0.0000000001
 40
0.0
 40
0.0
 40
0.0
 40
0.0
 40
0.0
 40
0.0
 40
0.1261261261261259
 40
0.2477477477469935
 40
0.373873873872907
 40
0.4999999999988208
 40
0.6261261261270928
 40
0.7477477477481727
 40
0.8738738738740862
 40
1.0
 40
1.0
 40
1.0
 40
1.0
 40
1.0
 40
1.0
 10
408.5220226010563
 20
730.6883318921484
 30
0.0
 41
1.0
 10
408.4146006150823
 20
730.6883318921484
 30
0.0
 41
1.0
 10
408.2054257797653
 20
730.6673113694475
 30
0.0
 41
1.0
 10
407.8955598325603
 20
730.5744365836555
 30
0.0
 41
1.0
 10
407.5318306344143
 20
730.3316817498476
 30
0.0
 41
1.0
 10
407.2258996338282
 20
729.8764272591415
 30
0.0
 41
1.0
 10
407.1189201136353
 20
729.3422437408115
 30
0.0
 41
1.0
 10
407.2248565239863
 20
728.8042847268506
 30
0.0
 41
1.0
 10
407.5286878142893
 20
728.3479186325685
 30
0.0
 41
1.0
 10
407.8923013360086
 20
728.1039728698355
 30
0.0
 41
1.0
 10
408.2010980314075
 20
728.0097272874356
 30
0.0
 41
1.0
 10
408.4150471953486
 20
727.9885332792775
 30
0.0
 41
1.0
 10
408.5220222887642
 20
727.9885341853834
 30
0.0
 41
1.0
  0
SPLINE
  5
F5
330
9A
100
AcDbEntity
  8
$DDT_AUDIT_GENERATED_(D9)
  6
Continuous
 62
     7
100
AcDbSpline
210
0.0
220
0.0
230
1.0
 70
    12
 71
     5
 72
    19
 73
    13
 74
     0
 42
0.0000000022983437
 43
0.0000000001
 40
0.0
 40
0.0
 40
0.0
 40
0.0
 40
0.0
 40
0.0
 40
0.1261261261259136
 40
0.2477477477469933
 40
0.3738738738729072
 40
0.4999999999988207
 40
0.6261261261270927
 40
0.7477477477481725
 40
0.8738738738740864
 40
1.0
 40
1.0
 40
1.0
 40
1.0
 40
1.0
 40
1.0
 10
408.5220222887642
 20
727.9885341853834
 30
0.0
 41
1.0
 10
408.6289973821799
 20
727.9885350914906
 30
0.0
 41
1.0
 10
408.8391280345848
 20
728.0093541949204
 30
0.0
 41
1.0
 10
409.1480820489981
 20
728.1024780883125
 30
0.0
 41
1.0
 10
409.5124530428983
 20
728.3450121224964
 30
0.0
 41
1.0
 10
409.8180496263942
 20
728.8004359987445
 30
0.0
 41
1.0
 10
409.9251246122103
 20
729.3344817029545
 30
0.0
 41
1.0
 10
409.8192844395153
 20
729.8725840987905
 30
0.0
 41
1.0
 10
409.5151183495703
 20
730.3287614808265
 30
0.0
 41
1.0
 10
409.1521501612443
 20
730.5729608947324
 30
0.0
 41
1.0
 10
408.8424327134132
 20
730.6669249853715
 30
0.0
 41
1.0
 10
408.6294412999883
 20
730.6883318921484
 30
0.0
 41
1.0
 10
408.5220226010563
 20
730.6883318921484
 30
0.0
 41
1.0
  0
SPLINE
  5
F6
330
9A
100
AcDbEntity
  8
$DDT_AUDIT_GENERATED_(D9)
  6
Continuous
 62
     7
100
AcDbSpline
210
0.0
220
0.0
230
1.0
 70
    12
 71
     5
 72
    19
 73
    13
 74
     0
 42
0.0000000022982466
 43
0.0000000001
 40
0.0
 40
0.0
 40
0.0
 40
0.0
 40
0.0
 40
0.0
 40
0.1227272727271484
 40
0.2499999999994104
 40
0.3727272727278088
 40
0.4999999999988208
 40
0.6227272727272191
 40
0.749999999998231
 40
0.8727272727266294
 40
1.0
 40
1.0
 40
1.0
 40
1.0
 40
1.0
 40
1.0
 10
417.7720256010563
 20
738.1883333921484
 30
0.0
 41
1.0
 10
417.6674712825323
 20
738.1883333921484
 30
0.0
 41
1.0
 10
417.4564304989643
 20
738.1676773788055
 30
0.0
 41
1.0
 10
417.1473306424973
 20
738.0754216270556
 30
0.0
 41
1.0
 10
416.7831072672603
 20
737.8332026491505
 30
0.0
 41
1.0
 10
416.4779739136353
 20
737.3808841163975
 30
0.0
 41
1.0
 10
416.3691399950293
 20
736.8423912072544
 30
0.0
 41
1.0
 10
416.4734949102693
 20
736.3070579219504
 30
0.0
 41
1.0
 10
416.7771498870703
 20
735.8491722718585
 30
0.0
 41
1.0
 10
417.1404187725598
 20
735.6045616374595
 30
0.0
 41
1.0
 10
417.4520401611309
 20
735.5097383251546
 30
0.0
 41
1.0
 10
417.6640822344972
 20
735.4885383460424
 30
0.0
 41
1.0
 10
417.7720292963164
 20
735.4885369662825
 30
0.0
 41
1.0
  0
SPLINE
  5
F7
330
9A
100
AcDbEntity
  8
$DDT_AUDIT_GENERATED_(D9)
  6
Continuous
 62
     7
100
AcDbSpline
210
0.0
220
0.0
230
1.0
 70
    12
 71
     5
 72
    19
 73
    13
 74
     0
 42
0.0000000022982483
 43
0.0000000001
 40
0.0
 40
0.0
 40
0.0
 40
0.0
 40
0.0
 40
0.0
 40
0.1227272727263293
 40
0.2500000000000001
 40
0.372727272726329
 40
0.4999999999999999
 40
0.6227272727263291
 40
0.7499999999999999
 40
0.8727272727263291
 40
1.0
 40
1.0
 40
1.0
 40
1.0
 40
1.0
 40
1.0
 10
417.7720292963164
 20
735.4885369662825
 30
0.0
 41
1.0
 10
417.876121105926
 20
735.4885356358005
 30
0.0
 41
1.0
 10
418.0881568897742
 20
735.5089731491115
 30
0.0
 41
1.0
 10
418.3962913124178
 20
735.6015252880395
 30
0.0
 41
1.0
 10
418.7612030472893
 20
735.8434735501995
 30
0.0
 41
1.0
 10
419.0659691201903
 20
736.2959922371895
 30
0.0
 41
1.0
 10
419.1749216887893
 20
736.8343382415545
 30
0.0
 41
1.0
 10
419.0706413940492
 20
737.3698063038454
 30
0.0
 41
1.0
 10
418.7666763730633
 20
737.8275319500605
 30
0.0
 41
1.0
 10
418.4040237470793
 20
738.0723493795696
 30
0.0
 41
1.0
 10
418.0915143960103
 20
738.1669368353225
 30
0.0
 41
1.0
 10
417.8804106145543
 20
738.1883333921484
 30
0.0
 41
1.0
 10
417.7720256010563
 20
738.1883333921484
 30
0.0
 41
1.0
  0
SPLINE
  5
F8
330
9A
100
AcDbEntity
  8
$DDT_AUDIT_GENERATED_(D9)
  6
Continuous
 62
     7
100
AcDbSpline
210
0.0
220
0.0
230
1.0
 70
    12
 71
     5
 72
    19
 73
    13
 74
     0
 42
0.0000000022982466
 43
0.0000000001
 40
0.0
 40
0.0
 40
0.0
 40
0.0
 40
0.0
 40
0.0
 40
0.1227272727271484
 40
0.2499999999994104
 40
0.3727272727278088
 40
0.4999999999988208
 40
0.6227272727272191
 40
0.749999999998231
 40
0.8727272727266294
 40
1.0
 40
1.0
 40
1.0
 40
1.0
 40
1.0
 40
1.0
 10
417.7720256010563
 20
723.1883293921994
 30
0.0
 41
1.0
 10
417.6674712825323
 20
723.1883293921994
 30
0.0
 41
1.0
 10
417.4564304989643
 20
723.1676733788574
 30
0.0
 41
1.0
 10
417.1473306424973
 20
723.0754176271075
 30
0.0
 41
1.0
 10
416.7831072672603
 20
722.8331986492025
 30
0.0
 41
1.0
 10
416.4779739136353
 20
722.3808801164485
 30
0.0
 41
1.0
 10
416.3691399950293
 20
721.8423872073055
 30
0.0
 41
1.0
 10
416.4734949102693
 20
721.3070539220025
 30
0.0
 41
1.0
 10
416.7771498870703
 20
720.8491682719105
 30
0.0
 41
1.0
 10
417.1404187725598
 20
720.6045576375104
 30
0.0
 41
1.0
 10
417.4520401611309
 20
720.5097343252065
 30
0.0
 41
1.0
 10
417.6640822344972
 20
720.4885343460945
 30
0.0
 41
1.0
 10
417.7720292963164
 20
720.4885329663344
 30
0.0
 41
1.0
  0
SPLINE
  5
F9
330
9A
100
AcDbEntity
  8
$DDT_AUDIT_GENERATED_(D9)
  6
Continuous
 62
     7
100
AcDbSpline
210
0.0
220
0.0
230
1.0
 70
    12
 71
     5
 72
    19
 73
    13
 74
     0
 42
0.0000000022982483
 43
0.0000000001
 40
0.0
 40
0.0
 40
0.0
 40
0.0
 40
0.0
 40
0.0
 40
0.1227272727263293
 40
0.2500000000000001
 40
0.372727272726329
 40
0.4999999999999999
 40
0.6227272727263291
 40
0.7499999999999999
 40
0.8727272727263291
 40
1.0
 40
1.0
 40
1.0
 40
1.0
 40
1.0
 40
1.0
 10
417.7720292963164
 20
720.4885329663344
 30
0.0
 41
1.0
 10
417.876121105926
 20
720.4885316358525
 30
0.0
 41
1.0
 10
418.0881568897742
 20
720.5089691491635
 30
0.0
 41
1.0
 10
418.3962913124178
 20
720.6015212880906
 30
0.0
 41
1.0
 10
418.7612030472893
 20
720.8434695502505
 30
0.0
 41
1.0
 10
419.0659691201903
 20
721.2959882372415
 30
0.0
 41
1.0
 10
419.1749216887893
 20
721.8343342416065
 30
0.0
 41
1.0
 10
419.0706413940492
 20
722.3698023038975
 30
0.0
 41
1.0
 10
418.7666763730633
 20
722.8275279501124
 30
0.0
 41
1.0
 10
418.4040237470793
 20
723.0723453796204
 30
0.0
 41
1.0
 10
418.0915143960103
 20
723.1669328353735
 30
0.0
 41
1.0
 10
417.8804106145543
 20
723.1883293921994
 30
0.0
 41
1.0
 10
417.7720256010563
 20
723.1883293921994
 30
0.0
 41
1.0
  0
SPLINE
  5
FA
330
9A
100
AcDbEntity
  8
$DDT_AUDIT_GENERATED_(D9)
  6
Continuous
 62
     7
100
AcDbSpline
210
0.0
220
0.0
230
1.0
 70
    12
 71
     5
 72
    19
 73
    13
 74
     0
 42
0.0000000022984387
 43
0.0000000001
 40
0.0
 40
0.0
 40
0.0
 40
0.0
 40
0.0
 40
0.0
 40
0.1272727272727165
 40
0.2499999999994104
 40
0.3727272727276372
 40
0.4999999999988208
 40
0.6272727272723627
 40
0.7500000000005896
 40
0.8727272727264579
 40
1.0
 40
1.0
 40
1.0
 40
1.0
 40
1.0
 40
1.0
 10
422.5220276010564
 20
775.6883175313834
 30
0.0
 41
1.0
 10
422.4136358684313
 20
775.6883175313834
 30
0.0
 41
1.0
 10
422.2025506034283
 20
775.6669138426664
 30
0.0
 41
1.0
 10
421.8937800217253
 20
775.5734923319275
 30
0.0
 41
1.0
 10
421.5305334415993
 20
775.3300609546494
 30
0.0
 41
1.0
 10
421.2249749601303
 20
774.8736333146175
 30
0.0
 41
1.0
 10
421.1187099331303
 20
774.3383502725266
 30
0.0
 41
1.0
 10
421.2250681339793
 20
773.8031996178254
 30
0.0
 41
1.0
 10
421.5303018867382
 20
773.3466033534315
 30
0.0
 41
1.0
 10
421.8941751893606
 20
773.1033971880765
 30
0.0
 41
1.0
 10
422.2020428887815
 20
773.0097186461145
 30
0.0
 41
1.0
 10
422.4140846137949
 20
772.9885210128324
 30
0.0
 41
1.0
 10
422.5220314384608
 20
772.9885205220085
 30
0.0
 41
1.0
  0
SPLINE
  5
FB
330
9A
100
AcDbEntity
  8
$DDT_AUDIT_GENERATED_(D9)
  6
Continuous
 62
     7
100
AcDbSpline
210
0.0
220
0.0
230
1.0
 70
    12
 71
     5
 72
    19
 73
    13
 74
     0
 42
0.0000000022979082
 43
0.0000000001
 40
0.0
 40
0.0
 40
0.0
 40
0.0
 40
0.0
 40
0.0
 40
0.1227272727282268
 40
0.2499999999994106
 40
0.3727272727276371
 40
0.4999999999988207
 40
0.6272727272723628
 40
0.7500000000005895
 40
0.8772727272717732
 40
1.0
 40
1.0
 40
1.0
 40
1.0
 40
1.0
 40
1.0
 10
422.5220314384608
 20
772.9885205220085
 30
0.0
 41
1.0
 10
422.6261230193887
 20
772.9885200487146
 30
0.0
 41
1.0
 10
422.8381582241097
 20
773.0089587298626
 30
0.0
 41
1.0
 10
423.1462923656558
 20
773.1015080254895
 30
0.0
 41
1.0
 10
423.5112106837203
 20
773.3434489420933
 30
0.0
 41
1.0
 10
423.8181871375822
 20
773.7992953217795
 30
0.0
 41
1.0
 10
423.9253636481652
 20
774.3383451249185
 30
0.0
 41
1.0
 10
423.8182865859963
 20
774.8775498381895
 30
0.0
 41
1.0
 10
423.5109638718513
 20
775.3331995207054
 30
0.0
 41
1.0
 10
423.1467103779373
 20
775.5753975911515
 30
0.0
 41
1.0
 10
422.8376292730223
 20
775.6676648732144
 30
0.0
 41
1.0
 10
422.6265803170273
 20
775.6883175313834
 30
0.0
 41
1.0
 10
422.5220276010564
 20
775.6883175313834
 30
0.0
 41
1.0
  0
SPLINE
  5
FC
330
9A
100
AcDbEntity
  8
$DDT_AUDIT_GENERATED_(D9)
  6
Continuous
 62
     7
100
AcDbSpline
210
0.0
220
0.0
230
1.0
 70
    12
 71
     5
 72
    19
 73
    13
 74
     0
 42
0.0000000022983432
 43
0.0000000001
 40
0.0
 40
0.0
 40
0.0
 40
0.0
 40
0.0
 40
0.0
 40
0.1261261261261259
 40
0.2477477477469935
 40
0.373873873872907
 40
0.4999999999988208
 40
0.6261261261270928
 40
0.7477477477481727
 40
0.8738738738740862
 40
1.0
 40
1.0
 40
1.0
 40
1.0
 40
1.0
 40
1.0
 10
408.5220226010563
 20
753.1883318921484
 30
0.0
 41
1.0
 10
408.4146006150823
 20
753.1883318921484
 30
0.0
 41
1.0
 10
408.2054257797653
 20
753.1673113694475
 30
0.0
 41
1.0
 10
407.8955598325603
 20
753.0744365836555
 30
0.0
 41
1.0
 10
407.5318306344143
 20
752.8316817498464
 30
0.0
 41
1.0
 10
407.2258996338282
 20
752.3764272591415
 30
0.0
 41
1.0
 10
407.1189201136353
 20
751.8422437408115
 30
0.0
 41
1.0
 10
407.2248565239863
 20
751.3042847268505
 30
0.0
 41
1.0
 10
407.5286878142893
 20
750.8479186325685
 30
0.0
 41
1.0
 10
407.8923013360086
 20
750.6039728698355
 30
0.0
 41
1.0
 10
408.2010980314075
 20
750.5097272874355
 30
0.0
 41
1.0
 10
408.4150471953486
 20
750.4885332792775
 30
0.0
 41
1.0
 10
408.5220222887642
 20
750.4885341853835
 30
0.0
 41
1.0
  0
SPLINE
  5
FD
330
9A
100
AcDbEntity
  8
$DDT_AUDIT_GENERATED_(D9)
  6
Continuous
 62
     7
100
AcDbSpline
210
0.0
220
0.0
230
1.0
 70
    12
 71
     5
 72
    19
 73
    13
 74
     0
 42
0.0000000022983437
 43
0.0000000001
 40
0.0
 40
0.0
 40
0.0
 40
0.0
 40
0.0
 40
0.0
 40
0.1261261261259136
 40
0.2477477477469933
 40
0.3738738738729072
 40
0.4999999999988207
 40
0.6261261261270927
 40
0.7477477477481725
 40
0.8738738738740864
 40
1.0
 40
1.0
 40
1.0
 40
1.0
 40
1.0
 40
1.0
 10
408.5220222887642
 20
750.4885341853835
 30
0.0
 41
1.0
 10
408.6289973821799
 20
750.4885350914905
 30
0.0
 41
1.0
 10
408.8391280345848
 20
750.5093541949215
 30
0.0
 41
1.0
 10
409.1480820489981
 20
750.6024780883125
 30
0.0
 41
1.0
 10
409.5124530428983
 20
750.8450121224965
 30
0.0
 41
1.0
 10
409.8180496263942
 20
751.3004359987445
 30
0.0
 41
1.0
 10
409.9251246122103
 20
751.8344817029546
 30
0.0
 41
1.0
 10
409.8192844395153
 20
752.3725840987905
 30
0.0
 41
1.0
 10
409.5151183495703
 20
752.8287614808264
 30
0.0
 41
1.0
 10
409.1521501612443
 20
753.0729608947324
 30
0.0
 41
1.0
 10
408.8424327134132
 20
753.1669249853715
 30
0.0
 41
1.0
 10
408.6294412999883
 20
753.1883318921484
 30
0.0
 41
1.0
 10
408.5220226010563
 20
753.1883318921484
 30
0.0
 41
1.0
  0
SPLINE
  5
FE
330
9A
100
AcDbEntity
  8
$DDT_AUDIT_GENERATED_(D9)
  6
Continuous
 62
     7
100
AcDbSpline
210
0.0
220
0.0
230
1.0
 70
    12
 71
     5
 72
    19
 73
    13
 74
     0
 42
0.0000000022982466
 43
0.0000000001
 40
0.0
 40
0.0
 40
0.0
 40
0.0
 40
0.0
 40
0.0
 40
0.1227272727271484
 40
0.2499999999994104
 40
0.3727272727278088
 40
0.4999999999988208
 40
0.6227272727272191
 40
0.749999999998231
 40
0.8727272727266294
 40
1.0
 40
1.0
 40
1.0
 40
1.0
 40
1.0
 40
1.0
 10
417.7720256010563
 20
768.1883333921485
 30
0.0
 41
1.0
 10
417.6674712825323
 20
768.1883333921485
 30
0.0
 41
1.0
 10
417.4564304989643
 20
768.1676773788056
 30
0.0
 41
1.0
 10
417.1473306424973
 20
768.0754216270554
 30
0.0
 41
1.0
 10
416.7831072672603
 20
767.8332026491505
 30
0.0
 41
1.0
 10
416.4779739136353
 20
767.3808841163975
 30
0.0
 41
1.0
 10
416.3691399950293
 20
766.8423912072544
 30
0.0
 41
1.0
 10
416.4734949102693
 20
766.3070579219504
 30
0.0
 41
1.0
 10
416.7771498870703
 20
765.8491722718594
 30
0.0
 41
1.0
 10
417.1404187725598
 20
765.6045616374595
 30
0.0
 41
1.0
 10
417.4520401611309
 20
765.5097383251544
 30
0.0
 41
1.0
 10
417.6640822344972
 20
765.4885383460424
 30
0.0
 41
1.0
 10
417.7720292963164
 20
765.4885369662825
 30
0.0
 41
1.0
  0
SPLINE
  5
FF
330
9A
100
AcDbEntity
  8
$DDT_AUDIT_GENERATED_(D9)
  6
Continuous
 62
     7
100
AcDbSpline
210
0.0
220
0.0
230
1.0
 70
    12
 71
     5
 72
    19
 73
    13
 74
     0
 42
0.0000000022982483
 43
0.0000000001
 40
0.0
 40
0.0
 40
0.0
 40
0.0
 40
0.0
 40
0.0
 40
0.1227272727263293
 40
0.2500000000000001
 40
0.372727272726329
 40
0.4999999999999999
 40
0.6227272727263291
 40
0.7499999999999999
 40
0.8727272727263291
 40
1.0
 40
1.0
 40
1.0
 40
1.0
 40
1.0
 40
1.0
 10
417.7720292963164
 20
765.4885369662825
 30
0.0
 41
1.0
 10
417.876121105926
 20
765.4885356358004
 30
0.0
 41
1.0
 10
418.0881568897742
 20
765.5089731491115
 30
0.0
 41
1.0
 10
418.3962913124178
 20
765.6015252880395
 30
0.0
 41
1.0
 10
418.7612030472893
 20
765.8434735501995
 30
0.0
 41
1.0
 10
419.0659691201903
 20
766.2959922371895
 30
0.0
 41
1.0
 10
419.1749216887893
 20
766.8343382415544
 30
0.0
 41
1.0
 10
419.0706413940492
 20
767.3698063038454
 30
0.0
 41
1.0
 10
418.7666763730633
 20
767.8275319500615
 30
0.0
 41
1.0
 10
418.4040237470793
 20
768.0723493795695
 30
0.0
 41
1.0
 10
418.0915143960103
 20
768.1669368353224
 30
0.0
 41
1.0
 10
417.8804106145543
 20
768.1883333921485
 30
0.0
 41
1.0
 10
417.7720256010563
 20
768.1883333921485
 30
0.0
 41
1.0
  0
SPLINE
  5
100
330
9A
100
AcDbEntity
  8
$DDT_AUDIT_GENERATED_(D9)
  6
Continuous
 62
     7
100
AcDbSpline
210
0.0
220
0.0
230
1.0
 70
    12
 71
     5
 72
    19
 73
    13
 74
     0
 42
0.0000000022979788
 43
0.0000000001
 40
0.0
 40
0.0
 40
0.0
 40
0.0
 40
0.0
 40
0.0
 40
0.1227272727272599
 40
0.2499999999994104
 40
0.3772727272729524
 40
0.4999999999988208
 40
0.6272727272723627
 40
0.7500000000005896
 40
0.8772727272717731
 40
1.0
 40
1.0
 40
1.0
 40
1.0
 40
1.0
 40
1.0
 10
413.2720241010562
 20
768.1883333921485
 30
0.0
 41
1.0
 10
413.1674787559303
 20
768.1883333921485
 30
0.0
 41
1.0
 10
412.9564122979504
 20
768.1676885219164
 30
0.0
 41
1.0
 10
412.6435813492762
 20
768.0742670874525
 30
0.0
 41
1.0
 10
412.2799284531092
 20
767.8306829026984
 30
0.0
 41
1.0
 10
411.9741769838863
 20
767.3737224968995
 30
0.0
 41
1.0
 10
411.8691227532153
 20
766.8343343639485
 30
0.0
 41
1.0
 10
411.9780831384433
 20
766.2959914732085
 30
0.0
 41
1.0
 10
412.2828442617213
 20
765.8434760924375
 30
0.0
 41
1.0
 10
412.647758857579
 20
765.6015191616634
 30
0.0
 41
1.0
 10
412.9558928917493
 20
765.5089743531225
 30
0.0
 41
1.0
 10
413.1679284745783
 20
765.4885366939185
 30
0.0
 41
1.0
 10
413.2720202483796
 20
765.4885371796114
 30
0.0
 41
1.0
  0
SPLINE
  5
101
330
9A
100
AcDbEntity
  8
$DDT_AUDIT_GENERATED_(D9)
  6
Continuous
 62
     7
100
AcDbSpline
210
0.0
220
0.0
230
1.0
 70
    12
 71
     5
 72
    19
 73
    13
 74
     0
 42
0.0000000022985083
 43
0.0000000001
 40
0.0
 40
0.0
 40
0.0
 40
0.0
 40
0.0
 40
0.0
 40
0.1272727272735419
 40
0.2499999999994106
 40
0.3727272727276371
 40
0.4999999999988207
 40
0.6227272727270475
 40
0.7500000000005895
 40
0.8727272727264579
 40
1.0
 40
1.0
 40
1.0
 40
1.0
 40
1.0
 40
1.0
 10
413.2720202483796
 20
765.4885371796114
 30
0.0
 41
1.0
 10
413.3799672730623
 20
765.4885376832945
 30
0.0
 41
1.0
 10
413.5920094062952
 20
765.5097343082356
 30
0.0
 41
1.0
 10
413.8998771098284
 20
765.6034082540224
 30
0.0
 41
1.0
 10
414.2637463308193
 20
765.8466305369756
 30
0.0
 41
1.0
 10
414.5667779312853
 20
766.2998903479164
 30
0.0
 41
1.0
 10
414.6749069503823
 20
766.8343397797695
 30
0.0
 41
1.0
 10
414.5706504625563
 20
767.3698043345355
 30
0.0
 41
1.0
 10
414.2666666476413
 20
767.8275332846935
 30
0.0
 41
1.0
 10
413.9040283562243
 20
768.0723483356714
 30
0.0
 41
1.0
 10
413.5915103170242
 20
768.1669372545065
 30
0.0
 41
1.0
 10
413.3804094627113
 20
768.1883333921485
 30
0.0
 41
1.0
 10
413.2720241010562
 20
768.1883333921485
 30
0.0
 41
1.0
  0
SPLINE
  5
102
330
9A
100
AcDbEntity
  8
$DDT_AUDIT_GENERATED_(D9)
  6
Continuous
 62
     7
100
AcDbSpline
210
0.0
220
0.0
230
1.0
 70
    12
 71
     5
 72
    19
 73
    13
 74
     0
 42
0.0000000022982466
 43
0.0000000001
 40
0.0
 40
0.0
 40
0.0
 40
0.0
 40
0.0
 40
0.0
 40
0.1227272727271484
 40
0.2499999999994104
 40
0.3727272727278088
 40
0.4999999999988208
 40
0.6227272727272191
 40
0.749999999998231
 40
0.8727272727266294
 40
1.0
 40
1.0
 40
1.0
 40
1.0
 40
1.0
 40
1.0
 10
417.7720256010563
 20
775.6883165313835
 30
0.0
 41
1.0
 10
417.6674712825323
 20
775.6883165313835
 30
0.0
 41
1.0
 10
417.4564304989643
 20
775.6676605180405
 30
0.0
 41
1.0
 10
417.1473306424973
 20
775.5754047662904
 30
0.0
 41
1.0
 10
416.7831072672603
 20
775.3331857883854
 30
0.0
 41
1.0
 10
416.4779739136353
 20
774.8808672556324
 30
0.0
 41
1.0
 10
416.3691399950293
 20
774.3423743464895
 30
0.0
 41
1.0
 10
416.4734949102693
 20
773.8070410611865
 30
0.0
 41
1.0
 10
416.7771498870703
 20
773.3491554110946
 30
0.0
 41
1.0
 10
417.1404187725598
 20
773.1045447766944
 30
0.0
 41
1.0
 10
417.4520401611309
 20
773.0097214643905
 30
0.0
 41
1.0
 10
417.6640822344972
 20
772.9885214852774
 30
0.0
 41
1.0
 10
417.7720292963164
 20
772.9885201055184
 30
0.0
 41
1.0
  0
SPLINE
  5
103
330
9A
100
AcDbEntity
  8
$DDT_AUDIT_GENERATED_(D9)
  6
Continuous
 62
     7
100
AcDbSpline
210
0.0
220
0.0
230
1.0
 70
    12
 71
     5
 72
    19
 73
    13
 74
     0
 42
0.0000000022982483
 43
0.0000000001
 40
0.0
 40
0.0
 40
0.0
 40
0.0
 40
0.0
 40
0.0
 40
0.1227272727263293
 40
0.2500000000000001
 40
0.372727272726329
 40
0.4999999999999999
 40
0.6227272727263291
 40
0.7499999999999999
 40
0.8727272727263291
 40
1.0
 40
1.0
 40
1.0
 40
1.0
 40
1.0
 40
1.0
 10
417.7720292963164
 20
772.9885201055184
 30
0.0
 41
1.0
 10
417.876121105926
 20
772.9885187750365
 30
0.0
 41
1.0
 10
418.0881568897742
 20
773.0089562883476
 30
0.0
 41
1.0
 10
418.3962913124178
 20
773.1015084272746
 30
0.0
 41
1.0
 10
418.7612030472893
 20
773.3434566894344
 30
0.0
 41
1.0
 10
419.0659691201903
 20
773.7959753764245
 30
0.0
 41
1.0
 10
419.1749216887893
 20
774.3343213807894
 30
0.0
 41
1.0
 10
419.0706413940492
 20
774.8697894430804
 30
0.0
 41
1.0
 10
418.7666763730633
 20
775.3275150892964
 30
0.0
 41
1.0
 10
418.4040237470793
 20
775.5723325188044
 30
0.0
 41
1.0
 10
418.0915143960103
 20
775.6669199745573
 30
0.0
 41
1.0
 10
417.8804106145543
 20
775.6883165313835
 30
0.0
 41
1.0
 10
417.7720256010563
 20
775.6883165313835
 30
0.0
 41
1.0
  0
SPLINE
  5
104
330
9A
100
AcDbEntity
  8
$DDT_AUDIT_GENERATED_(D9)
  6
Continuous
 62
     7
100
AcDbSpline
210
0.0
220
0.0
230
1.0
 70
    12
 71
     5
 72
    19
 73
    13
 74
     0
 42
0.0000000022984387
 43
0.0000000001
 40
0.0
 40
0.0
 40
0.0
 40
0.0
 40
0.0
 40
0.0
 40
0.1272727272727165
 40
0.2499999999994104
 40
0.3727272727276372
 40
0.4999999999988208
 40
0.6272727272723627
 40
0.7500000000005896
 40
0.8727272727264579
 40
1.0
 40
1.0
 40
1.0
 40
1.0
 40
1.0
 40
1.0
 10
422.5220276010564
 20
760.6883343921485
 30
0.0
 41
1.0
 10
422.4136358684313
 20
760.6883343921485
 30
0.0
 41
1.0
 10
422.2025506034283
 20
760.6669307034315
 30
0.0
 41
1.0
 10
421.8937800217253
 20
760.5735091926915
 30
0.0
 41
1.0
 10
421.5305334415993
 20
760.3300778154145
 30
0.0
 41
1.0
 10
421.2249749601303
 20
759.8736501753824
 30
0.0
 41
1.0
 10
421.1187099331303
 20
759.3383671332914
 30
0.0
 41
1.0
 10
421.2250681339793
 20
758.8032164785905
 30
0.0
 41
1.0
 10
421.5303018867382
 20
758.3466202141955
 30
0.0
 41
1.0
 10
421.8941751893606
 20
758.1034140488405
 30
0.0
 41
1.0
 10
422.2020428887815
 20
758.0097355068784
 30
0.0
 41
1.0
 10
422.4140846137949
 20
757.9885378735964
 30
0.0
 41
1.0
 10
422.5220314384608
 20
757.9885373827725
 30
0.0
 41
1.0
  0
SPLINE
  5
105
330
9A
100
AcDbEntity
  8
$DDT_AUDIT_GENERATED_(D9)
  6
Continuous
 62
     7
100
AcDbSpline
210
0.0
220
0.0
230
1.0
 70
    12
 71
     5
 72
    19
 73
    13
 74
     0
 42
0.0000000022979082
 43
0.0000000001
 40
0.0
 40
0.0
 40
0.0
 40
0.0
 40
0.0
 40
0.0
 40
0.1227272727282268
 40
0.2499999999994106
 40
0.3727272727276371
 40
0.4999999999988207
 40
0.6272727272723628
 40
0.7500000000005895
 40
0.8772727272717732
 40
1.0
 40
1.0
 40
1.0
 40
1.0
 40
1.0
 40
1.0
 10
422.5220314384608
 20
757.9885373827725
 30
0.0
 41
1.0
 10
422.6261230193887
 20
757.9885369094785
 30
0.0
 41
1.0
 10
422.8381582241097
 20
758.0089755906265
 30
0.0
 41
1.0
 10
423.1462923656558
 20
758.1015248862535
 30
0.0
 41
1.0
 10
423.5112106837203
 20
758.3434658028585
 30
0.0
 41
1.0
 10
423.8181871375822
 20
758.7993121825435
 30
0.0
 41
1.0
 10
423.9253636481652
 20
759.3383619856825
 30
0.0
 41
1.0
 10
423.8182865859963
 20
759.8775666989535
 30
0.0
 41
1.0
 10
423.5109638718513
 20
760.3332163814695
 30
0.0
 41
1.0
 10
423.1467103779373
 20
760.5754144519154
 30
0.0
 41
1.0
 10
422.8376292730223
 20
760.6676817339785
 30
0.0
 41
1.0
 10
422.6265803170273
 20
760.6883343921485
 30
0.0
 41
1.0
 10
422.5220276010564
 20
760.6883343921485
 30
0.0
 41
1.0
  0
SPLINE
  5
106
330
9A
100
AcDbEntity
  8
$DDT_AUDIT_GENERATED_(D9)
  6
Continuous
 62
     7
100
AcDbSpline
210
0.0
220
0.0
230
1.0
 70
    12
 71
     5
 72
    19
 73
    13
 74
     0
 42
0.0000000022979788
 43
0.0000000001
 40
0.0
 40
0.0
 40
0.0
 40
0.0
 40
0.0
 40
0.0
 40
0.1227272727272599
 40
0.2499999999994104
 40
0.3772727272729524
 40
0.4999999999988208
 40
0.6272727272723627
 40
0.7500000000005896
 40
0.8772727272717731
 40
1.0
 40
1.0
 40
1.0
 40
1.0
 40
1.0
 40
1.0
 10
413.2720241010562
 20
738.1883333921484
 30
0.0
 41
1.0
 10
413.1674787559303
 20
738.1883333921484
 30
0.0
 41
1.0
 10
412.9564122979504
 20
738.1676885219164
 30
0.0
 41
1.0
 10
412.6435813492762
 20
738.0742670874525
 30
0.0
 41
1.0
 10
412.2799284531092
 20
737.8306829026985
 30
0.0
 41
1.0
 10
411.9741769838863
 20
737.3737224968995
 30
0.0
 41
1.0
 10
411.8691227532153
 20
736.8343343639485
 30
0.0
 41
1.0
 10
411.9780831384433
 20
736.2959914732085
 30
0.0
 41
1.0
 10
412.2828442617213
 20
735.8434760924364
 30
0.0
 41
1.0
 10
412.647758857579
 20
735.6015191616635
 30
0.0
 41
1.0
 10
412.9558928917493
 20
735.5089743531224
 30
0.0
 41
1.0
 10
413.1679284745783
 20
735.4885366939185
 30
0.0
 41
1.0
 10
413.2720202483796
 20
735.4885371796115
 30
0.0
 41
1.0
  0
SPLINE
  5
107
330
9A
100
AcDbEntity
  8
$DDT_AUDIT_GENERATED_(D9)
  6
Continuous
 62
     7
100
AcDbSpline
210
0.0
220
0.0
230
1.0
 70
    12
 71
     5
 72
    19
 73
    13
 74
     0
 42
0.0000000022985083
 43
0.0000000001
 40
0.0
 40
0.0
 40
0.0
 40
0.0
 40
0.0
 40
0.0
 40
0.1272727272735419
 40
0.2499999999994106
 40
0.3727272727276371
 40
0.4999999999988207
 40
0.6227272727270475
 40
0.7500000000005895
 40
0.8727272727264579
 40
1.0
 40
1.0
 40
1.0
 40
1.0
 40
1.0
 40
1.0
 10
413.2720202483796
 20
735.4885371796115
 30
0.0
 41
1.0
 10
413.3799672730623
 20
735.4885376832945
 30
0.0
 41
1.0
 10
413.5920094062952
 20
735.5097343082355
 30
0.0
 41
1.0
 10
413.8998771098284
 20
735.6034082540225
 30
0.0
 41
1.0
 10
414.2637463308193
 20
735.8466305369756
 30
0.0
 41
1.0
 10
414.5667779312853
 20
736.2998903479165
 30
0.0
 41
1.0
 10
414.6749069503823
 20
736.8343397797694
 30
0.0
 41
1.0
 10
414.5706504625563
 20
737.3698043345355
 30
0.0
 41
1.0
 10
414.2666666476413
 20
737.8275332846936
 30
0.0
 41
1.0
 10
413.9040283562243
 20
738.0723483356714
 30
0.0
 41
1.0
 10
413.5915103170242
 20
738.1669372545055
 30
0.0
 41
1.0
 10
413.3804094627113
 20
738.1883333921484
 30
0.0
 41
1.0
 10
413.2720241010562
 20
738.1883333921484
 30
0.0
 41
1.0
  0
SPLINE
  5
108
330
9A
100
AcDbEntity
  8
$DDT_AUDIT_GENERATED_(D9)
  6
Continuous
 62
     7
100
AcDbSpline
210
0.0
220
0.0
230
1.0
 70
    12
 71
     5
 72
    19
 73
    13
 74
     0
 42
0.0000000022984387
 43
0.0000000001
 40
0.0
 40
0.0
 40
0.0
 40
0.0
 40
0.0
 40
0.0
 40
0.1272727272727165
 40
0.2499999999994104
 40
0.3727272727276372
 40
0.4999999999988208
 40
0.6272727272723627
 40
0.7500000000005896
 40
0.8727272727264579
 40
1.0
 40
1.0
 40
1.0
 40
1.0
 40
1.0
 40
1.0
 10
422.5220276010564
 20
738.1883343921485
 30
0.0
 41
1.0
 10
422.4136358684313
 20
738.1883343921485
 30
0.0
 41
1.0
 10
422.2025506034283
 20
738.1669307034315
 30
0.0
 41
1.0
 10
421.8937800217253
 20
738.0735091926914
 30
0.0
 41
1.0
 10
421.5305334415993
 20
737.8300778154146
 30
0.0
 41
1.0
 10
421.2249749601303
 20
737.3736501753825
 30
0.0
 41
1.0
 10
421.1187099331303
 20
736.8383671332914
 30
0.0
 41
1.0
 10
421.2250681339793
 20
736.3032164785906
 30
0.0
 41
1.0
 10
421.5303018867382
 20
735.8466202141956
 30
0.0
 41
1.0
 10
421.8941751893606
 20
735.6034140488406
 30
0.0
 41
1.0
 10
422.2020428887815
 20
735.5097355068784
 30
0.0
 41
1.0
 10
422.4140846137949
 20
735.4885378735964
 30
0.0
 41
1.0
 10
422.5220314384608
 20
735.4885373827724
 30
0.0
 41
1.0
  0
SPLINE
  5
109
330
9A
100
AcDbEntity
  8
$DDT_AUDIT_GENERATED_(D9)
  6
Continuous
 62
     7
100
AcDbSpline
210
0.0
220
0.0
230
1.0
 70
    12
 71
     5
 72
    19
 73
    13
 74
     0
 42
0.0000000022979082
 43
0.0000000001
 40
0.0
 40
0.0
 40
0.0
 40
0.0
 40
0.0
 40
0.0
 40
0.1227272727282268
 40
0.2499999999994106
 40
0.3727272727276371
 40
0.4999999999988207
 40
0.6272727272723628
 40
0.7500000000005895
 40
0.8772727272717732
 40
1.0
 40
1.0
 40
1.0
 40
1.0
 40
1.0
 40
1.0
 10
422.5220314384608
 20
735.4885373827724
 30
0.0
 41
1.0
 10
422.6261230193887
 20
735.4885369094785
 30
0.0
 41
1.0
 10
422.8381582241097
 20
735.5089755906264
 30
0.0
 41
1.0
 10
423.1462923656558
 20
735.6015248862535
 30
0.0
 41
1.0
 10
423.5112106837203
 20
735.8434658028585
 30
0.0
 41
1.0
 10
423.8181871375822
 20
736.2993121825434
 30
0.0
 41
1.0
 10
423.9253636481652
 20
736.8383619856825
 30
0.0
 41
1.0
 10
423.8182865859963
 20
737.3775666989535
 30
0.0
 41
1.0
 10
423.5109638718513
 20
737.8332163814695
 30
0.0
 41
1.0
 10
423.1467103779373
 20
738.0754144519154
 30
0.0
 41
1.0
 10
422.8376292730223
 20
738.1676817339784
 30
0.0
 41
1.0
 10
422.6265803170273
 20
738.1883343921485
 30
0.0
 41
1.0
 10
422.5220276010564
 20
738.1883343921485
 30
0.0
 41
1.0
  0
SPLINE
  5
10A
330
9A
100
AcDbEntity
  8
$DDT_AUDIT_GENERATED_(D9)
  6
Continuous
 62
     7
100
AcDbSpline
210
0.0
220
0.0
230
1.0
 70
    12
 71
     5
 72
    19
 73
    13
 74
     0
 42
0.0000000022983432
 43
0.0000000001
 40
0.0
 40
0.0
 40
0.0
 40
0.0
 40
0.0
 40
0.0
 40
0.1261261261261259
 40
0.2477477477469935
 40
0.373873873872907
 40
0.4999999999988208
 40
0.6261261261270928
 40
0.7477477477481727
 40
0.8738738738740862
 40
1.0
 40
1.0
 40
1.0
 40
1.0
 40
1.0
 40
1.0
 10
408.5220226010563
 20
745.6883318921484
 30
0.0
 41
1.0
 10
408.4146006150823
 20
745.6883318921484
 30
0.0
 41
1.0
 10
408.2054257797653
 20
745.6673113694474
 30
0.0
 41
1.0
 10
407.8955598325603
 20
745.5744365836554
 30
0.0
 41
1.0
 10
407.5318306344143
 20
745.3316817498466
 30
0.0
 41
1.0
 10
407.2258996338282
 20
744.8764272591415
 30
0.0
 41
1.0
 10
407.1189201136353
 20
744.3422437408115
 30
0.0
 41
1.0
 10
407.2248565239863
 20
743.8042847268505
 30
0.0
 41
1.0
 10
407.5286878142893
 20
743.3479186325684
 30
0.0
 41
1.0
 10
407.8923013360086
 20
743.1039728698354
 30
0.0
 41
1.0
 10
408.2010980314075
 20
743.0097272874355
 30
0.0
 41
1.0
 10
408.4150471953486
 20
742.9885332792774
 30
0.0
 41
1.0
 10
408.5220222887642
 20
742.9885341853835
 30
0.0
 41
1.0
  0
SPLINE
  5
10B
330
9A
100
AcDbEntity
  8
$DDT_AUDIT_GENERATED_(D9)
  6
Continuous
 62
     7
100
AcDbSpline
210
0.0
220
0.0
230
1.0
 70
    12
 71
     5
 72
    19
 73
    13
 74
     0
 42
0.0000000022983437
 43
0.0000000001
 40
0.0
 40
0.0
 40
0.0
 40
0.0
 40
0.0
 40
0.0
 40
0.1261261261259136
 40
0.2477477477469933
 40
0.3738738738729072
 40
0.4999999999988207
 40
0.6261261261270927
 40
0.7477477477481725
 40
0.8738738738740864
 40
1.0
 40
1.0
 40
1.0
 40
1.0
 40
1.0
 40
1.0
 10
408.5220222887642
 20
742.9885341853835
 30
0.0
 41
1.0
 10
408.6289973821799
 20
742.9885350914905
 30
0.0
 41
1.0
 10
408.8391280345848
 20
743.0093541949205
 30
0.0
 41
1.0
 10
409.1480820489981
 20
743.1024780883124
 30
0.0
 41
1.0
 10
409.5124530428983
 20
743.3450121224964
 30
0.0
 41
1.0
 10
409.8180496263942
 20
743.8004359987444
 30
0.0
 41
1.0
 10
409.9251246122103
 20
744.3344817029545
 30
0.0
 41
1.0
 10
409.8192844395153
 20
744.8725840987904
 30
0.0
 41
1.0
 10
409.5151183495703
 20
745.3287614808265
 30
0.0
 41
1.0
 10
409.1521501612443
 20
745.5729608947324
 30
0.0
 41
1.0
 10
408.8424327134132
 20
745.6669249853715
 30
0.0
 41
1.0
 10
408.6294412999883
 20
745.6883318921484
 30
0.0
 41
1.0
 10
408.5220226010563
 20
745.6883318921484
 30
0.0
 41
1.0
  0
SPLINE
  5
10C
330
9A
100
AcDbEntity
  8
$DDT_AUDIT_GENERATED_(D9)
  6
Continuous
 62
     7
100
AcDbSpline
210
0.0
220
0.0
230
1.0
 70
    12
 71
     5
 72
    19
 73
    13
 74
     0
 42
0.0000000022984387
 43
0.0000000001
 40
0.0
 40
0.0
 40
0.0
 40
0.0
 40
0.0
 40
0.0
 40
0.1272727272727165
 40
0.2499999999994104
 40
0.3727272727276372
 40
0.4999999999988208
 40
0.6272727272723627
 40
0.7500000000005896
 40
0.8727272727264579
 40
1.0
 40
1.0
 40
1.0
 40
1.0
 40
1.0
 40
1.0
 10
422.5220276010564
 20
730.6883343921484
 30
0.0
 41
1.0
 10
422.4136358684313
 20
730.6883343921484
 30
0.0
 41
1.0
 10
422.2025506034283
 20
730.6669307034315
 30
0.0
 41
1.0
 10
421.8937800217253
 20
730.5735091926915
 30
0.0
 41
1.0
 10
421.5305334415993
 20
730.3300778154145
 30
0.0
 41
1.0
 10
421.2249749601303
 20
729.8736501753824
 30
0.0
 41
1.0
 10
421.1187099331303
 20
729.3383671332915
 30
0.0
 41
1.0
 10
421.2250681339793
 20
728.8032164785905
 30
0.0
 41
1.0
 10
421.5303018867382
 20
728.3466202141965
 30
0.0
 41
1.0
 10
421.8941751893606
 20
728.1034140488415
 30
0.0
 41
1.0
 10
422.2020428887815
 20
728.0097355068796
 30
0.0
 41
1.0
 10
422.4140846137949
 20
727.9885378735964
 30
0.0
 41
1.0
 10
422.5220314384608
 20
727.9885373827734
 30
0.0
 41
1.0
  0
SPLINE
  5
10D
330
9A
100
AcDbEntity
  8
$DDT_AUDIT_GENERATED_(D9)
  6
Continuous
 62
     7
100
AcDbSpline
210
0.0
220
0.0
230
1.0
 70
    12
 71
     5
 72
    19
 73
    13
 74
     0
 42
0.0000000022979082
 43
0.0000000001
 40
0.0
 40
0.0
 40
0.0
 40
0.0
 40
0.0
 40
0.0
 40
0.1227272727282268
 40
0.2499999999994106
 40
0.3727272727276371
 40
0.4999999999988207
 40
0.6272727272723628
 40
0.7500000000005895
 40
0.8772727272717732
 40
1.0
 40
1.0
 40
1.0
 40
1.0
 40
1.0
 40
1.0
 10
422.5220314384608
 20
727.9885373827734
 30
0.0
 41
1.0
 10
422.6261230193887
 20
727.9885369094785
 30
0.0
 41
1.0
 10
422.8381582241097
 20
728.0089755906265
 30
0.0
 41
1.0
 10
423.1462923656558
 20
728.1015248862535
 30
0.0
 41
1.0
 10
423.5112106837203
 20
728.3434658028584
 30
0.0
 41
1.0
 10
423.8181871375822
 20
728.7993121825434
 30
0.0
 41
1.0
 10
423.9253636481652
 20
729.3383619856825
 30
0.0
 41
1.0
 10
423.8182865859963
 20
729.8775666989534
 30
0.0
 41
1.0
 10
423.5109638718513
 20
730.3332163814704
 30
0.0
 41
1.0
 10
423.1467103779373
 20
730.5754144519166
 30
0.0
 41
1.0
 10
422.8376292730223
 20
730.6676817339786
 30
0.0
 41
1.0
 10
422.6265803170273
 20
730.6883343921484
 30
0.0
 41
1.0
 10
422.5220276010564
 20
730.6883343921484
 30
0.0
 41
1.0
  0
SPLINE
  5
10E
330
9A
100
AcDbEntity
  8
$DDT_AUDIT_GENERATED_(D9)
  6
Continuous
 62
     7
100
AcDbSpline
210
0.0
220
0.0
230
1.0
 70
    12
 71
     5
 72
    19
 73
    13
 74
     0
 42
0.0000000022984387
 43
0.0000000001
 40
0.0
 40
0.0
 40
0.0
 40
0.0
 40
0.0
 40
0.0
 40
0.1272727272727165
 40
0.2499999999994104
 40
0.3727272727276372
 40
0.4999999999988208
 40
0.6272727272723627
 40
0.7500000000005896
 40
0.8727272727264579
 40
1.0
 40
1.0
 40
1.0
 40
1.0
 40
1.0
 40
1.0
 10
422.5220276010564
 20
723.1883303921995
 30
0.0
 41
1.0
 10
422.4136358684313
 20
723.1883303921995
 30
0.0
 41
1.0
 10
422.2025506034283
 20
723.1669267034824
 30
0.0
 41
1.0
 10
421.8937800217253
 20
723.0735051927435
 30
0.0
 41
1.0
 10
421.5305334415993
 20
722.8300738154654
 30
0.0
 41
1.0
 10
421.2249749601303
 20
722.3736461754336
 30
0.0
 41
1.0
 10
421.1187099331303
 20
721.8383631333435
 30
0.0
 41
1.0
 10
421.2250681339793
 20
721.3032124786425
 30
0.0
 41
1.0
 10
421.5303018867382
 20
720.8466162142475
 30
0.0
 41
1.0
 10
421.8941751893606
 20
720.6034100488926
 30
0.0
 41
1.0
 10
422.2020428887815
 20
720.5097315069304
 30
0.0
 41
1.0
 10
422.4140846137949
 20
720.4885338736484
 30
0.0
 41
1.0
 10
422.5220314384608
 20
720.4885333828245
 30
0.0
 41
1.0
  0
SPLINE
  5
10F
330
9A
100
AcDbEntity
  8
$DDT_AUDIT_GENERATED_(D9)
  6
Continuous
 62
     7
100
AcDbSpline
210
0.0
220
0.0
230
1.0
 70
    12
 71
     5
 72
    19
 73
    13
 74
     0
 42
0.0000000022979082
 43
0.0000000001
 40
0.0
 40
0.0
 40
0.0
 40
0.0
 40
0.0
 40
0.0
 40
0.1227272727282268
 40
0.2499999999994106
 40
0.3727272727276371
 40
0.4999999999988207
 40
0.6272727272723628
 40
0.7500000000005895
 40
0.8772727272717732
 40
1.0
 40
1.0
 40
1.0
 40
1.0
 40
1.0
 40
1.0
 10
422.5220314384608
 20
720.4885333828245
 30
0.0
 41
1.0
 10
422.6261230193887
 20
720.4885329095305
 30
0.0
 41
1.0
 10
422.8381582241097
 20
720.5089715906785
 30
0.0
 41
1.0
 10
423.1462923656558
 20
720.6015208863055
 30
0.0
 41
1.0
 10
423.5112106837203
 20
720.8434618029095
 30
0.0
 41
1.0
 10
423.8181871375822
 20
721.2993081825955
 30
0.0
 41
1.0
 10
423.9253636481652
 20
721.8383579857344
 30
0.0
 41
1.0
 10
423.8182865859963
 20
722.3775626990055
 30
0.0
 41
1.0
 10
423.5109638718513
 20
722.8332123815215
 30
0.0
 41
1.0
 10
423.1467103779373
 20
723.0754104519674
 30
0.0
 41
1.0
 10
422.8376292730223
 20
723.1676777340305
 30
0.0
 41
1.0
 10
422.6265803170273
 20
723.1883303921995
 30
0.0
 41
1.0
 10
422.5220276010564
 20
723.1883303921995
 30
0.0
 41
1.0
  0
SPLINE
  5
110
330
9A
100
AcDbEntity
  8
$DDT_AUDIT_GENERATED_(D9)
  6
Continuous
 62
     7
100
AcDbSpline
210
0.0
220
0.0
230
1.0
 70
    12
 71
     5
 72
    19
 73
    13
 74
     0
 42
0.0000000022983432
 43
0.0000000001
 40
0.0
 40
0.0
 40
0.0
 40
0.0
 40
0.0
 40
0.0
 40
0.1261261261261259
 40
0.2477477477469935
 40
0.373873873872907
 40
0.4999999999988208
 40
0.6261261261270928
 40
0.7477477477481727
 40
0.8738738738740862
 40
1.0
 40
1.0
 40
1.0
 40
1.0
 40
1.0
 40
1.0
 10
408.5220226010563
 20
760.6883318921484
 30
0.0
 41
1.0
 10
408.4146006150823
 20
760.6883318921484
 30
0.0
 41
1.0
 10
408.2054257797653
 20
760.6673113694465
 30
0.0
 41
1.0
 10
407.8955598325603
 20
760.5744365836555
 30
0.0
 41
1.0
 10
407.5318306344143
 20
760.3316817498464
 30
0.0
 41
1.0
 10
407.2258996338282
 20
759.8764272591415
 30
0.0
 41
1.0
 10
407.1189201136353
 20
759.3422437408115
 30
0.0
 41
1.0
 10
407.2248565239863
 20
758.8042847268495
 30
0.0
 41
1.0
 10
407.5286878142893
 20
758.3479186325685
 30
0.0
 41
1.0
 10
407.8923013360086
 20
758.1039728698354
 30
0.0
 41
1.0
 10
408.2010980314075
 20
758.0097272874356
 30
0.0
 41
1.0
 10
408.4150471953486
 20
757.9885332792775
 30
0.0
 41
1.0
 10
408.5220222887642
 20
757.9885341853835
 30
0.0
 41
1.0
  0
SPLINE
  5
111
330
9A
100
AcDbEntity
  8
$DDT_AUDIT_GENERATED_(D9)
  6
Continuous
 62
     7
100
AcDbSpline
210
0.0
220
0.0
230
1.0
 70
    12
 71
     5
 72
    19
 73
    13
 74
     0
 42
0.0000000022983437
 43
0.0000000001
 40
0.0
 40
0.0
 40
0.0
 40
0.0
 40
0.0
 40
0.0
 40
0.1261261261259136
 40
0.2477477477469933
 40
0.3738738738729072
 40
0.4999999999988207
 40
0.6261261261270927
 40
0.7477477477481725
 40
0.8738738738740864
 40
1.0
 40
1.0
 40
1.0
 40
1.0
 40
1.0
 40
1.0
 10
408.5220222887642
 20
757.9885341853835
 30
0.0
 41
1.0
 10
408.6289973821799
 20
757.9885350914906
 30
0.0
 41
1.0
 10
408.8391280345848
 20
758.0093541949204
 30
0.0
 41
1.0
 10
409.1480820489981
 20
758.1024780883124
 30
0.0
 41
1.0
 10
409.5124530428983
 20
758.3450121224955
 30
0.0
 41
1.0
 10
409.8180496263942
 20
758.8004359987435
 30
0.0
 41
1.0
 10
409.9251246122103
 20
759.3344817029545
 30
0.0
 41
1.0
 10
409.8192844395153
 20
759.8725840987905
 30
0.0
 41
1.0
 10
409.5151183495703
 20
760.3287614808265
 30
0.0
 41
1.0
 10
409.1521501612443
 20
760.5729608947324
 30
0.0
 41
1.0
 10
408.8424327134132
 20
760.6669249853715
 30
0.0
 41
1.0
 10
408.6294412999883
 20
760.6883318921484
 30
0.0
 41
1.0
 10
408.5220226010563
 20
760.6883318921484
 30
0.0
 41
1.0
  0
SPLINE
  5
112
330
9A
100
AcDbEntity
  8
$DDT_AUDIT_GENERATED_(D9)
  6
Continuous
 62
     7
100
AcDbSpline
210
0.0
220
0.0
230
1.0
 70
    12
 71
     5
 72
    19
 73
    13
 74
     0
 42
0.0000000022984387
 43
0.0000000001
 40
0.0
 40
0.0
 40
0.0
 40
0.0
 40
0.0
 40
0.0
 40
0.1272727272727165
 40
0.2499999999994104
 40
0.3727272727276372
 40
0.4999999999988208
 40
0.6272727272723627
 40
0.7500000000005896
 40
0.8727272727264579
 40
1.0
 40
1.0
 40
1.0
 40
1.0
 40
1.0
 40
1.0
 10
422.5220276010564
 20
745.6883343921486
 30
0.0
 41
1.0
 10
422.4136358684313
 20
745.6883343921486
 30
0.0
 41
1.0
 10
422.2025506034283
 20
745.6669307034315
 30
0.0
 41
1.0
 10
421.8937800217253
 20
745.5735091926914
 30
0.0
 41
1.0
 10
421.5305334415993
 20
745.3300778154145
 30
0.0
 41
1.0
 10
421.2249749601303
 20
744.8736501753825
 30
0.0
 41
1.0
 10
421.1187099331303
 20
744.3383671332915
 30
0.0
 41
1.0
 10
421.2250681339793
 20
743.8032164785903
 30
0.0
 41
1.0
 10
421.5303018867382
 20
743.3466202141965
 30
0.0
 41
1.0
 10
421.8941751893606
 20
743.1034140488415
 30
0.0
 41
1.0
 10
422.2020428887815
 20
743.0097355068795
 30
0.0
 41
1.0
 10
422.4140846137949
 20
742.9885378735966
 30
0.0
 41
1.0
 10
422.5220314384608
 20
742.9885373827735
 30
0.0
 41
1.0
  0
SPLINE
  5
113
330
9A
100
AcDbEntity
  8
$DDT_AUDIT_GENERATED_(D9)
  6
Continuous
 62
     7
100
AcDbSpline
210
0.0
220
0.0
230
1.0
 70
    12
 71
     5
 72
    19
 73
    13
 74
     0
 42
0.0000000022979082
 43
0.0000000001
 40
0.0
 40
0.0
 40
0.0
 40
0.0
 40
0.0
 40
0.0
 40
0.1227272727282268
 40
0.2499999999994106
 40
0.3727272727276371
 40
0.4999999999988207
 40
0.6272727272723628
 40
0.7500000000005895
 40
0.8772727272717732
 40
1.0
 40
1.0
 40
1.0
 40
1.0
 40
1.0
 40
1.0
 10
422.5220314384608
 20
742.9885373827735
 30
0.0
 41
1.0
 10
422.6261230193887
 20
742.9885369094784
 30
0.0
 41
1.0
 10
422.8381582241097
 20
743.0089755906264
 30
0.0
 41
1.0
 10
423.1462923656558
 20
743.1015248862535
 30
0.0
 41
1.0
 10
423.5112106837203
 20
743.3434658028585
 30
0.0
 41
1.0
 10
423.8181871375822
 20
743.7993121825434
 30
0.0
 41
1.0
 10
423.9253636481652
 20
744.3383619856825
 30
0.0
 41
1.0
 10
423.8182865859963
 20
744.8775666989535
 30
0.0
 41
1.0
 10
423.5109638718513
 20
745.3332163814705
 30
0.0
 41
1.0
 10
423.1467103779373
 20
745.5754144519154
 30
0.0
 41
1.0
 10
422.8376292730223
 20
745.6676817339785
 30
0.0
 41
1.0
 10
422.6265803170273
 20
745.6883343921486
 30
0.0
 41
1.0
 10
422.5220276010564
 20
745.6883343921486
 30
0.0
 41
1.0
  0
SPLINE
  5
114
330
9A
100
AcDbEntity
  8
$DDT_AUDIT_GENERATED_(D9)
  6
Continuous
 62
     7
100
AcDbSpline
210
0.0
220
0.0
230
1.0
 70
    12
 71
     5
 72
    19
 73
    13
 74
     0
 42
0.0000000022983432
 43
0.0000000001
 40
0.0
 40
0.0
 40
0.0
 40
0.0
 40
0.0
 40
0.0
 40
0.1261261261261259
 40
0.2477477477469935
 40
0.373873873872907
 40
0.4999999999988208
 40
0.6261261261270928
 40
0.7477477477481727
 40
0.8738738738740862
 40
1.0
 40
1.0
 40
1.0
 40
1.0
 40
1.0
 40
1.0
 10
408.5220226010563
 20
723.1883278921995
 30
0.0
 41
1.0
 10
408.4146006150823
 20
723.1883278921995
 30
0.0
 41
1.0
 10
408.2054257797653
 20
723.1673073694984
 30
0.0
 41
1.0
 10
407.8955598325603
 20
723.0744325837076
 30
0.0
 41
1.0
 10
407.5318306344143
 20
722.8316777498984
 30
0.0
 41
1.0
 10
407.2258996338282
 20
722.3764232591935
 30
0.0
 41
1.0
 10
407.1189201136353
 20
721.8422397408625
 30
0.0
 41
1.0
 10
407.2248565239863
 20
721.3042807269014
 30
0.0
 41
1.0
 10
407.5286878142893
 20
720.8479146326206
 30
0.0
 41
1.0
 10
407.8923013360086
 20
720.6039688698876
 30
0.0
 41
1.0
 10
408.2010980314075
 20
720.5097232874875
 30
0.0
 41
1.0
 10
408.4150471953486
 20
720.4885292793294
 30
0.0
 41
1.0
 10
408.5220222887642
 20
720.4885301854355
 30
0.0
 41
1.0
  0
SPLINE
  5
115
330
9A
100
AcDbEntity
  8
$DDT_AUDIT_GENERATED_(D9)
  6
Continuous
 62
     7
100
AcDbSpline
210
0.0
220
0.0
230
1.0
 70
    12
 71
     5
 72
    19
 73
    13
 74
     0
 42
0.0000000022983437
 43
0.0000000001
 40
0.0
 40
0.0
 40
0.0
 40
0.0
 40
0.0
 40
0.0
 40
0.1261261261259136
 40
0.2477477477469933
 40
0.3738738738729072
 40
0.4999999999988207
 40
0.6261261261270927
 40
0.7477477477481725
 40
0.8738738738740864
 40
1.0
 40
1.0
 40
1.0
 40
1.0
 40
1.0
 40
1.0
 10
408.5220222887642
 20
720.4885301854355
 30
0.0
 41
1.0
 10
408.6289973821799
 20
720.4885310915425
 30
0.0
 41
1.0
 10
408.8391280345848
 20
720.5093501949724
 30
0.0
 41
1.0
 10
409.1480820489981
 20
720.6024740883645
 30
0.0
 41
1.0
 10
409.5124530428983
 20
720.8450081225475
 30
0.0
 41
1.0
 10
409.8180496263942
 20
721.3004319987955
 30
0.0
 41
1.0
 10
409.9251246122103
 20
721.8344777030054
 30
0.0
 41
1.0
 10
409.8192844395153
 20
722.3725800988425
 30
0.0
 41
1.0
 10
409.5151183495703
 20
722.8287574808785
 30
0.0
 41
1.0
 10
409.1521501612443
 20
723.0729568947845
 30
0.0
 41
1.0
 10
408.8424327134132
 20
723.1669209854234
 30
0.0
 41
1.0
 10
408.6294412999883
 20
723.1883278921995
 30
0.0
 41
1.0
 10
408.5220226010563
 20
723.1883278921995
 30
0.0
 41
1.0
  0
SPLINE
  5
116
330
9A
100
AcDbEntity
  8
$DDT_AUDIT_GENERATED_(D9)
  6
Continuous
 62
     7
100
AcDbSpline
210
0.0
220
0.0
230
1.0
 70
    12
 71
     5
 72
    19
 73
    13
 74
     0
 42
0.0000000022979788
 43
0.0000000001
 40
0.0
 40
0.0
 40
0.0
 40
0.0
 40
0.0
 40
0.0
 40
0.1227272727272599
 40
0.2499999999994104
 40
0.3772727272729524
 40
0.4999999999988208
 40
0.6272727272723627
 40
0.7500000000005896
 40
0.8772727272717731
 40
1.0
 40
1.0
 40
1.0
 40
1.0
 40
1.0
 40
1.0
 10
413.2720241010562
 20
723.1883293921994
 30
0.0
 41
1.0
 10
413.1674787559303
 20
723.1883293921994
 30
0.0
 41
1.0
 10
412.9564122979504
 20
723.1676845219674
 30
0.0
 41
1.0
 10
412.6435813492762
 20
723.0742630875044
 30
0.0
 41
1.0
 10
412.2799284531092
 20
722.8306789027495
 30
0.0
 41
1.0
 10
411.9741769838863
 20
722.3737184969506
 30
0.0
 41
1.0
 10
411.8691227532153
 20
721.8343303639995
 30
0.0
 41
1.0
 10
411.9780831384433
 20
721.2959874732605
 30
0.0
 41
1.0
 10
412.2828442617213
 20
720.8434720924886
 30
0.0
 41
1.0
 10
412.647758857579
 20
720.6015151617155
 30
0.0
 41
1.0
 10
412.9558928917493
 20
720.5089703531744
 30
0.0
 41
1.0
 10
413.1679284745783
 20
720.4885326939705
 30
0.0
 41
1.0
 10
413.2720202483796
 20
720.4885331796635
 30
0.0
 41
1.0
  0
SPLINE
  5
117
330
9A
100
AcDbEntity
  8
$DDT_AUDIT_GENERATED_(D9)
  6
Continuous
 62
     7
100
AcDbSpline
210
0.0
220
0.0
230
1.0
 70
    12
 71
     5
 72
    19
 73
    13
 74
     0
 42
0.0000000022985083
 43
0.0000000001
 40
0.0
 40
0.0
 40
0.0
 40
0.0
 40
0.0
 40
0.0
 40
0.1272727272735419
 40
0.2499999999994106
 40
0.3727272727276371
 40
0.4999999999988207
 40
0.6227272727270475
 40
0.7500000000005895
 40
0.8727272727264579
 40
1.0
 40
1.0
 40
1.0
 40
1.0
 40
1.0
 40
1.0
 10
413.2720202483796
 20
720.4885331796635
 30
0.0
 41
1.0
 10
413.3799672730623
 20
720.4885336833464
 30
0.0
 41
1.0
 10
413.5920094062952
 20
720.5097303082874
 30
0.0
 41
1.0
 10
413.8998771098284
 20
720.6034042540745
 30
0.0
 41
1.0
 10
414.2637463308193
 20
720.8466265370274
 30
0.0
 41
1.0
 10
414.5667779312853
 20
721.2998863479685
 30
0.0
 41
1.0
 10
414.6749069503823
 20
721.8343357798215
 30
0.0
 41
1.0
 10
414.5706504625563
 20
722.3698003345864
 30
0.0
 41
1.0
 10
414.2666666476413
 20
722.8275292847445
 30
0.0
 41
1.0
 10
413.9040283562243
 20
723.0723443357225
 30
0.0
 41
1.0
 10
413.5915103170242
 20
723.1669332545574
 30
0.0
 41
1.0
 10
413.3804094627113
 20
723.1883293921994
 30
0.0
 41
1.0
 10
413.2720241010562
 20
723.1883293921994
 30
0.0
 41
1.0
  0
SPLINE
  5
118
330
9A
100
AcDbEntity
  8
$DDT_AUDIT_GENERATED_(D9)
  6
Continuous
 62
     7
100
AcDbSpline
210
0.0
220
0.0
230
1.0
 70
    12
 71
     5
 72
    19
 73
    13
 74
     0
 42
0.0000000022982466
 43
0.0000000001
 40
0.0
 40
0.0
 40
0.0
 40
0.0
 40
0.0
 40
0.0
 40
0.1227272727271484
 40
0.2499999999994104
 40
0.3727272727278088
 40
0.4999999999988208
 40
0.6227272727272191
 40
0.749999999998231
 40
0.8727272727266294
 40
1.0
 40
1.0
 40
1.0
 40
1.0
 40
1.0
 40
1.0
 10
417.7720256010563
 20
730.6883333921485
 30
0.0
 41
1.0
 10
417.6674712825323
 20
730.6883333921485
 30
0.0
 41
1.0
 10
417.4564304989643
 20
730.6676773788055
 30
0.0
 41
1.0
 10
417.1473306424973
 20
730.5754216270554
 30
0.0
 41
1.0
 10
416.7831072672603
 20
730.3332026491505
 30
0.0
 41
1.0
 10
416.4779739136353
 20
729.8808841163975
 30
0.0
 41
1.0
 10
416.3691399950293
 20
729.3423912072545
 30
0.0
 41
1.0
 10
416.4734949102693
 20
728.8070579219506
 30
0.0
 41
1.0
 10
416.7771498870703
 20
728.3491722718595
 30
0.0
 41
1.0
 10
417.1404187725598
 20
728.1045616374595
 30
0.0
 41
1.0
 10
417.4520401611309
 20
728.0097383251544
 30
0.0
 41
1.0
 10
417.6640822344972
 20
727.9885383460424
 30
0.0
 41
1.0
 10
417.7720292963164
 20
727.9885369662824
 30
0.0
 41
1.0
  0
SPLINE
  5
119
330
9A
100
AcDbEntity
  8
$DDT_AUDIT_GENERATED_(D9)
  6
Continuous
 62
     7
100
AcDbSpline
210
0.0
220
0.0
230
1.0
 70
    12
 71
     5
 72
    19
 73
    13
 74
     0
 42
0.0000000022982483
 43
0.0000000001
 40
0.0
 40
0.0
 40
0.0
 40
0.0
 40
0.0
 40
0.0
 40
0.1227272727263293
 40
0.2500000000000001
 40
0.372727272726329
 40
0.4999999999999999
 40
0.6227272727263291
 40
0.7499999999999999
 40
0.8727272727263291
 40
1.0
 40
1.0
 40
1.0
 40
1.0
 40
1.0
 40
1.0
 10
417.7720292963164
 20
727.9885369662824
 30
0.0
 41
1.0
 10
417.876121105926
 20
727.9885356358004
 30
0.0
 41
1.0
 10
418.0881568897742
 20
728.0089731491115
 30
0.0
 41
1.0
 10
418.3962913124178
 20
728.1015252880395
 30
0.0
 41
1.0
 10
418.7612030472893
 20
728.3434735501994
 30
0.0
 41
1.0
 10
419.0659691201903
 20
728.7959922371894
 30
0.0
 41
1.0
 10
419.1749216887893
 20
729.3343382415545
 30
0.0
 41
1.0
 10
419.0706413940492
 20
729.8698063038455
 30
0.0
 41
1.0
 10
418.7666763730633
 20
730.3275319500615
 30
0.0
 41
1.0
 10
418.4040237470793
 20
730.5723493795695
 30
0.0
 41
1.0
 10
418.0915143960103
 20
730.6669368353224
 30
0.0
 41
1.0
 10
417.8804106145543
 20
730.6883333921485
 30
0.0
 41
1.0
 10
417.7720256010563
 20
730.6883333921485
 30
0.0
 41
1.0
  0
SPLINE
  5
11A
330
9A
100
AcDbEntity
  8
$DDT_AUDIT_GENERATED_(D9)
  6
Continuous
 62
     7
100
AcDbSpline
210
0.0
220
0.0
230
1.0
 70
    12
 71
     5
 72
    19
 73
    13
 74
     0
 42
0.0000000022983432
 43
0.0000000001
 40
0.0
 40
0.0
 40
0.0
 40
0.0
 40
0.0
 40
0.0
 40
0.1261261261261259
 40
0.2477477477469935
 40
0.373873873872907
 40
0.4999999999988208
 40
0.6261261261270928
 40
0.7477477477481727
 40
0.8738738738740862
 40
1.0
 40
1.0
 40
1.0
 40
1.0
 40
1.0
 40
1.0
 10
408.5220226010563
 20
775.6883150313835
 30
0.0
 41
1.0
 10
408.4146006150823
 20
775.6883150313835
 30
0.0
 41
1.0
 10
408.2054257797653
 20
775.6672945086824
 30
0.0
 41
1.0
 10
407.8955598325603
 20
775.5744197228904
 30
0.0
 41
1.0
 10
407.5318306344143
 20
775.3316648890825
 30
0.0
 41
1.0
 10
407.2258996338282
 20
774.8764103983765
 30
0.0
 41
1.0
 10
407.1189201136353
 20
774.3422268800464
 30
0.0
 41
1.0
 10
407.2248565239863
 20
773.8042678660855
 30
0.0
 41
1.0
 10
407.5286878142893
 20
773.3479017718045
 30
0.0
 41
1.0
 10
407.8923013360086
 20
773.1039560090715
 30
0.0
 41
1.0
 10
408.2010980314075
 20
773.0097104266715
 30
0.0
 41
1.0
 10
408.4150471953486
 20
772.9885164185124
 30
0.0
 41
1.0
 10
408.5220222887642
 20
772.9885173246195
 30
0.0
 41
1.0
  0
SPLINE
  5
11B
330
9A
100
AcDbEntity
  8
$DDT_AUDIT_GENERATED_(D9)
  6
Continuous
 62
     7
100
AcDbSpline
210
0.0
220
0.0
230
1.0
 70
    12
 71
     5
 72
    19
 73
    13
 74
     0
 42
0.0000000022983437
 43
0.0000000001
 40
0.0
 40
0.0
 40
0.0
 40
0.0
 40
0.0
 40
0.0
 40
0.1261261261259136
 40
0.2477477477469933
 40
0.3738738738729072
 40
0.4999999999988207
 40
0.6261261261270927
 40
0.7477477477481725
 40
0.8738738738740864
 40
1.0
 40
1.0
 40
1.0
 40
1.0
 40
1.0
 40
1.0
 10
408.5220222887642
 20
772.9885173246195
 30
0.0
 41
1.0
 10
408.6289973821799
 20
772.9885182307255
 30
0.0
 41
1.0
 10
408.8391280345848
 20
773.0093373341565
 30
0.0
 41
1.0
 10
409.1480820489981
 20
773.1024612275485
 30
0.0
 41
1.0
 10
409.5124530428983
 20
773.3449952617315
 30
0.0
 41
1.0
 10
409.8180496263942
 20
773.8004191379795
 30
0.0
 41
1.0
 10
409.9251246122103
 20
774.3344648421895
 30
0.0
 41
1.0
 10
409.8192844395153
 20
774.8725672380265
 30
0.0
 41
1.0
 10
409.5151183495703
 20
775.3287446200625
 30
0.0
 41
1.0
 10
409.1521501612443
 20
775.5729440339685
 30
0.0
 41
1.0
 10
408.8424327134132
 20
775.6669081246065
 30
0.0
 41
1.0
 10
408.6294412999883
 20
775.6883150313835
 30
0.0
 41
1.0
 10
408.5220226010563
 20
775.6883150313835
 30
0.0
 41
1.0
  0
SPLINE
  5
11C
330
9A
100
AcDbEntity
  8
$DDT_AUDIT_GENERATED_(D9)
  6
Continuous
 62
     7
100
AcDbSpline
210
0.0
220
0.0
230
1.0
 70
    12
 71
     5
 72
    19
 73
    13
 74
     0
 42
0.0000000022979788
 43
0.0000000001
 40
0.0
 40
0.0
 40
0.0
 40
0.0
 40
0.0
 40
0.0
 40
0.1227272727272599
 40
0.2499999999994104
 40
0.3772727272729524
 40
0.4999999999988208
 40
0.6272727272723627
 40
0.7500000000005896
 40
0.8772727272717731
 40
1.0
 40
1.0
 40
1.0
 40
1.0
 40
1.0
 40
1.0
 10
413.2720241010562
 20
730.6883333921485
 30
0.0
 41
1.0
 10
413.1674787559303
 20
730.6883333921485
 30
0.0
 41
1.0
 10
412.9564122979504
 20
730.6676885219166
 30
0.0
 41
1.0
 10
412.6435813492762
 20
730.5742670874524
 30
0.0
 41
1.0
 10
412.2799284531092
 20
730.3306829026985
 30
0.0
 41
1.0
 10
411.9741769838863
 20
729.8737224968994
 30
0.0
 41
1.0
 10
411.8691227532153
 20
729.3343343639484
 30
0.0
 41
1.0
 10
411.9780831384433
 20
728.7959914732085
 30
0.0
 41
1.0
 10
412.2828442617213
 20
728.3434760924374
 30
0.0
 41
1.0
 10
412.647758857579
 20
728.1015191616635
 30
0.0
 41
1.0
 10
412.9558928917493
 20
728.0089743531224
 30
0.0
 41
1.0
 10
413.1679284745783
 20
727.9885366939185
 30
0.0
 41
1.0
 10
413.2720202483796
 20
727.9885371796115
 30
0.0
 41
1.0
  0
SPLINE
  5
11D
330
9A
100
AcDbEntity
  8
$DDT_AUDIT_GENERATED_(D9)
  6
Continuous
 62
     7
100
AcDbSpline
210
0.0
220
0.0
230
1.0
 70
    12
 71
     5
 72
    19
 73
    13
 74
     0
 42
0.0000000022985083
 43
0.0000000001
 40
0.0
 40
0.0
 40
0.0
 40
0.0
 40
0.0
 40
0.0
 40
0.1272727272735419
 40
0.2499999999994106
 40
0.3727272727276371
 40
0.4999999999988207
 40
0.6227272727270475
 40
0.7500000000005895
 40
0.8727272727264579
 40
1.0
 40
1.0
 40
1.0
 40
1.0
 40
1.0
 40
1.0
 10
413.2720202483796
 20
727.9885371796115
 30
0.0
 41
1.0
 10
413.3799672730623
 20
727.9885376832945
 30
0.0
 41
1.0
 10
413.5920094062952
 20
728.0097343082355
 30
0.0
 41
1.0
 10
413.8998771098284
 20
728.1034082540225
 30
0.0
 41
1.0
 10
414.2637463308193
 20
728.3466305369755
 30
0.0
 41
1.0
 10
414.5667779312853
 20
728.7998903479165
 30
0.0
 41
1.0
 10
414.6749069503823
 20
729.3343397797695
 30
0.0
 41
1.0
 10
414.5706504625563
 20
729.8698043345355
 30
0.0
 41
1.0
 10
414.2666666476413
 20
730.3275332846935
 30
0.0
 41
1.0
 10
413.9040283562243
 20
730.5723483356714
 30
0.0
 41
1.0
 10
413.5915103170242
 20
730.6669372545065
 30
0.0
 41
1.0
 10
413.3804094627113
 20
730.6883333921485
 30
0.0
 41
1.0
 10
413.2720241010562
 20
730.6883333921485
 30
0.0
 41
1.0
  0
SPLINE
  5
11E
330
9A
100
AcDbEntity
  8
$DDT_AUDIT_GENERATED_(D9)
  6
Continuous
 62
     7
100
AcDbSpline
210
0.0
220
0.0
230
1.0
 70
    12
 71
     5
 72
    19
 73
    13
 74
     0
 42
0.0000000022983432
 43
0.0000000001
 40
0.0
 40
0.0
 40
0.0
 40
0.0
 40
0.0
 40
0.0
 40
0.1261261261261259
 40
0.2477477477469935
 40
0.373873873872907
 40
0.4999999999988208
 40
0.6261261261270928
 40
0.7477477477481727
 40
0.8738738738740862
 40
1.0
 40
1.0
 40
1.0
 40
1.0
 40
1.0
 40
1.0
 10
408.5220226010563
 20
738.1883318921485
 30
0.0
 41
1.0
 10
408.4146006150823
 20
738.1883318921485
 30
0.0
 41
1.0
 10
408.2054257797653
 20
738.1673113694475
 30
0.0
 41
1.0
 10
407.8955598325603
 20
738.0744365836555
 30
0.0
 41
1.0
 10
407.5318306344143
 20
737.8316817498464
 30
0.0
 41
1.0
 10
407.2258996338282
 20
737.3764272591415
 30
0.0
 41
1.0
 10
407.1189201136353
 20
736.8422437408116
 30
0.0
 41
1.0
 10
407.2248565239863
 20
736.3042847268504
 30
0.0
 41
1.0
 10
407.5286878142893
 20
735.8479186325685
 30
0.0
 41
1.0
 10
407.8923013360086
 20
735.6039728698355
 30
0.0
 41
1.0
 10
408.2010980314075
 20
735.5097272874355
 30
0.0
 41
1.0
 10
408.4150471953486
 20
735.4885332792776
 30
0.0
 41
1.0
 10
408.5220222887642
 20
735.4885341853834
 30
0.0
 41
1.0
  0
SPLINE
  5
11F
330
9A
100
AcDbEntity
  8
$DDT_AUDIT_GENERATED_(D9)
  6
Continuous
 62
     7
100
AcDbSpline
210
0.0
220
0.0
230
1.0
 70
    12
 71
     5
 72
    19
 73
    13
 74
     0
 42
0.0000000022983437
 43
0.0000000001
 40
0.0
 40
0.0
 40
0.0
 40
0.0
 40
0.0
 40
0.0
 40
0.1261261261259136
 40
0.2477477477469933
 40
0.3738738738729072
 40
0.4999999999988207
 40
0.6261261261270927
 40
0.7477477477481725
 40
0.8738738738740864
 40
1.0
 40
1.0
 40
1.0
 40
1.0
 40
1.0
 40
1.0
 10
408.5220222887642
 20
735.4885341853834
 30
0.0
 41
1.0
 10
408.6289973821799
 20
735.4885350914905
 30
0.0
 41
1.0
 10
408.8391280345848
 20
735.5093541949204
 30
0.0
 41
1.0
 10
409.1480820489981
 20
735.6024780883125
 30
0.0
 41
1.0
 10
409.5124530428983
 20
735.8450121224955
 30
0.0
 41
1.0
 10
409.8180496263942
 20
736.3004359987435
 30
0.0
 41
1.0
 10
409.9251246122103
 20
736.8344817029543
 30
0.0
 41
1.0
 10
409.8192844395153
 20
737.3725840987905
 30
0.0
 41
1.0
 10
409.5151183495703
 20
737.8287614808265
 30
0.0
 41
1.0
 10
409.1521501612443
 20
738.0729608947325
 30
0.0
 41
1.0
 10
408.8424327134132
 20
738.1669249853715
 30
0.0
 41
1.0
 10
408.6294412999883
 20
738.1883318921485
 30
0.0
 41
1.0
 10
408.5220226010563
 20
738.1883318921485
 30
0.0
 41
1.0
  0
SPLINE
  5
120
330
9A
100
AcDbEntity
  8
$DDT_AUDIT_GENERATED_(D9)
  6
Continuous
 62
     7
100
AcDbSpline
210
0.0
220
0.0
230
1.0
 70
    12
 71
     5
 72
    19
 73
    13
 74
     0
 42
0.0000000022979788
 43
0.0000000001
 40
0.0
 40
0.0
 40
0.0
 40
0.0
 40
0.0
 40
0.0
 40
0.1227272727272599
 40
0.2499999999994104
 40
0.3772727272729524
 40
0.4999999999988208
 40
0.6272727272723627
 40
0.7500000000005896
 40
0.8772727272717731
 40
1.0
 40
1.0
 40
1.0
 40
1.0
 40
1.0
 40
1.0
 10
413.2720241010562
 20
760.6883333921485
 30
0.0
 41
1.0
 10
413.1674787559303
 20
760.6883333921485
 30
0.0
 41
1.0
 10
412.9564122979504
 20
760.6676885219165
 30
0.0
 41
1.0
 10
412.6435813492762
 20
760.5742670874524
 30
0.0
 41
1.0
 10
412.2799284531092
 20
760.3306829026985
 30
0.0
 41
1.0
 10
411.9741769838863
 20
759.8737224968994
 30
0.0
 41
1.0
 10
411.8691227532153
 20
759.3343343639485
 30
0.0
 41
1.0
 10
411.9780831384433
 20
758.7959914732086
 30
0.0
 41
1.0
 10
412.2828442617213
 20
758.3434760924365
 30
0.0
 41
1.0
 10
412.647758857579
 20
758.1015191616634
 30
0.0
 41
1.0
 10
412.9558928917493
 20
758.0089743531224
 30
0.0
 41
1.0
 10
413.1679284745783
 20
757.9885366939185
 30
0.0
 41
1.0
 10
413.2720202483796
 20
757.9885371796114
 30
0.0
 41
1.0
  0
SPLINE
  5
121
330
9A
100
AcDbEntity
  8
$DDT_AUDIT_GENERATED_(D9)
  6
Continuous
 62
     7
100
AcDbSpline
210
0.0
220
0.0
230
1.0
 70
    12
 71
     5
 72
    19
 73
    13
 74
     0
 42
0.0000000022985083
 43
0.0000000001
 40
0.0
 40
0.0
 40
0.0
 40
0.0
 40
0.0
 40
0.0
 40
0.1272727272735419
 40
0.2499999999994106
 40
0.3727272727276371
 40
0.4999999999988207
 40
0.6227272727270475
 40
0.7500000000005895
 40
0.8727272727264579
 40
1.0
 40
1.0
 40
1.0
 40
1.0
 40
1.0
 40
1.0
 10
413.2720202483796
 20
757.9885371796114
 30
0.0
 41
1.0
 10
413.3799672730623
 20
757.9885376832945
 30
0.0
 41
1.0
 10
413.5920094062952
 20
758.0097343082355
 30
0.0
 41
1.0
 10
413.8998771098284
 20
758.1034082540225
 30
0.0
 41
1.0
 10
414.2637463308193
 20
758.3466305369755
 30
0.0
 41
1.0
 10
414.5667779312853
 20
758.7998903479165
 30
0.0
 41
1.0
 10
414.6749069503823
 20
759.3343397797694
 30
0.0
 41
1.0
 10
414.5706504625563
 20
759.8698043345355
 30
0.0
 41
1.0
 10
414.2666666476413
 20
760.3275332846935
 30
0.0
 41
1.0
 10
413.9040283562243
 20
760.5723483356714
 30
0.0
 41
1.0
 10
413.5915103170242
 20
760.6669372545055
 30
0.0
 41
1.0
 10
413.3804094627113
 20
760.6883333921485
 30
0.0
 41
1.0
 10
413.2720241010562
 20
760.6883333921485
 30
0.0
 41
1.0
  0
SPLINE
  5
122
330
9A
100
AcDbEntity
  8
$DDT_AUDIT_GENERATED_(D9)
  6
Continuous
 62
     7
100
AcDbSpline
210
0.0
220
0.0
230
1.0
 70
    12
 71
     5
 72
    19
 73
    13
 74
     0
 42
0.0000000022982466
 43
0.0000000001
 40
0.0
 40
0.0
 40
0.0
 40
0.0
 40
0.0
 40
0.0
 40
0.1227272727271484
 40
0.2499999999994104
 40
0.3727272727278088
 40
0.4999999999988208
 40
0.6227272727272191
 40
0.749999999998231
 40
0.8727272727266294
 40
1.0
 40
1.0
 40
1.0
 40
1.0
 40
1.0
 40
1.0
 10
417.7720256010563
 20
745.6883333921485
 30
0.0
 41
1.0
 10
417.6674712825323
 20
745.6883333921485
 30
0.0
 41
1.0
 10
417.4564304989643
 20
745.6676773788055
 30
0.0
 41
1.0
 10
417.1473306424973
 20
745.5754216270554
 30
0.0
 41
1.0
 10
416.7831072672603
 20
745.3332026491505
 30
0.0
 41
1.0
 10
416.4779739136353
 20
744.8808841163974
 30
0.0
 41
1.0
 10
416.3691399950293
 20
744.3423912072544
 30
0.0
 41
1.0
 10
416.4734949102693
 20
743.8070579219504
 30
0.0
 41
1.0
 10
416.7771498870703
 20
743.3491722718585
 30
0.0
 41
1.0
 10
417.1404187725598
 20
743.1045616374594
 30
0.0
 41
1.0
 10
417.4520401611309
 20
743.0097383251544
 30
0.0
 41
1.0
 10
417.6640822344972
 20
742.9885383460424
 30
0.0
 41
1.0
 10
417.7720292963164
 20
742.9885369662825
 30
0.0
 41
1.0
  0
SPLINE
  5
123
330
9A
100
AcDbEntity
  8
$DDT_AUDIT_GENERATED_(D9)
  6
Continuous
 62
     7
100
AcDbSpline
210
0.0
220
0.0
230
1.0
 70
    12
 71
     5
 72
    19
 73
    13
 74
     0
 42
0.0000000022982483
 43
0.0000000001
 40
0.0
 40
0.0
 40
0.0
 40
0.0
 40
0.0
 40
0.0
 40
0.1227272727263293
 40
0.2500000000000001
 40
0.372727272726329
 40
0.4999999999999999
 40
0.6227272727263291
 40
0.7499999999999999
 40
0.8727272727263291
 40
1.0
 40
1.0
 40
1.0
 40
1.0
 40
1.0
 40
1.0
 10
417.7720292963164
 20
742.9885369662825
 30
0.0
 41
1.0
 10
417.876121105926
 20
742.9885356358004
 30
0.0
 41
1.0
 10
418.0881568897742
 20
743.0089731491114
 30
0.0
 41
1.0
 10
418.3962913124178
 20
743.1015252880395
 30
0.0
 41
1.0
 10
418.7612030472893
 20
743.3434735501995
 30
0.0
 41
1.0
 10
419.0659691201903
 20
743.7959922371895
 30
0.0
 41
1.0
 10
419.1749216887893
 20
744.3343382415545
 30
0.0
 41
1.0
 10
419.0706413940492
 20
744.8698063038455
 30
0.0
 41
1.0
 10
418.7666763730633
 20
745.3275319500606
 30
0.0
 41
1.0
 10
418.4040237470793
 20
745.5723493795693
 30
0.0
 41
1.0
 10
418.0915143960103
 20
745.6669368353225
 30
0.0
 41
1.0
 10
417.8804106145543
 20
745.6883333921485
 30
0.0
 41
1.0
 10
417.7720256010563
 20
745.6883333921485
 30
0.0
 41
1.0
  0
SPLINE
  5
124
330
9A
100
AcDbEntity
  8
$DDT_AUDIT_GENERATED_(D9)
  6
Continuous
 62
     7
100
AcDbSpline
210
0.0
220
0.0
230
1.0
 70
    12
 71
     5
 72
    19
 73
    13
 74
     0
 42
0.0000000022984387
 43
0.0000000001
 40
0.0
 40
0.0
 40
0.0
 40
0.0
 40
0.0
 40
0.0
 40
0.1272727272727165
 40
0.2499999999994104
 40
0.3727272727276372
 40
0.4999999999988208
 40
0.6272727272723627
 40
0.7500000000005896
 40
0.8727272727264579
 40
1.0
 40
1.0
 40
1.0
 40
1.0
 40
1.0
 40
1.0
 10
422.5220276010564
 20
768.1883343921485
 30
0.0
 41
1.0
 10
422.4136358684313
 20
768.1883343921485
 30
0.0
 41
1.0
 10
422.2025506034283
 20
768.1669307034315
 30
0.0
 41
1.0
 10
421.8937800217253
 20
768.0735091926915
 30
0.0
 41
1.0
 10
421.5305334415993
 20
767.8300778154145
 30
0.0
 41
1.0
 10
421.2249749601303
 20
767.3736501753825
 30
0.0
 41
1.0
 10
421.1187099331303
 20
766.8383671332914
 30
0.0
 41
1.0
 10
421.2250681339793
 20
766.3032164785905
 30
0.0
 41
1.0
 10
421.5303018867382
 20
765.8466202141965
 30
0.0
 41
1.0
 10
421.8941751893606
 20
765.6034140488415
 30
0.0
 41
1.0
 10
422.2020428887815
 20
765.5097355068795
 30
0.0
 41
1.0
 10
422.4140846137949
 20
765.4885378735975
 30
0.0
 41
1.0
 10
422.5220314384608
 20
765.4885373827734
 30
0.0
 41
1.0
  0
SPLINE
  5
125
330
9A
100
AcDbEntity
  8
$DDT_AUDIT_GENERATED_(D9)
  6
Continuous
 62
     7
100
AcDbSpline
210
0.0
220
0.0
230
1.0
 70
    12
 71
     5
 72
    19
 73
    13
 74
     0
 42
0.0000000022979082
 43
0.0000000001
 40
0.0
 40
0.0
 40
0.0
 40
0.0
 40
0.0
 40
0.0
 40
0.1227272727282268
 40
0.2499999999994106
 40
0.3727272727276371
 40
0.4999999999988207
 40
0.6272727272723628
 40
0.7500000000005895
 40
0.8772727272717732
 40
1.0
 40
1.0
 40
1.0
 40
1.0
 40
1.0
 40
1.0
 10
422.5220314384608
 20
765.4885373827734
 30
0.0
 41
1.0
 10
422.6261230193887
 20
765.4885369094795
 30
0.0
 41
1.0
 10
422.8381582241097
 20
765.5089755906265
 30
0.0
 41
1.0
 10
423.1462923656558
 20
765.6015248862535
 30
0.0
 41
1.0
 10
423.5112106837203
 20
765.8434658028584
 30
0.0
 41
1.0
 10
423.8181871375822
 20
766.2993121825434
 30
0.0
 41
1.0
 10
423.9253636481652
 20
766.8383619856825
 30
0.0
 41
1.0
 10
423.8182865859963
 20
767.3775666989535
 30
0.0
 41
1.0
 10
423.5109638718513
 20
767.8332163814705
 30
0.0
 41
1.0
 10
423.1467103779373
 20
768.0754144519165
 30
0.0
 41
1.0
 10
422.8376292730223
 20
768.1676817339784
 30
0.0
 41
1.0
 10
422.6265803170273
 20
768.1883343921485
 30
0.0
 41
1.0
 10
422.5220276010564
 20
768.1883343921485
 30
0.0
 41
1.0
  0
SPLINE
  5
126
330
9A
100
AcDbEntity
  8
$DDT_AUDIT_GENERATED_(D9)
  6
Continuous
 62
     7
100
AcDbSpline
210
0.0
220
0.0
230
1.0
 70
    12
 71
     5
 72
    19
 73
    13
 74
     0
 42
0.0000000022979788
 43
0.0000000001
 40
0.0
 40
0.0
 40
0.0
 40
0.0
 40
0.0
 40
0.0
 40
0.1227272727272599
 40
0.2499999999994104
 40
0.3772727272729524
 40
0.4999999999988208
 40
0.6272727272723627
 40
0.7500000000005896
 40
0.8772727272717731
 40
1.0
 40
1.0
 40
1.0
 40
1.0
 40
1.0
 40
1.0
 10
413.2720241010562
 20
775.6883165313835
 30
0.0
 41
1.0
 10
413.1674787559303
 20
775.6883165313835
 30
0.0
 41
1.0
 10
412.9564122979504
 20
775.6676716611514
 30
0.0
 41
1.0
 10
412.6435813492762
 20
775.5742502266875
 30
0.0
 41
1.0
 10
412.2799284531092
 20
775.3306660419335
 30
0.0
 41
1.0
 10
411.9741769838863
 20
774.8737056361346
 30
0.0
 41
1.0
 10
411.8691227532153
 20
774.3343175031835
 30
0.0
 41
1.0
 10
411.9780831384433
 20
773.7959746124434
 30
0.0
 41
1.0
 10
412.2828442617213
 20
773.3434592316725
 30
0.0
 41
1.0
 10
412.647758857579
 20
773.1015023008995
 30
0.0
 41
1.0
 10
412.9558928917493
 20
773.0089574923576
 30
0.0
 41
1.0
 10
413.1679284745783
 20
772.9885198331534
 30
0.0
 41
1.0
 10
413.2720202483796
 20
772.9885203188475
 30
0.0
 41
1.0
  0
SPLINE
  5
127
330
9A
100
AcDbEntity
  8
$DDT_AUDIT_GENERATED_(D9)
  6
Continuous
 62
     7
100
AcDbSpline
210
0.0
220
0.0
230
1.0
 70
    12
 71
     5
 72
    19
 73
    13
 74
     0
 42
0.0000000022985083
 43
0.0000000001
 40
0.0
 40
0.0
 40
0.0
 40
0.0
 40
0.0
 40
0.0
 40
0.1272727272735419
 40
0.2499999999994106
 40
0.3727272727276371
 40
0.4999999999988207
 40
0.6227272727270475
 40
0.7500000000005895
 40
0.8727272727264579
 40
1.0
 40
1.0
 40
1.0
 40
1.0
 40
1.0
 40
1.0
 10
413.2720202483796
 20
772.9885203188475
 30
0.0
 41
1.0
 10
413.3799672730623
 20
772.9885208225296
 30
0.0
 41
1.0
 10
413.5920094062952
 20
773.0097174474705
 30
0.0
 41
1.0
 10
413.8998771098284
 20
773.1033913932574
 30
0.0
 41
1.0
 10
414.2637463308193
 20
773.3466136762115
 30
0.0
 41
1.0
 10
414.5667779312853
 20
773.7998734871514
 30
0.0
 41
1.0
 10
414.6749069503823
 20
774.3343229190054
 30
0.0
 41
1.0
 10
414.5706504625563
 20
774.8697874737704
 30
0.0
 41
1.0
 10
414.2666666476413
 20
775.3275164239285
 30
0.0
 41
1.0
 10
413.9040283562243
 20
775.5723314749065
 30
0.0
 41
1.0
 10
413.5915103170242
 20
775.6669203937414
 30
0.0
 41
1.0
 10
413.3804094627113
 20
775.6883165313835
 30
0.0
 41
1.0
 10
413.2720241010562
 20
775.6883165313835
 30
0.0
 41
1.0
  0
LINE
  5
129
330
9A
100
AcDbEntity
  8
$DDT_AUDIT_GENERATED_(128)
  6
Continuous
 62
     7
100
AcDbLine
 10
395.0220320077
 20
545.0383810314
 30
0.0
 11
395.0220320077
 21
574.5883810314
 31
0.0
  0
LINE
  5
12A
330
9A
100
AcDbEntity
  8
$DDT_AUDIT_GENERATED_(128)
  6
Continuous
 62
     7
100
AcDbLine
 10
436.0220320077
 20
574.5883810314
 30
0.0
 11
436.0220320077
 21
545.0383810314
 31
0.0
  0
LINE
  5
12B
330
9A
100
AcDbEntity
  8
$DDT_AUDIT_GENERATED_(128)
  6
Continuous
 62
     7
100
AcDbLine
 10
395.5220320077
 20
575.0883810314
 30
0.0
 11
435.5220320077
 21
575.0883810314
 31
0.0
  0
ARC
  5
12C
330
9A
100
AcDbEntity
  8
$DDT_AUDIT_GENERATED_(128)
  6
Continuous
 62
     7
100
AcDbCircle
 10
435.5220320077
 20
574.5883810314
 30
0.0
 40
0.5000000000000004
100
AcDbArc
 50
0.0
 51
90.0
  0
ARC
  5
12D
330
9A
100
AcDbEntity
  8
$DDT_AUDIT_GENERATED_(128)
  6
Continuous
 62
     7
100
AcDbCircle
 10
395.5220320077
 20
574.5883810314
 30
0.0
 40
0.5000000000000004
100
AcDbArc
 50
90.0
 51
180.0
  0
LINE
  5
12F
330
9A
100
AcDbEntity
  8
$DDT_AUDIT_GENERATED_(12E)
  6
Continuous
 62
     7
100
AcDbLine
 10
448.0220320077
 20
544.0383810314
 30
0.0
 11
448.0220320077
 21
535.0383810314
 31
0.0
  0
LINE
  5
130
330
9A
100
AcDbEntity
  8
$DDT_AUDIT_GENERATED_(12E)
  6
Continuous
 62
     7
100
AcDbLine
 10
384.0220320077
 20
535.0383810314
 30
0.0
 11
447.0220320077
 21
535.0383810314
 31
0.0
  0
LINE
  5
131
330
9A
100
AcDbEntity
  8
$DDT_AUDIT_GENERATED_(12E)
  6
Continuous
 62
     7
100
AcDbLine
 10
384.0220320077
 20
535.0383810314
 30
0.0
 11
383.0220320077
 21
535.0383810314
 31
0.0
  0
LINE
  5
132
330
9A
100
AcDbEntity
  8
$DDT_AUDIT_GENERATED_(12E)
  6
Continuous
 62
     7
100
AcDbLine
 10
448.0220320077
 20
535.0383810314
 30
0.0
 11
447.0220320077
 21
535.0383810314
 31
0.0
  0
LINE
  5
133
330
9A
100
AcDbEntity
  8
$DDT_AUDIT_GENERATED_(12E)
  6
Continuous
 62
     7
100
AcDbLine
 10
383.0220320077
 20
535.0383810314
 30
0.0
 11
383.0220320077
 21
544.0383810314
 31
0.0
  0
LINE
  5
134
330
9A
100
AcDbEntity
  8
$DDT_AUDIT_GENERATED_(12E)
  6
Continuous
 62
     7
100
AcDbLine
 10
384.0220320077
 20
545.0383810314
 30
0.0
 11
447.0220320077
 21
545.0383810314
 31
0.0
  0
ARC
  5
135
330
9A
100
AcDbEntity
  8
$DDT_AUDIT_GENERATED_(12E)
  6
Continuous
 62
     7
100
AcDbCircle
 10
384.0220320077
 20
544.0383810314
 30
0.0
 40
0.9999999999999991
100
AcDbArc
 50
90.0
 51
180.0
  0
ARC
  5
136
330
9A
100
AcDbEntity
  8
$DDT_AUDIT_GENERATED_(12E)
  6
Continuous
 62
     7
100
AcDbCircle
 10
447.0220320077
 20
544.0383810314
 30
0.0
 40
1.000000000000001
100
AcDbArc
 50
0.0
 51
90.0
  0
LINE
  5
138
330
9A
100
AcDbEntity
  8
$DDT_AUDIT_GENERATED_(137)
  6
Continuous
 62
     7
100
AcDbLine
 10
245.5220320077
 20
626.5383810314
 30
0.0
 11
245.5220320077
 21
643.5383810314
 31
0.0
  0
LINE
  5
139
330
9A
100
AcDbEntity
  8
$DDT_AUDIT_GENERATED_(137)
  6
Continuous
 62
     7
100
AcDbLine
 10
245.5220320077
 20
623.0383810314
 30
0.0
 11
245.5220320077
 21
626.538381032
 31
0.0
  0
LINE
  5
13A
330
9A
100
AcDbEntity
  8
$DDT_AUDIT_GENERATED_(137)
  6
Continuous
 62
     7
100
AcDbLine
 10
245.5220320077
 20
545.0383810314
 30
0.0
 11
245.5220320077
 21
623.0383810314
 31
0.0
  0
LINE
  5
13B
330
9A
100
AcDbEntity
  8
$DDT_AUDIT_GENERATED_(137)
  6
Continuous
 62
     7
100
AcDbLine
 10
245.0220320077
 20
626.0383810314
 30
0.0
 11
206.0220320077
 21
626.0383810314
 31
0.0
  0
LINE
  5
13C
330
9A
100
AcDbEntity
  8
$DDT_AUDIT_GENERATED_(137)
  6
Continuous
 62
     7
100
AcDbLine
 10
205.5220320077
 20
623.0383810314
 30
0.0
 11
205.5220320077
 21
545.0383810314
 31
0.0
  0
LINE
  5
13D
330
9A
100
AcDbEntity
  8
$DDT_AUDIT_GENERATED_(137)
  6
Continuous
 62
     7
100
AcDbLine
 10
205.5220320077
 20
623.0383810314
 30
0.0
 11
205.5220320077
 21
626.538381032
 31
0.0
  0
LINE
  5
13E
330
9A
100
AcDbEntity
  8
$DDT_AUDIT_GENERATED_(137)
  6
Continuous
 62
     7
100
AcDbLine
 10
205.5220320077
 20
643.5383810314
 30
0.0
 11
205.5220320077
 21
626.5383810314
 31
0.0
  0
LINE
  5
13F
330
9A
100
AcDbEntity
  8
$DDT_AUDIT_GENERATED_(137)
  6
Continuous
 62
     7
100
AcDbLine
 10
245.0220320077
 20
644.0383810314
 30
0.0
 11
206.0220320077
 21
644.0383810314
 31
0.0
  0
ARC
  5
140
330
9A
100
AcDbEntity
  8
$DDT_AUDIT_GENERATED_(137)
  6
Continuous
 62
     7
100
AcDbCircle
 10
206.0220320077
 20
643.5383810314
 30
0.0
 40
0.4999999999999588
100
AcDbArc
 50
90.0
 51
180.0
  0
ARC
  5
141
330
9A
100
AcDbEntity
  8
$DDT_AUDIT_GENERATED_(137)
  6
Continuous
 62
     7
100
AcDbCircle
 10
245.0220320077
 20
643.5383810314
 30
0.0
 40
0.4999999999999311
100
AcDbArc
 50
0.0
 51
90.0
  0
ARC
  5
142
330
9A
100
AcDbEntity
  8
$DDT_AUDIT_GENERATED_(137)
  6
Continuous
 62
     7
100
AcDbCircle
 10
206.0220320077
 20
626.5383810314
 30
0.0
 40
0.5000000000000004
100
AcDbArc
 50
180.0
 51
270.0
  0
ARC
  5
143
330
9A
100
AcDbEntity
  8
$DDT_AUDIT_GENERATED_(137)
  6
Continuous
 62
     7
100
AcDbCircle
 10
245.0220320077
 20
626.5383810314
 30
0.0
 40
0.5000000000000004
100
AcDbArc
 50
270.0
 51
0.0
  0
ELLIPSE
  5
145
330
9A
100
AcDbEntity
  8
$DDT_AUDIT_GENERATED_(144)
  6
Continuous
 62
     7
100
AcDbEllipse
 10
570.5220320077
 20
606.5590863792
 30
0.0
 11
1.665334536937735E-13
 21
-3.725939276586432
 31
0.0
210
0.0
220
0.0
230
1.0
 40
0.8991021461
 41
1.570796326794856
 42
4.71238898038465
  0
LINE
  5
147
330
9A
100
AcDbEntity
  8
$DDT_AUDIT_GENERATED_(146)
  6
Continuous
 62
     7
100
AcDbLine
 10
559.9855678117
 20
633.3095511821
 30
0.0
 11
581.052732093
 21
633.3095505717
 31
0.0
  0
SPLINE
  5
148
330
9A
100
AcDbEntity
  8
$DDT_AUDIT_GENERATED_(146)
  6
Continuous
 62
     7
100
AcDbSpline
210
0.0
220
0.0
230
1.0
 70
     8
 71
     3
 72
    25
 73
    21
 74
     0
 42
0.0000000038969206
 43
0.0000000001
 40
0.0
 40
0.0
 40
0.0
 40
0.0
 40
0.0433609927140805
 40
0.0857991882657849
 40
0.1274833538679859
 40
0.1685915497552801
 40
0.2093093979209776
 40
0.249827890062355
 40
0.290340841789208
 40
0.3310421518769374
 40
0.3721230557743503
 40
0.4137695634903377
 40
0.4561602431288124
 40
0.4994644605357177
 40
0.5853524825533398
 40
0.6682404995111947
 40
0.7496020630921941
 40
0.830993652287068
 40
0.9139700216246635
 40
1.0
 40
1.0
 40
1.0
 40
1.0
 10
581.0527320930435
 20
633.3095505716581
 30
0.0
 10
581.1098344767694
 20
633.3107849318178
 30
0.0
 10
581.2228399987945
 20
633.311697497602
 30
0.0
 10
581.3901325103335
 20
633.3113765929932
 30
0.0
 10
581.5531678879338
 20
633.3097817298897
 30
0.0
 10
581.7119386600225
 20
633.3068006925288
 30
0.0
 10
581.8664345968759
 20
633.302463299026
 30
0.0
 10
582.016644908788
 20
633.2967626688398
 30
0.0
 10
582.162558902607
 20
633.2897020920518
 30
0.0
 10
582.3041668959925
 20
633.2812826814331
 30
0.0
 10
582.4414618295921
 20
633.271506445929
 30
0.0
 10
582.5744368715852
 20
633.2603757883572
 30
0.0
 10
582.7030968087337
 20
633.2478917403043
 30
0.0
 10
582.8670898366101
 20
633.2296469661837
 30
0.0
 10
583.0526751989088
 20
633.2047014041095
 30
0.0
 10
583.2375965708894
 20
633.1715406132629
 30
0.0
 10
583.3808021134959
 20
633.135654807712
 30
0.0
 10
583.4811701677291
 20
633.097035356219
 30
0.0
 10
583.5420511663176
 20
633.0557358408911
 30
0.0
 10
583.5474787310161
 20
633.0269896429799
 30
0.0
 10
583.5502516902118
 20
633.0116609773758
 30
0.0
  0
ELLIPSE
  5
149
330
9A
100
AcDbEntity
  8
$DDT_AUDIT_GENERATED_(146)
  6
Continuous
 62
     7
100
AcDbEllipse
 10
379.5109321262
 20
4541.807486597
 30
0.0
 11
206.563956824443
 21
-3941.461119093233
 31
0.0
210
0.0
220
0.0
230
1.0
 40
0.0026194594
 41
-0.1289317485961137
 42
-0.1245236266404115
  0
ELLIPSE
  5
14A
330
9A
100
AcDbEntity
  8
$DDT_AUDIT_GENERATED_(146)
  6
Continuous
 62
     7
100
AcDbEllipse
 10
761.526512529
 20
4541.7910552052
 30
0.0
 11
-206.5631017602782
 21
-3941.444687940917
 31
0.0
210
0.0
220
0.0
230
1.0
 40
0.0026194647
 41
0.1245238810581711
 42
0.1288922117842064
  0
ARC
  5
14B
330
9A
100
AcDbEntity
  8
$DDT_AUDIT_GENERATED_(146)
  6
Continuous
 62
     7
100
AcDbCircle
 10
570.5192118626
 20
-5392.3139350422
 30
0.0
 40
6031.043029588643
100
AcDbArc
 50
89.7991757122
 51
90.2008254687
  0
LINE
  5
14C
330
9A
100
AcDbEntity
  8
$DDT_AUDIT_GENERATED_(146)
  6
Continuous
 62
     7
100
AcDbLine
 10
595.9461756563
 20
593.7311027635
 30
0.0
 11
545.0921240947
 21
593.7311027635
 31
0.0
  0
SPLINE
  5
14D
330
9A
100
AcDbEntity
  8
$DDT_AUDIT_GENERATED_(146)
  6
Continuous
 62
     7
100
AcDbSpline
210
0.0
220
0.0
230
1.0
 70
    11
 71
     3
 72
    23
 73
    19
 74
     0
 42
0.0000000004436811
 43
0.0000000001
 40
0.0
 40
0.0
 40
0.0
 40
0.0
 40
0.0590123114903445
 40
0.1248131724136465
 40
0.1766568801515686
 40
0.250034781206034
 40
0.3234402458185077
 40
0.3747663979511367
 40
0.4406611830764217
 40
0.4995794530002671
 40
0.5586261205494071
 40
0.624650715412374
 40
0.6761999560213078
 40
0.7499745732364165
 40
0.8232366914914809
 40
0.8750309199954588
 40
0.9409131900626801
 40
1.0
 40
1.0
 40
1.0
 40
1.0
 10
570.5220320076713
 20
610.0688550748039
 30
0.0
 10
570.0849584878325
 20
610.0688552523237
 30
0.0
 10
569.1605474168487
 20
609.8423772765387
 30
0.0
 10
568.1341999957567
 20
608.978740474784
 30
0.0
 10
567.4432327976274
 20
607.7463228496287
 30
0.0
 10
567.1710675973411
 20
606.2848333071322
 30
0.0
 10
567.4446936058315
 20
604.8277258266481
 30
0.0
 10
568.132648227216
 20
603.5982918661163
 30
0.0
 10
569.1526600289603
 20
602.7338322946089
 30
0.0
 10
570.5130685591948
 20
602.3949588733124
 30
0.0
 10
571.8769552256991
 20
602.7255976022516
 30
0.0
 10
572.903816845822
 20
603.5882668829868
 30
0.0
 10
573.5977017489835
 20
604.8207212459133
 30
0.0
 10
573.8733533867371
 20
606.2815126036027
 30
0.0
 10
573.6012707785734
 20
607.7444025094322
 30
0.0
 10
572.9115531673285
 20
608.9767388272221
 30
0.0
 10
571.8852535865846
 20
609.8418070010845
 30
0.0
 10
570.959657298787
 20
610.0688548970601
 30
0.0
 10
570.5220320076713
 20
610.0688550748039
 30
0.0
  0
LINE
  5
14E
330
9A
100
AcDbEntity
  8
$DDT_AUDIT_GENERATED_(146)
  6
Continuous
 62
     7
100
AcDbLine
 10
592.8805647433
 20
623.0847799355
 30
0.0
 11
596.4424487011
 21
594.2915834878
 31
0.0
  0
LINE
  5
14F
330
9A
100
AcDbEntity
  8
$DDT_AUDIT_GENERATED_(146)
  6
Continuous
 62
     7
100
AcDbLine
 10
592.1542994716
 20
638.2562308598
 30
0.0
 11
592.4490900216
 21
635.87321872
 31
0.0
  0
ELLIPSE
  5
150
330
9A
100
AcDbEntity
  8
$DDT_AUDIT_GENERATED_(146)
  6
Continuous
 62
     7
100
AcDbEllipse
 10
-5504.6883670638
 20
49917.0682633493
 30
0.0
 11
6052.473754957787
 21
-49661.73846299262
 31
0.0
210
0.0
220
0.0
230
0.9999999999999999
 40
0.0148337313
 41
0.1206232633465655
 42
0.1220803344716739
  0
ELLIPSE
  5
151
330
9A
100
AcDbEntity
  8
$DDT_AUDIT_GENERATED_(146)
  6
Continuous
 62
     7
100
AcDbEllipse
 10
592.8801864189
 20
623.5150417111
 30
0.0
 11
-0.4258953679521782
 21
3.494861632295052
 31
0.0
210
0.0
220
0.0
230
1.0
 40
0.0147859312
 41
0.120505590820256
 42
1.692420081395924
  0
SPLINE
  5
152
330
9A
100
AcDbEntity
  8
$DDT_AUDIT_GENERATED_(146)
  6
Continuous
 62
     7
100
AcDbSpline
210
0.0
220
0.0
230
1.0
 70
     8
 71
     3
 72
    20
 73
    16
 74
     0
 42
0.0000000039037994
 43
0.0000000001
 40
0.0
 40
0.0
 40
0.0
 40
0.0
 40
0.0420019903964128
 40
0.0836673932126929
 40
0.1251779739649309
 40
0.1667175342124403
 40
0.2084694961263686
 40
0.2506145118051107
 40
0.3752457878381781
 40
0.5001089744636926
 40
0.6251261134041731
 40
0.7504496021187248
 40
0.8338588742583446
 40
0.9165574099628686
 40
1.0
 40
1.0
 40
1.0
 40
1.0
 10
557.4880479866795
 20
633.011661583761
 30
0.0
 10
557.4885791782132
 20
633.0194917463298
 30
0.0
 10
557.4896170974375
 20
633.0337031535729
 30
0.0
 10
557.5047923537677
 20
633.0547073998953
 30
0.0
 10
557.5299893022994
 20
633.0753300895365
 30
0.0
 10
557.5661518964891
 20
633.0955616585231
 30
0.0
 10
557.6130536103424
 20
633.1154094716289
 30
0.0
 10
557.7078979749385
 20
633.147464069744
 30
0.0
 10
557.8867058223537
 20
633.18949873863
 30
0.0
 10
558.2002332208655
 20
633.2353653525133
 30
0.0
 10
558.5819132635356
 20
633.2720482197001
 30
0.0
 10
558.9717158543843
 20
633.2946866735647
 30
0.0
 10
559.3348381771996
 20
633.3068602980936
 30
0.0
 10
559.6573909385219
 20
633.312133727171
 30
0.0
 10
559.8758547824712
 20
633.3109292749346
 30
0.0
 10
559.985567811701
 20
633.309551182066
 30
0.0
  0
ARC
  5
153
330
9A
100
AcDbEntity
  8
$DDT_AUDIT_GENERATED_(146)
  6
Continuous
 62
     7
100
AcDbCircle
 10
570.5191350267
 20
1457.7699587143
 30
0.0
 40
831.6194145479107
100
AcDbArc
 50
268.5219809034
 51
271.4780211224
  0
ARC
  5
154
330
9A
100
AcDbEntity
  8
$DDT_AUDIT_GENERATED_(146)
  6
Continuous
 62
     7
100
AcDbCircle
 10
570.5192738515
 20
-5947.3503462462
 30
0.0
 40
6583.260507706959
100
AcDbArc
 50
89.8133417955
 51
90.1866603356
  0
LINE
  5
155
330
9A
100
AcDbEntity
  8
$DDT_AUDIT_GENERATED_(146)
  6
Continuous
 62
     7
100
AcDbLine
 10
559.8381804675
 20
630.4941556765
 30
0.0
 11
581.2001225382
 21
630.494158753
 31
0.0
  0
LINE
  5
156
330
9A
100
AcDbEntity
  8
$DDT_AUDIT_GENERATED_(146)
  6
Continuous
 62
     7
100
AcDbLine
 10
544.5958510493
 20
594.2915834835
 30
0.0
 11
548.1577349981
 21
623.0847816758
 31
0.0
  0
ELLIPSE
  5
157
330
9A
100
AcDbEntity
  8
$DDT_AUDIT_GENERATED_(146)
  6
Continuous
 62
     7
100
AcDbEllipse
 10
548.1587081243
 20
623.519357252
 30
0.0
 11
-0.4253039109881063
 21
-3.490417698525081
 31
0.0
210
0.0
220
0.0
230
0.9999999999999999
 40
0.0147859365
 41
1.447768922795235
 42
3.021308829354052
  0
ELLIPSE
  5
158
330
9A
100
AcDbEntity
  8
$DDT_AUDIT_GENERATED_(146)
  6
Continuous
 62
     7
100
AcDbEllipse
 10
6632.9365255283
 20
49813.6841485899
 30
0.0
 11
-6039.684609449952
 21
-49558.35137358282
 31
0.0
210
0.0
220
0.0
230
0.9999999999999999
 40
0.0148488556
 41
-0.1222073850985508
 42
-0.1207487833167571
  0
LINE
  5
159
330
9A
100
AcDbEntity
  8
$DDT_AUDIT_GENERATED_(146)
  6
Continuous
 62
     7
100
AcDbLine
 10
548.5892094218
 20
635.8732182925
 30
0.0
 11
548.8839999523
 21
638.2562304201
 31
0.0
  0
ARC
  5
15A
330
9A
100
AcDbEntity
  8
$DDT_AUDIT_GENERATED_(146)
  6
Continuous
 62
     7
100
AcDbCircle
 10
585.8462026066
 20
633.1883793296
 30
0.0
 40
2.820172654990414
100
AcDbArc
 50
180.0056084883
 51
183.9995826357
  0
ARC
  5
15B
330
9A
100
AcDbEntity
  8
$DDT_AUDIT_GENERATED_(146)
  6
Continuous
 62
     7
100
AcDbCircle
 10
555.2009164043
 20
633.1881104428
 30
0.0
 40
2.811356109048317
100
AcDbArc
 50
355.9933473575
 51
359.9998433322
  0
SPLINE
  5
15C
330
9A
100
AcDbEntity
  8
$DDT_AUDIT_GENERATED_(146)
  6
Continuous
 62
     7
100
AcDbSpline
210
0.0
220
0.0
230
1.0
 70
     8
 71
     3
 72
    25
 73
    21
 74
     0
 42
0.0000000043691513
 43
0.0000000001
 40
0.0
 40
0.0
 40
0.0
 40
0.0
 40
0.0454586789234653
 40
0.0913856982181127
 40
0.1377828834307386
 40
0.1846520049015296
 40
0.2319947797598297
 40
0.2798128738408421
 40
0.3281079035263093
 40
0.3768814375121596
 40
0.4261349985059908
 40
0.475870064857207
 40
0.5260880721224852
 40
0.5767904145692355
 40
0.6279784466195423
 40
0.6796534842370505
 40
0.731816806259119
 40
0.7844696556765323
 40
0.8376132408629356
 40
0.8643725937767353
 40
0.8643725937767353
 40
0.8643725937767353
 40
0.8643725937767353
 10
581.200122560907
 20
630.4941561404052
 30
0.0
 10
581.2479232851691
 20
630.4948548852003
 30
0.0
 10
581.3440172026145
 20
630.4962596289434
 30
0.0
 10
581.4881257720559
 20
630.5004521625235
 30
0.0
 10
581.6321547570586
 20
630.5061478465735
 30
0.0
 10
581.7752732621108
 20
630.5134716288605
 30
0.0
 10
581.9166164980421
 20
630.5223449569675
 30
0.0
 10
582.055287904507
 20
630.5327363217147
 30
0.0
 10
582.1903650332508
 20
630.5445929885038
 30
0.0
 10
582.3209052111298
 20
630.5578595288189
 30
0.0
 10
582.4459520650767
 20
630.5724728160111
 30
0.0
 10
582.564542579279
 20
630.5883635041004
 30
0.0
 10
582.6757148225018
 20
630.6054558307515
 30
0.0
 10
582.7785159885668
 20
630.6236679680694
 30
0.0
 10
582.8720118653255
 20
630.6429123228672
 30
0.0
 10
582.9552933246362
 20
630.663095946573
 30
0.0
 10
583.0274962587354
 20
630.6841210387138
 30
0.0
 10
583.0877724881719
 20
630.7058854581011
 30
0.0
 10
583.1274109147961
 20
630.7245078595548
 30
0.0
 10
583.1460682146934
 20
630.7358510862249
 30
0.0
 10
583.1517515155023
 20
630.7396607279277
 30
0.0
  0
SPLINE
  5
15D
330
9A
100
AcDbEntity
  8
$DDT_AUDIT_GENERATED_(146)
  6
Continuous
 62
     7
100
AcDbSpline
210
0.0
220
0.0
230
1.0
 70
     8
 71
     3
 72
    10
 73
     6
 74
     0
 42
0.000000017805973
 43
0.0000000001
 40
0.8643725937767353
 40
0.8643725937767353
 40
0.8643725937767353
 40
0.8643725937767353
 40
0.8912487367560636
 40
0.9453772859928068
 40
1.0
 40
1.0
 40
1.0
 40
1.0
 10
583.1517515155023
 20
630.7396607279277
 30
0.0
 10
583.1574596208376
 20
630.7434869966509
 30
0.0
 10
583.1729460549936
 20
630.7550522521078
 30
0.0
 10
583.1905499649129
 20
630.7745449966454
 30
0.0
 10
583.1922669029617
 20
630.7902301442105
 30
0.0
 10
583.1931292952981
 20
630.7981083557542
 30
0.0
  0
SPLINE
  5
15E
330
9A
100
AcDbEntity
  8
$DDT_AUDIT_GENERATED_(146)
  6
Continuous
 62
     7
100
AcDbSpline
210
0.0
220
0.0
230
1.0
 70
     8
 71
     3
 72
    10
 73
     6
 74
     0
 42
0.0000000178800169
 43
0.0000000001
 40
0.0
 40
0.0
 40
0.0
 40
0.0
 40
0.0455544679350248
 40
0.0907655256900191
 40
0.1356338133103106
 40
0.1356338133103106
 40
0.1356338133103106
 40
0.1356338133103106
 10
557.845170210061
 20
630.7981054424108
 30
0.0
 10
557.8456917457186
 20
630.791535499511
 30
0.0
 10
557.8467316162124
 20
630.7784451026151
 30
0.0
 10
557.8611957048001
 20
630.758927952847
 30
0.0
 10
557.876976791295
 20
630.7460429914031
 30
0.0
 10
557.8865032427442
 20
630.739655252172
 30
0.0
  0
SPLINE
  5
15F
330
9A
100
AcDbEntity
  8
$DDT_AUDIT_GENERATED_(146)
  6
Continuous
 62
     7
100
AcDbSpline
210
0.0
220
0.0
230
1.0
 70
     8
 71
     3
 72
    28
 73
    24
 74
     0
 42
0.0000000043691396
 43
0.0000000001
 40
0.1356338133103106
 40
0.1356338133103106
 40
0.1356338133103106
 40
0.1356338133103106
 40
0.1801599857148196
 40
0.2243447131273599
 40
0.2681886815224235
 40
0.3116925930860185
 40
0.3548571666921029
 40
0.39768313839512
 40
0.4401712619393248
 40
0.4823223092853725
 40
0.5241370711549107
 40
0.5656163575937277
 40
0.606760998554175
 40
0.6475718444975127
 40
0.6880497670169116
 40
0.7281956594818046
 40
0.768010437704355
 40
0.8074950406288163
 40
0.8466504310445337
 40
0.8854775963234404
 40
0.9239775491828485
 40
0.9621513284743958
 40
1.0
 40
1.0
 40
1.0
 40
1.0
 10
557.8865032427442
 20
630.739655252172
 30
0.0
 10
557.8959570561641
 20
630.7333162186728
 30
0.0
 10
557.9180608564777
 20
630.7207460684363
 30
0.0
 10
557.9604223137138
 20
630.7022082767357
 30
0.0
 10
558.011511481155
 20
630.6841229654773
 30
0.0
 10
558.0708644848522
 20
630.6665511850892
 30
0.0
 10
558.1380116676062
 20
630.6495521983267
 30
0.0
 10
558.2124542416238
 20
630.6331832567948
 30
0.0
 10
558.2936755896809
 20
630.6174993507711
 30
0.0
 10
558.3811432660444
 20
630.6025530017464
 30
0.0
 10
558.4743133086672
 20
630.5883940791028
 30
0.0
 10
558.5726337633309
 20
630.5750696446904
 30
0.0
 10
558.6755482191361
 20
630.5626238255462
 30
0.0
 10
558.7824991253215
 20
630.5510977060525
 30
0.0
 10
558.8929309352653
 20
630.5405292687228
 30
0.0
 10
559.0062930520203
 20
630.5309532710023
 30
0.0
 10
559.1220425762021
 20
630.5224014680759
 30
0.0
 10
559.2396468348803
 20
630.5149016647316
 30
0.0
 10
559.358585743882
 20
630.5084811814664
 30
0.0
 10
559.4783537974508
 20
630.5031541439774
 30
0.0
 10
559.598462438762
 20
630.498968473169
 30
0.0
 10
559.7184400366709
 20
630.4958329573393
 30
0.0
 10
559.7983809114578
 20
630.4947093516361
 30
0.0
 10
559.8381804164605
 20
630.4941499518198
 30
0.0
  0
ELLIPSE
  5
160
330
9A
100
AcDbEntity
  8
$DDT_AUDIT_GENERATED_(146)
  6
Continuous
 62
     7
100
AcDbEllipse
 10
545.0921240947
 20
594.2311027635
 30
0.0
 11
0.0
 21
0.4999448504730356
 31
0.0
210
0.0
220
0.0
230
1.0
 40
1.0
 41
1.449524506896567
 42
3.141592653589793
  0
ELLIPSE
  5
161
330
9A
100
AcDbEntity
  8
$DDT_AUDIT_GENERATED_(146)
  6
Continuous
 62
     7
100
AcDbEllipse
 10
595.9461756563
 20
594.2311027635
 30
0.0
 11
-1.182387521225792E-10
 21
-0.4999999999998964
 31
0.0
210
0.0
220
0.0
230
1.0
 40
0.999888063
 41
0.0
 42
1.692054713715027
  0
SPLINE
  5
162
330
9A
100
AcDbEntity
  8
$DDT_AUDIT_GENERATED_(146)
  6
Continuous
 62
     7
100
AcDbSpline
210
0.0
220
0.0
230
1.0
 70
     8
 71
     3
 72
     8
 73
     4
 74
     0
 42
0.0000000031611785
 43
0.0000000001
 40
0.0
 40
0.0
 40
0.0
 40
0.0
 40
0.1635953005932636
 40
0.1635953005932636
 40
0.1635953005932636
 40
0.1635953005932636
 10
581.05258551691
 20
633.3084771043686
 30
0.0
 10
581.2429216576404
 20
633.3091881332314
 30
0.0
 10
581.4074420787936
 20
633.3097545124072
 30
0.0
 10
581.570088892232
 20
633.3081451153731
 30
0.0
  0
ARC
  5
163
330
9A
100
AcDbEntity
  8
$DDT_AUDIT_GENERATED_(146)
  6
Continuous
 62
     7
100
AcDbCircle
 10
591.9528169462
 20
635.8127382423
 30
0.0
 40
0.5000000000106565
100
AcDbArc
 50
0.0563341779
 51
7.0519498382
  0
ARC
  5
164
330
9A
100
AcDbEntity
  8
$DDT_AUDIT_GENERATED_(146)
  6
Continuous
 62
     7
100
AcDbCircle
 10
591.6580263963
 20
638.1957503821
 30
0.0
 40
0.5000000000043953
100
AcDbArc
 50
7.0519481557
 51
89.7864263572
  0
ARC
  5
165
330
9A
100
AcDbEntity
  8
$DDT_AUDIT_GENERATED_(146)
  6
Continuous
 62
     7
100
AcDbCircle
 10
549.0854824977
 20
635.8127378189
 30
0.0
 40
0.5000000000000191
100
AcDbArc
 50
172.9480505895
 51
179.9436658327
  0
ARC
  5
166
330
9A
100
AcDbEntity
  8
$DDT_AUDIT_GENERATED_(146)
  6
Continuous
 62
     7
100
AcDbCircle
 10
570.5192124143
 20
-5124.0367889368
 30
0.0
 40
5762.747679022613
100
AcDbArc
 50
89.7897699331
 51
90.2102312991
  0
ARC
  5
167
330
9A
100
AcDbEntity
  8
$DDT_AUDIT_GENERATED_(146)
  6
Continuous
 62
     7
100
AcDbCircle
 10
549.3802730281
 20
638.1957499464
 30
0.0
 40
0.4999999999999969
100
AcDbArc
 50
90.213524617
 51
172.9480522698
  0
LINE
  5
169
330
9A
100
AcDbEntity
  8
$DDT_AUDIT_GENERATED_(168)
  6
Continuous
 62
     7
100
AcDbLine
 10
88.2720320077
 20
545.0383810314
 30
0.0
 11
88.2720320077
 21
549.4383810314
 31
0.0
  0
LINE
  5
16A
330
9A
100
AcDbEntity
  8
$DDT_AUDIT_GENERATED_(168)
  6
Continuous
 62
     7
100
AcDbLine
 10
52.7720320077
 20
549.4383810314
 30
0.0
 11
52.7720320077
 21
545.0383810314
 31
0.0
  0
LINE
  5
16C
330
9A
100
AcDbEntity
  8
$DDT_AUDIT_GENERATED_(16B)
  6
Continuous
 62
     7
100
AcDbLine
 10
603.0220320077
 20
544.0383810314
 30
0.0
 11
603.0220320077
 21
535.0383810314
 31
0.0
  0
LINE
  5
16D
330
9A
100
AcDbEntity
  8
$DDT_AUDIT_GENERATED_(16B)
  6
Continuous
 62
     7
100
AcDbLine
 10
539.0220320077
 20
535.0383810314
 30
0.0
 11
602.0220320077
 21
535.0383810314
 31
0.0
  0
LINE
  5
16E
330
9A
100
AcDbEntity
  8
$DDT_AUDIT_GENERATED_(16B)
  6
Continuous
 62
     7
100
AcDbLine
 10
539.0220320077
 20
535.0383810314
 30
0.0
 11
538.0220320077
 21
535.0383810314
 31
0.0
  0
LINE
  5
16F
330
9A
100
AcDbEntity
  8
$DDT_AUDIT_GENERATED_(16B)
  6
Continuous
 62
     7
100
AcDbLine
 10
603.0220320077
 20
535.0383810314
 30
0.0
 11
602.0220320077
 21
535.0383810314
 31
0.0
  0
LINE
  5
170
330
9A
100
AcDbEntity
  8
$DDT_AUDIT_GENERATED_(16B)
  6
Continuous
 62
     7
100
AcDbLine
 10
539.0220320077
 20
545.0383810314
 30
0.0
 11
602.0220320077
 21
545.0383810314
 31
0.0
  0
LINE
  5
171
330
9A
100
AcDbEntity
  8
$DDT_AUDIT_GENERATED_(16B)
  6
Continuous
 62
     7
100
AcDbLine
 10
538.0220320077
 20
535.0383810314
 30
0.0
 11
538.0220320077
 21
544.0383810314
 31
0.0
  0
ARC
  5
172
330
9A
100
AcDbEntity
  8
$DDT_AUDIT_GENERATED_(16B)
  6
Continuous
 62
     7
100
AcDbCircle
 10
539.0220320077
 20
544.0383810314
 30
0.0
 40
0.9999999999999991
100
AcDbArc
 50
90.0
 51
180.0
  0
ARC
  5
173
330
9A
100
AcDbEntity
  8
$DDT_AUDIT_GENERATED_(16B)
  6
Continuous
 62
     7
100
AcDbCircle
 10
602.0220320077
 20
544.0383810314
 30
0.0
 40
1.000000000000001
100
AcDbArc
 50
0.0
 51
90.0
  0
ENDBLK
  5
175
330
9A
100
AcDbEntity
  8
0
100
AcDbBlockEnd
  0
BLOCK
  5
219
330
176
100
AcDbEntity
  8
0
100
AcDbBlockBegin
  2
SE1
 70
     0
 10
0.0
 20
0.0
 30
0.0
  3
SE1
  1

  0
LINE
  5
178
330
176
100
AcDbEntity
  8
$DDT_AUDIT_GENERATED_(9C)
  6
Continuous
 62
     7
100
AcDbLine
 10
917.7220320077
 20
544.0383810314
 30
0.0
 11
917.7220320077
 21
535.3383810314
 31
0.0
  0
LINE
  5
179
330
176
100
AcDbEntity
  8
$DDT_AUDIT_GENERATED_(9C)
  6
Continuous
 62
     7
100
AcDbLine
 10
852.7220320077
 20
535.3383810314
 30
0.0
 11
852.7220320077
 21
544.0383810314
 31
0.0
  0
LINE
  5
17A
330
176
100
AcDbEntity
  8
$DDT_AUDIT_GENERATED_(9C)
  6
Continuous
 62
     7
100
AcDbLine
 10
853.7220320077
 20
545.0383810314
 30
0.0
 11
916.7220320077
 21
545.0383810314
 31
0.0
  0
ARC
  5
17B
330
176
100
AcDbEntity
  8
$DDT_AUDIT_GENERATED_(9C)
  6
Continuous
 62
     7
100
AcDbCircle
 10
853.7220320077
 20
544.0383810314
 30
0.0
 40
1.000000000000001
100
AcDbArc
 50
90.0
 51
180.0
  0
ARC
  5
17C
330
176
100
AcDbEntity
  8
$DDT_AUDIT_GENERATED_(9C)
  6
Continuous
 62
     7
100
AcDbCircle
 10
916.7220320077
 20
544.0383810314
 30
0.0
 40
1.000000000000001
100
AcDbArc
 50
0.0
 51
90.0
  0
LINE
  5
17D
330
176
100
AcDbEntity
  8
$DDT_AUDIT_GENERATED_(A5)
  6
Continuous
 62
     7
100
AcDbLine
 10
911.2220320077
 20
591.3384690231
 30
0.0
 11
911.2220320077
 21
545.0383810314
 31
0.0
  0
LINE
  5
17E
330
176
100
AcDbEntity
  8
$DDT_AUDIT_GENERATED_(A5)
  6
Continuous
 62
     7
100
AcDbLine
 10
859.7220320077
 20
591.8384690231
 30
0.0
 11
865.2220320077
 21
591.8384690231
 31
0.0
  0
LINE
  5
17F
330
176
100
AcDbEntity
  8
$DDT_AUDIT_GENERATED_(A5)
  6
Continuous
 62
     7
100
AcDbLine
 10
905.2220320077
 20
591.8384690231
 30
0.0
 11
910.7220320077
 21
591.8384690231
 31
0.0
  0
ARC
  5
180
330
176
100
AcDbEntity
  8
$DDT_AUDIT_GENERATED_(A5)
  6
Continuous
 62
     7
100
AcDbCircle
 10
859.7220320077
 20
591.3384690231
 30
0.0
 40
0.5000000000000004
100
AcDbArc
 50
90.0
 51
180.0
  0
ARC
  5
181
330
176
100
AcDbEntity
  8
$DDT_AUDIT_GENERATED_(A5)
  6
Continuous
 62
     7
100
AcDbCircle
 10
910.7220320077
 20
591.3384690231
 30
0.0
 40
0.5000000000000004
100
AcDbArc
 50
0.0
 51
90.0
  0
LINE
  5
182
330
176
100
AcDbEntity
  8
$DDT_AUDIT_GENERATED_(A5)
  6
Continuous
 62
     7
100
AcDbLine
 10
859.2220320077
 20
545.0383810314
 30
0.0
 11
859.2220320077
 21
591.3384690231
 31
0.0
  0
LINE
  5
183
330
176
100
AcDbEntity
  8
$DDT_AUDIT_GENERATED_(AB)
  6
Continuous
 62
     7
100
AcDbLine
 10
1115.9720320077
 20
619.3383810314
 30
0.0
 11
1094.4720320077
 21
619.3383810314
 31
0.0
  0
SPLINE
  5
184
330
176
100
AcDbEntity
  8
$DDT_AUDIT_GENERATED_(AB)
  6
Continuous
 62
     7
100
AcDbSpline
210
0.0
220
0.0
230
1.0
 70
     8
 71
     3
 72
    10
 73
     6
 74
     0
 42
0.0000000019260148
 43
0.0000000001
 40
0.0
 40
0.0
 40
0.0
 40
0.0
 40
0.5
 40
0.5
 40
1.0
 40
1.0
 40
1.0
 40
1.0
 10
1107.808535438948
 20
619.6559236794377
 30
0.0
 10
1106.9462205898
 20
619.5419669824527
 30
0.0
 10
1106.083976317931
 20
619.482708486736
 30
0.0
 10
1104.359640723179
 20
619.482728713247
 30
0.0
 10
1103.497549398235
 20
619.5420058387717
 30
0.0
 10
1102.635528576396
 20
619.6559236794377
 30
0.0
  0
LINE
  5
185
330
176
100
AcDbEntity
  8
$DDT_AUDIT_GENERATED_(AB)
  6
Continuous
 62
     7
100
AcDbLine
 10
1109.4928633085
 20
622.3383810314
 30
0.0
 11
1100.9512007069
 21
622.3383810314
 31
0.0
  0
LINE
  5
186
330
176
100
AcDbEntity
  8
$DDT_AUDIT_GENERATED_(AB)
  6
Continuous
 62
     7
100
AcDbLine
 10
1109.4928633085
 20
622.3383810314
 30
0.0
 11
1109.4928633085
 21
620.5219490832
 31
0.0
  0
SPLINE
  5
187
330
176
100
AcDbEntity
  8
$DDT_AUDIT_GENERATED_(AB)
  6
Continuous
 62
     7
100
AcDbSpline
210
0.0
220
0.0
230
1.0
 70
     8
 71
     3
 72
    14
 73
    10
 74
     0
 42
0.0000000049320844
 43
0.0000000001
 40
0.0
 40
0.0
 40
0.0
 40
0.0
 40
0.1249999999999997
 40
0.1249999999999997
 40
0.2499999999999994
 40
0.2499999999999994
 40
0.4999999999999996
 40
0.4999999999999996
 40
1.0
 40
1.0
 40
1.0
 40
1.0
 10
1109.492863308485
 20
620.5219490832221
 30
0.0
 10
1109.492863308485
 20
620.4375238922568
 30
0.0
 10
1109.460688241073
 20
620.3534817697864
 30
0.0
 10
1109.364868266096
 20
620.2143022692994
 30
0.0
 10
1109.301721950686
 20
620.1552817439748
 30
0.0
 10
1109.099376541803
 20
620.0041694373484
 30
0.0
 10
1108.943388647987
 20
619.9327792875871
 30
0.0
 10
1108.472595481748
 20
619.7614241339269
 30
0.0
 10
1108.139716956676
 20
619.699690004348
 30
0.0
 10
1107.808535438948
 20
619.6559236794377
 30
0.0
  0
SPLINE
  5
188
330
176
100
AcDbEntity
  8
$DDT_AUDIT_GENERATED_(AB)
  6
Continuous
 62
     7
100
AcDbSpline
210
0.0
220
0.0
230
1.0
 70
     8
 71
     3
 72
    14
 73
    10
 74
     0
 42
0.0000000049319876
 43
0.0000000001
 40
0.0
 40
0.0
 40
0.0
 40
0.0
 40
0.4999999999999996
 40
0.4999999999999996
 40
0.7499999999999993
 40
0.7499999999999993
 40
0.8749999999999997
 40
0.8749999999999997
 40
1.0
 40
1.0
 40
1.0
 40
1.0
 10
1102.635528576396
 20
619.6559236794377
 30
0.0
 10
1102.302925980917
 20
619.6998778027221
 30
0.0
 10
1101.972628626226
 20
619.7609443199013
 30
0.0
 10
1101.499479110902
 20
619.9332435336075
 30
0.0
 10
1101.344876477602
 20
620.0042578409463
 30
0.0
 10
1101.143685872702
 20
620.1541646343278
 30
0.0
 10
1101.080079378948
 20
620.2132680775777
 30
0.0
 10
1100.983556754696
 20
620.3529723432387
 30
0.0
 10
1100.951200706857
 20
620.4371235898649
 30
0.0
 10
1100.951200706859
 20
620.5219490832221
 30
0.0
  0
LINE
  5
189
330
176
100
AcDbEntity
  8
$DDT_AUDIT_GENERATED_(AB)
  6
Continuous
 62
     7
100
AcDbLine
 10
1100.9512007069
 20
620.5219490832
 30
0.0
 11
1100.9512007069
 21
622.3383810314
 31
0.0
  0
LINE
  5
18A
330
176
100
AcDbEntity
  8
$DDT_AUDIT_GENERATED_(AB)
  6
Continuous
 62
     7
100
AcDbLine
 10
1093.9220320077
 20
619.6559236794
 30
0.0
 11
1094.4720320077
 21
619.3383810314
 31
0.0
  0
LINE
  5
18B
330
176
100
AcDbEntity
  8
$DDT_AUDIT_GENERATED_(AB)
  6
Continuous
 62
     7
100
AcDbLine
 10
1115.9720320077
 20
619.3383810314
 30
0.0
 11
1116.5220320077
 21
619.6559236794
 31
0.0
  0
ARC
  5
18C
330
176
100
AcDbEntity
  8
$DDT_AUDIT_GENERATED_(AB)
  6
Continuous
 62
     7
100
AcDbCircle
 10
1116.0220320077
 20
620.5219490832
 30
0.0
 40
1.000000000000004
100
AcDbArc
 50
300.0
 51
0.0
  0
ARC
  5
18D
330
176
100
AcDbEntity
  8
$DDT_AUDIT_GENERATED_(AB)
  6
Continuous
 62
     7
100
AcDbCircle
 10
1094.4220320077
 20
620.5219490832
 30
0.0
 40
1.000000000000001
100
AcDbArc
 50
180.0
 51
240.0
  0
LINE
  5
18E
330
176
100
AcDbEntity
  8
$DDT_AUDIT_GENERATED_(AB)
  6
Continuous
 62
     7
100
AcDbLine
 10
1093.4220320077
 20
626.0383810314
 30
0.0
 11
1093.4220320077
 21
620.5219490832
 31
0.0
  0
LINE
  5
18F
330
176
100
AcDbEntity
  8
$DDT_AUDIT_GENERATED_(AB)
  6
Continuous
 62
     7
100
AcDbLine
 10
1117.0220320077
 20
620.5219490832
 30
0.0
 11
1117.0220320077
 21
626.0383810314
 31
0.0
  0
ARC
  5
190
330
176
100
AcDbEntity
  8
$DDT_AUDIT_GENERATED_(B8)
  6
Continuous
 62
     7
100
AcDbCircle
 10
885.2220320077
 20
583.7384690231
 30
0.0
 40
24.99999999999988
100
AcDbArc
 50
143.1301023542
 51
161.0949986971
  0
ARC
  5
191
330
176
100
AcDbEntity
  8
$DDT_AUDIT_GENERATED_(B8)
  6
Continuous
 62
     7
100
AcDbCircle
 10
885.2220320077
 20
583.7384690231
 30
0.0
 40
25.0
100
AcDbArc
 50
18.9050013029
 51
23.5597597541
  0
LINE
  5
192
330
176
100
AcDbEntity
  8
$DDT_AUDIT_GENERATED_(BB)
  6
Continuous
 62
     7
100
AcDbLine
 10
864.5720320077
 20
549.9383810314
 30
0.0
 11
864.5720320077
 21
568.9383810314
 31
0.0
  0
LINE
  5
193
330
176
100
AcDbEntity
  8
$DDT_AUDIT_GENERATED_(BB)
  6
Continuous
 62
     7
100
AcDbLine
 10
905.3720320077
 20
549.4383810314
 30
0.0
 11
865.0720320077
 21
549.4383810314
 31
0.0
  0
LINE
  5
194
330
176
100
AcDbEntity
  8
$DDT_AUDIT_GENERATED_(BB)
  6
Continuous
 62
     7
100
AcDbLine
 10
905.8720320077
 20
568.9383810314
 30
0.0
 11
905.8720320077
 21
549.9383810314
 31
0.0
  0
LINE
  5
195
330
176
100
AcDbEntity
  8
$DDT_AUDIT_GENERATED_(BB)
  6
Continuous
 62
     7
100
AcDbLine
 10
865.0720320077
 20
569.4383810314
 30
0.0
 11
905.3720320077
 21
569.4383810314
 31
0.0
  0
ARC
  5
196
330
176
100
AcDbEntity
  8
$DDT_AUDIT_GENERATED_(BB)
  6
Continuous
 62
     7
100
AcDbCircle
 10
905.3720320077
 20
568.9383810314
 30
0.0
 40
0.5000000000000004
100
AcDbArc
 50
0.0
 51
90.0
  0
ARC
  5
197
330
176
100
AcDbEntity
  8
$DDT_AUDIT_GENERATED_(BB)
  6
Continuous
 62
     7
100
AcDbCircle
 10
905.3720320077
 20
549.9383810314
 30
0.0
 40
0.4999999999999987
100
AcDbArc
 50
270.0
 51
0.0
  0
ARC
  5
198
330
176
100
AcDbEntity
  8
$DDT_AUDIT_GENERATED_(BB)
  6
Continuous
 62
     7
100
AcDbCircle
 10
865.0720320077
 20
568.9383810314
 30
0.0
 40
0.5000000000000004
100
AcDbArc
 50
90.0
 51
180.0
  0
ARC
  5
199
330
176
100
AcDbEntity
  8
$DDT_AUDIT_GENERATED_(BB)
  6
Continuous
 62
     7
100
AcDbCircle
 10
865.0720320077
 20
549.9383810314
 30
0.0
 40
0.5000000000000004
100
AcDbArc
 50
180.0
 51
270.0
  0
LINE
  5
19A
330
176
100
AcDbEntity
  8
$DDT_AUDIT_GENERATED_(C4)
  6
Continuous
 62
     7
100
AcDbLine
 10
852.7220320077
 20
535.0383810314
 30
0.0
 11
852.7220320077
 21
535.3383810314
 31
0.0
  0
LINE
  5
19B
330
176
100
AcDbEntity
  8
$DDT_AUDIT_GENERATED_(C4)
  6
Continuous
 62
     7
100
AcDbLine
 10
917.7220320077
 20
535.3383810314
 30
0.0
 11
917.7220320077
 21
535.0383810314
 31
0.0
  0
SPLINE
  5
19C
330
176
100
AcDbEntity
  8
$DDT_AUDIT_GENERATED_(D9)
  6
Continuous
 62
     7
100
AcDbSpline
210
0.0
220
0.0
230
1.0
 70
    12
 71
     5
 72
    12
 73
     6
 74
     0
 42
0.0000000251373102
 43
0.0000000001
 40
0.0
 40
0.0
 40
0.0
 40
0.0
 40
0.0
 40
0.0
 40
1.0
 40
1.0
 40
1.0
 40
1.0
 40
1.0
 40
1.0
 10
896.7258391272476
 20
786.5883810313834
 30
0.0
 41
1.0
 10
896.8086818397228
 20
786.5883810313834
 30
0.0
 41
1.0
 10
896.8876030651809
 20
786.5715916899904
 30
0.0
 41
1.0
 10
896.9604586122529
 20
786.5401576443775
 30
0.0
 41
1.0
 10
897.0251031959608
 20
786.4962237438564
 30
0.0
 41
1.0
 10
897.0793925178418
 20
786.4419344219735
 30
0.0
 41
1.0
  0
SPLINE
  5
19D
330
176
100
AcDbEntity
  8
$DDT_AUDIT_GENERATED_(D9)
  6
Continuous
 62
     7
100
AcDbSpline
210
0.0
220
0.0
230
1.0
 70
    12
 71
     5
 72
    12
 73
     6
 74
     0
 42
0.0000000251373102
 43
0.0000000001
 40
0.0
 40
0.0
 40
0.0
 40
0.0
 40
0.0
 40
0.0
 40
1.0
 40
1.0
 40
1.0
 40
1.0
 40
1.0
 40
1.0
 10
897.0793925178418
 20
786.4419344219735
 30
0.0
 41
1.0
 10
897.1336818397228
 20
786.3876451000915
 30
0.0
 41
1.0
 10
897.177615740245
 20
786.3230005163825
 30
0.0
 41
1.0
 10
897.209049785855
 20
786.2501449693094
 30
0.0
 41
1.0
 10
897.2258391272478
 20
786.1712237438514
 30
0.0
 41
1.0
 10
897.2258391268131
 20
786.0883810313785
 30
0.0
 41
1.0
  0
SPLINE
  5
19E
330
176
100
AcDbEntity
  8
$DDT_AUDIT_GENERATED_(D9)
  6
Continuous
 62
     7
100
AcDbSpline
210
0.0
220
0.0
230
1.0
 70
    12
 71
     5
 72
    12
 73
     6
 74
     0
 42
0.0000000251373102
 43
0.0000000001
 40
0.0
 40
0.0
 40
0.0
 40
0.0
 40
0.0
 40
0.0
 40
1.0
 40
1.0
 40
1.0
 40
1.0
 40
1.0
 40
1.0
 10
873.2258391276823
 20
786.0883810313754
 30
0.0
 41
1.0
 10
873.2258391272483
 20
786.1712237438505
 30
0.0
 41
1.0
 10
873.2426284686413
 20
786.2501449693075
 30
0.0
 41
1.0
 10
873.2740625142513
 20
786.3230005163815
 30
0.0
 41
1.0
 10
873.3179964147721
 20
786.3876451000904
 30
0.0
 41
1.0
 10
873.3722857366528
 20
786.4419344219735
 30
0.0
 41
1.0
  0
SPLINE
  5
19F
330
176
100
AcDbEntity
  8
$DDT_AUDIT_GENERATED_(D9)
  6
Continuous
 62
     7
100
AcDbSpline
210
0.0
220
0.0
230
1.0
 70
    12
 71
     5
 72
    12
 73
     6
 74
     0
 42
0.0000000251373102
 43
0.0000000001
 40
0.0
 40
0.0
 40
0.0
 40
0.0
 40
0.0
 40
0.0
 40
1.0
 40
1.0
 40
1.0
 40
1.0
 40
1.0
 40
1.0
 10
873.7258391272479
 20
786.5883810313834
 30
0.0
 41
1.0
 10
873.6429964147718
 20
786.5883810313834
 30
0.0
 41
1.0
 10
873.5640751893148
 20
786.5715916899894
 30
0.0
 41
1.0
 10
873.4912196422429
 20
786.5401576443794
 30
0.0
 41
1.0
 10
873.4265750585338
 20
786.4962237438556
 30
0.0
 41
1.0
 10
873.3722857366528
 20
786.4419344219735
 30
0.0
 41
1.0
  0
LINE
  5
1A0
330
176
100
AcDbEntity
  8
$DDT_AUDIT_GENERATED_(D9)
  6
Continuous
 62
     7
100
AcDbLine
 10
873.7258391272
 20
786.5883810314
 30
0.0
 11
896.7258391272
 21
786.5883810314
 31
0.0
  0
LINE
  5
1A1
330
176
100
AcDbEntity
  8
$DDT_AUDIT_GENERATED_(D9)
  6
Continuous
 62
     7
100
AcDbLine
 10
873.2258391272
 20
644.0383810314
 30
0.0
 11
873.2258391272
 21
786.0883810314
 31
0.0
  0
LINE
  5
1A2
330
176
100
AcDbEntity
  8
$DDT_AUDIT_GENERATED_(D9)
  6
Continuous
 62
     7
100
AcDbLine
 10
897.2258391272
 20
786.0883810314
 30
0.0
 11
897.2258391272
 21
644.0383810314
 31
0.0
  0
SPLINE
  5
1A3
330
176
100
AcDbEntity
  8
$DDT_AUDIT_GENERATED_(D9)
  6
Continuous
 62
     7
100
AcDbSpline
210
0.0
220
0.0
230
1.0
 70
    12
 71
     5
 72
    12
 73
     6
 74
     0
 42
0.0000000070880827
 43
0.0000000001
 40
0.0
 40
0.0
 40
0.0
 40
0.0
 40
0.0
 40
0.0
 40
1.0
 40
1.0
 40
1.0
 40
1.0
 40
1.0
 40
1.0
 10
897.9758391272479
 20
765.4885341853834
 30
0.0
 41
1.0
 10
898.3486063527788
 20
765.4886518004324
 30
0.0
 41
1.0
 10
898.5736056459998
 20
765.4887227328416
 30
0.0
 41
1.0
 10
898.7258391272474
 20
765.6407417342566
 30
0.0
 41
1.0
 10
898.7258391272474
 20
765.8657780404534
 30
0.0
 41
1.0
 10
898.7258391272474
 20
766.2386548980584
 30
0.0
 41
1.0
  0
LINE
  5
1A4
330
176
100
AcDbEntity
  8
$DDT_AUDIT_GENERATED_(D9)
  6
Continuous
 62
     7
100
AcDbLine
 10
898.7258391272
 20
766.2386548969
 30
0.0
 11
898.7258391272
 21
767.4383318922
 31
0.0
  0
LINE
  5
1A5
330
176
100
AcDbEntity
  8
$DDT_AUDIT_GENERATED_(D9)
  6
Continuous
 62
     7
100
AcDbLine
 10
897.9758391272
 20
765.5144340667
 30
0.0
 11
897.9758391272
 21
765.4885341854
 31
0.0
  0
SPLINE
  5
1A6
330
176
100
AcDbEntity
  8
$DDT_AUDIT_GENERATED_(D9)
  6
Continuous
 62
     7
100
AcDbSpline
210
0.0
220
0.0
230
1.0
 70
    12
 71
     3
 72
     8
 73
     4
 74
     0
 42
0.0000000133333331
 43
0.0000000001
 40
0.0
 40
0.0
 40
0.0
 40
0.0
 40
1.0
 40
1.0
 40
1.0
 40
1.0
 10
897.2258391272478
 20
765.4884598922054
 30
0.0
 41
1.0
 10
897.4758391272461
 20
765.4884598922054
 30
0.0
 41
1.0
 10
897.7258391272445
 20
765.4884598922054
 30
0.0
 41
1.0
 10
897.9758391272479
 20
765.4885341853834
 30
0.0
 41
1.0
  0
SPLINE
  5
1A7
330
176
100
AcDbEntity
  8
$DDT_AUDIT_GENERATED_(D9)
  6
Continuous
 62
     7
100
AcDbSpline
210
0.0
220
0.0
230
1.0
 70
    12
 71
     5
 72
    12
 73
     6
 74
     0
 42
0.0000000070879823
 43
0.0000000001
 40
0.0
 40
0.0
 40
0.0
 40
0.0
 40
0.0
 40
0.0
 40
1.0
 40
1.0
 40
1.0
 40
1.0
 40
1.0
 40
1.0
 10
897.9758391272452
 20
768.1883318921485
 30
0.0
 41
1.0
 10
898.3486313333788
 20
768.1883318921485
 30
0.0
 41
1.0
 10
898.573631333378
 20
768.1883318921485
 30
0.0
 41
1.0
 10
898.7258391272429
 20
768.0361240982895
 30
0.0
 41
1.0
 10
898.7258391272479
 20
767.8111240982945
 30
0.0
 41
1.0
 10
898.7258391272479
 20
767.4383318921684
 30
0.0
 41
1.0
  0
LINE
  5
1A8
330
176
100
AcDbEntity
  8
$DDT_AUDIT_GENERATED_(D9)
  6
Continuous
 62
     7
100
AcDbLine
 10
897.2258391272
 20
768.1883318921
 30
0.0
 11
897.9758391272
 21
768.1883318921
 31
0.0
  0
SPLINE
  5
1A9
330
176
100
AcDbEntity
  8
$DDT_AUDIT_GENERATED_(D9)
  6
Continuous
 62
     7
100
AcDbSpline
210
0.0
220
0.0
230
1.0
 70
    12
 71
     5
 72
    12
 73
     6
 74
     0
 42
0.0000000070880827
 43
0.0000000001
 40
0.0
 40
0.0
 40
0.0
 40
0.0
 40
0.0
 40
0.0
 40
1.0
 40
1.0
 40
1.0
 40
1.0
 40
1.0
 40
1.0
 10
897.9758391272479
 20
727.9885341853834
 30
0.0
 41
1.0
 10
898.3486063527788
 20
727.9886518004325
 30
0.0
 41
1.0
 10
898.5736056459998
 20
727.9887227328414
 30
0.0
 41
1.0
 10
898.7258391272474
 20
728.1407417342565
 30
0.0
 41
1.0
 10
898.7258391272474
 20
728.3657780404535
 30
0.0
 41
1.0
 10
898.7258391272474
 20
728.7386548980585
 30
0.0
 41
1.0
  0
LINE
  5
1AA
330
176
100
AcDbEntity
  8
$DDT_AUDIT_GENERATED_(D9)
  6
Continuous
 62
     7
100
AcDbLine
 10
898.7258391272
 20
728.7386548969
 30
0.0
 11
898.7258391272
 21
729.9383318922
 31
0.0
  0
LINE
  5
1AB
330
176
100
AcDbEntity
  8
$DDT_AUDIT_GENERATED_(D9)
  6
Continuous
 62
     7
100
AcDbLine
 10
897.9758391272
 20
728.0144340667
 30
0.0
 11
897.9758391272
 21
727.9885341854
 31
0.0
  0
SPLINE
  5
1AC
330
176
100
AcDbEntity
  8
$DDT_AUDIT_GENERATED_(D9)
  6
Continuous
 62
     7
100
AcDbSpline
210
0.0
220
0.0
230
1.0
 70
    12
 71
     3
 72
     8
 73
     4
 74
     0
 42
0.0000000133333331
 43
0.0000000001
 40
0.0
 40
0.0
 40
0.0
 40
0.0
 40
1.0
 40
1.0
 40
1.0
 40
1.0
 10
897.2258391272478
 20
727.9884598922055
 30
0.0
 41
1.0
 10
897.4758391272461
 20
727.9884598922055
 30
0.0
 41
1.0
 10
897.7258391272445
 20
727.9884598922055
 30
0.0
 41
1.0
 10
897.9758391272479
 20
727.9885341853834
 30
0.0
 41
1.0
  0
SPLINE
  5
1AD
330
176
100
AcDbEntity
  8
$DDT_AUDIT_GENERATED_(D9)
  6
Continuous
 62
     7
100
AcDbSpline
210
0.0
220
0.0
230
1.0
 70
    12
 71
     5
 72
    12
 73
     6
 74
     0
 42
0.0000000070879823
 43
0.0000000001
 40
0.0
 40
0.0
 40
0.0
 40
0.0
 40
0.0
 40
0.0
 40
1.0
 40
1.0
 40
1.0
 40
1.0
 40
1.0
 40
1.0
 10
897.9758391272452
 20
730.6883318921484
 30
0.0
 41
1.0
 10
898.3486313333788
 20
730.6883318921484
 30
0.0
 41
1.0
 10
898.573631333378
 20
730.6883318921484
 30
0.0
 41
1.0
 10
898.7258391272429
 20
730.5361240982895
 30
0.0
 41
1.0
 10
898.7258391272479
 20
730.3111240982935
 30
0.0
 41
1.0
 10
898.7258391272479
 20
729.9383318921684
 30
0.0
 41
1.0
  0
LINE
  5
1AE
330
176
100
AcDbEntity
  8
$DDT_AUDIT_GENERATED_(D9)
  6
Continuous
 62
     7
100
AcDbLine
 10
897.2258391272
 20
730.6883318921
 30
0.0
 11
897.9758391272
 21
730.6883318921
 31
0.0
  0
SPLINE
  5
1AF
330
176
100
AcDbEntity
  8
$DDT_AUDIT_GENERATED_(D9)
  6
Continuous
 62
     7
100
AcDbSpline
210
0.0
220
0.0
230
1.0
 70
    12
 71
     5
 72
    12
 73
     6
 74
     0
 42
0.0000000070880827
 43
0.0000000001
 40
0.0
 40
0.0
 40
0.0
 40
0.0
 40
0.0
 40
0.0
 40
1.0
 40
1.0
 40
1.0
 40
1.0
 40
1.0
 40
1.0
 10
897.9758391272479
 20
750.4885341853835
 30
0.0
 41
1.0
 10
898.3486063527788
 20
750.4886518004324
 30
0.0
 41
1.0
 10
898.5736056459998
 20
750.4887227328414
 30
0.0
 41
1.0
 10
898.7258391272474
 20
750.6407417342564
 30
0.0
 41
1.0
 10
898.7258391272474
 20
750.8657780404535
 30
0.0
 41
1.0
 10
898.7258391272474
 20
751.2386548980575
 30
0.0
 41
1.0
  0
LINE
  5
1B0
330
176
100
AcDbEntity
  8
$DDT_AUDIT_GENERATED_(D9)
  6
Continuous
 62
     7
100
AcDbLine
 10
898.7258391272
 20
751.2386548969
 30
0.0
 11
898.7258391272
 21
752.4383318922
 31
0.0
  0
LINE
  5
1B1
330
176
100
AcDbEntity
  8
$DDT_AUDIT_GENERATED_(D9)
  6
Continuous
 62
     7
100
AcDbLine
 10
897.9758391272
 20
750.5144340667
 30
0.0
 11
897.9758391272
 21
750.4885341854
 31
0.0
  0
SPLINE
  5
1B2
330
176
100
AcDbEntity
  8
$DDT_AUDIT_GENERATED_(D9)
  6
Continuous
 62
     7
100
AcDbSpline
210
0.0
220
0.0
230
1.0
 70
    12
 71
     3
 72
     8
 73
     4
 74
     0
 42
0.0000000133333331
 43
0.0000000001
 40
0.0
 40
0.0
 40
0.0
 40
0.0
 40
1.0
 40
1.0
 40
1.0
 40
1.0
 10
897.2258391272478
 20
750.4884598922055
 30
0.0
 41
1.0
 10
897.4758391272461
 20
750.4884598922055
 30
0.0
 41
1.0
 10
897.7258391272445
 20
750.4884598922055
 30
0.0
 41
1.0
 10
897.9758391272479
 20
750.4885341853835
 30
0.0
 41
1.0
  0
SPLINE
  5
1B3
330
176
100
AcDbEntity
  8
$DDT_AUDIT_GENERATED_(D9)
  6
Continuous
 62
     7
100
AcDbSpline
210
0.0
220
0.0
230
1.0
 70
    12
 71
     5
 72
    12
 73
     6
 74
     0
 42
0.0000000070879823
 43
0.0000000001
 40
0.0
 40
0.0
 40
0.0
 40
0.0
 40
0.0
 40
0.0
 40
1.0
 40
1.0
 40
1.0
 40
1.0
 40
1.0
 40
1.0
 10
897.9758391272452
 20
753.1883318921484
 30
0.0
 41
1.0
 10
898.3486313333788
 20
753.1883318921484
 30
0.0
 41
1.0
 10
898.573631333378
 20
753.1883318921484
 30
0.0
 41
1.0
 10
898.7258391272429
 20
753.0361240982894
 30
0.0
 41
1.0
 10
898.7258391272479
 20
752.8111240982936
 30
0.0
 41
1.0
 10
898.7258391272479
 20
752.4383318921684
 30
0.0
 41
1.0
  0
LINE
  5
1B4
330
176
100
AcDbEntity
  8
$DDT_AUDIT_GENERATED_(D9)
  6
Continuous
 62
     7
100
AcDbLine
 10
897.2258391272
 20
753.1883318921
 30
0.0
 11
897.9758391272
 21
753.1883318921
 31
0.0
  0
SPLINE
  5
1B5
330
176
100
AcDbEntity
  8
$DDT_AUDIT_GENERATED_(D9)
  6
Continuous
 62
     7
100
AcDbSpline
210
0.0
220
0.0
230
1.0
 70
    12
 71
     5
 72
    12
 73
     6
 74
     0
 42
0.0000000070880827
 43
0.0000000001
 40
0.0
 40
0.0
 40
0.0
 40
0.0
 40
0.0
 40
0.0
 40
1.0
 40
1.0
 40
1.0
 40
1.0
 40
1.0
 40
1.0
 10
897.9758391272479
 20
742.9885341853835
 30
0.0
 41
1.0
 10
898.3486063527788
 20
742.9886518004325
 30
0.0
 41
1.0
 10
898.5736056459998
 20
742.9887227328414
 30
0.0
 41
1.0
 10
898.7258391272474
 20
743.1407417342565
 30
0.0
 41
1.0
 10
898.7258391272474
 20
743.3657780404535
 30
0.0
 41
1.0
 10
898.7258391272474
 20
743.7386548980575
 30
0.0
 41
1.0
  0
LINE
  5
1B6
330
176
100
AcDbEntity
  8
$DDT_AUDIT_GENERATED_(D9)
  6
Continuous
 62
     7
100
AcDbLine
 10
898.7258391272
 20
743.7386548969
 30
0.0
 11
898.7258391272
 21
744.9383318922
 31
0.0
  0
LINE
  5
1B7
330
176
100
AcDbEntity
  8
$DDT_AUDIT_GENERATED_(D9)
  6
Continuous
 62
     7
100
AcDbLine
 10
897.9758391272
 20
743.0144340667
 30
0.0
 11
897.9758391272
 21
742.9885341854
 31
0.0
  0
SPLINE
  5
1B8
330
176
100
AcDbEntity
  8
$DDT_AUDIT_GENERATED_(D9)
  6
Continuous
 62
     7
100
AcDbSpline
210
0.0
220
0.0
230
1.0
 70
    12
 71
     3
 72
     8
 73
     4
 74
     0
 42
0.0000000133333331
 43
0.0000000001
 40
0.0
 40
0.0
 40
0.0
 40
0.0
 40
1.0
 40
1.0
 40
1.0
 40
1.0
 10
897.2258391272478
 20
742.9884598922054
 30
0.0
 41
1.0
 10
897.4758391272461
 20
742.9884598922054
 30
0.0
 41
1.0
 10
897.7258391272445
 20
742.9884598922054
 30
0.0
 41
1.0
 10
897.9758391272479
 20
742.9885341853835
 30
0.0
 41
1.0
  0
SPLINE
  5
1B9
330
176
100
AcDbEntity
  8
$DDT_AUDIT_GENERATED_(D9)
  6
Continuous
 62
     7
100
AcDbSpline
210
0.0
220
0.0
230
1.0
 70
    12
 71
     5
 72
    12
 73
     6
 74
     0
 42
0.0000000070879823
 43
0.0000000001
 40
0.0
 40
0.0
 40
0.0
 40
0.0
 40
0.0
 40
0.0
 40
1.0
 40
1.0
 40
1.0
 40
1.0
 40
1.0
 40
1.0
 10
897.9758391272452
 20
745.6883318921484
 30
0.0
 41
1.0
 10
898.3486313333788
 20
745.6883318921484
 30
0.0
 41
1.0
 10
898.573631333378
 20
745.6883318921484
 30
0.0
 41
1.0
 10
898.7258391272429
 20
745.5361240982894
 30
0.0
 41
1.0
 10
898.7258391272479
 20
745.3111240982935
 30
0.0
 41
1.0
 10
898.7258391272479
 20
744.9383318921685
 30
0.0
 41
1.0
  0
LINE
  5
1BA
330
176
100
AcDbEntity
  8
$DDT_AUDIT_GENERATED_(D9)
  6
Continuous
 62
     7
100
AcDbLine
 10
897.2258391272
 20
745.6883318921
 30
0.0
 11
897.9758391272
 21
745.6883318921
 31
0.0
  0
SPLINE
  5
1BB
330
176
100
AcDbEntity
  8
$DDT_AUDIT_GENERATED_(D9)
  6
Continuous
 62
     7
100
AcDbSpline
210
0.0
220
0.0
230
1.0
 70
    12
 71
     5
 72
    12
 73
     6
 74
     0
 42
0.0000000070880827
 43
0.0000000001
 40
0.0
 40
0.0
 40
0.0
 40
0.0
 40
0.0
 40
0.0
 40
1.0
 40
1.0
 40
1.0
 40
1.0
 40
1.0
 40
1.0
 10
897.9758391272479
 20
757.9885341853835
 30
0.0
 41
1.0
 10
898.3486063527788
 20
757.9886518004315
 30
0.0
 41
1.0
 10
898.5736056459998
 20
757.9887227328414
 30
0.0
 41
1.0
 10
898.7258391272474
 20
758.1407417342565
 30
0.0
 41
1.0
 10
898.7258391272474
 20
758.3657780404535
 30
0.0
 41
1.0
 10
898.7258391272474
 20
758.7386548980575
 30
0.0
 41
1.0
  0
LINE
  5
1BC
330
176
100
AcDbEntity
  8
$DDT_AUDIT_GENERATED_(D9)
  6
Continuous
 62
     7
100
AcDbLine
 10
898.7258391272
 20
758.7386548969
 30
0.0
 11
898.7258391272
 21
759.9383318922
 31
0.0
  0
LINE
  5
1BD
330
176
100
AcDbEntity
  8
$DDT_AUDIT_GENERATED_(D9)
  6
Continuous
 62
     7
100
AcDbLine
 10
897.9758391272
 20
758.0144340667
 30
0.0
 11
897.9758391272
 21
757.9885341854
 31
0.0
  0
SPLINE
  5
1BE
330
176
100
AcDbEntity
  8
$DDT_AUDIT_GENERATED_(D9)
  6
Continuous
 62
     7
100
AcDbSpline
210
0.0
220
0.0
230
1.0
 70
    12
 71
     3
 72
     8
 73
     4
 74
     0
 42
0.0000000133333331
 43
0.0000000001
 40
0.0
 40
0.0
 40
0.0
 40
0.0
 40
1.0
 40
1.0
 40
1.0
 40
1.0
 10
897.2258391272478
 20
757.9884598922056
 30
0.0
 41
1.0
 10
897.4758391272461
 20
757.9884598922056
 30
0.0
 41
1.0
 10
897.7258391272445
 20
757.9884598922056
 30
0.0
 41
1.0
 10
897.9758391272479
 20
757.9885341853835
 30
0.0
 41
1.0
  0
SPLINE
  5
1BF
330
176
100
AcDbEntity
  8
$DDT_AUDIT_GENERATED_(D9)
  6
Continuous
 62
     7
100
AcDbSpline
210
0.0
220
0.0
230
1.0
 70
    12
 71
     5
 72
    12
 73
     6
 74
     0
 42
0.0000000070879823
 43
0.0000000001
 40
0.0
 40
0.0
 40
0.0
 40
0.0
 40
0.0
 40
0.0
 40
1.0
 40
1.0
 40
1.0
 40
1.0
 40
1.0
 40
1.0
 10
897.9758391272452
 20
760.6883318921484
 30
0.0
 41
1.0
 10
898.3486313333788
 20
760.6883318921484
 30
0.0
 41
1.0
 10
898.573631333378
 20
760.6883318921484
 30
0.0
 41
1.0
 10
898.7258391272429
 20
760.5361240982884
 30
0.0
 41
1.0
 10
898.7258391272479
 20
760.3111240982935
 30
0.0
 41
1.0
 10
898.7258391272479
 20
759.9383318921684
 30
0.0
 41
1.0
  0
LINE
  5
1C0
330
176
100
AcDbEntity
  8
$DDT_AUDIT_GENERATED_(D9)
  6
Continuous
 62
     7
100
AcDbLine
 10
897.2258391272
 20
760.6883318921
 30
0.0
 11
897.9758391272
 21
760.6883318921
 31
0.0
  0
SPLINE
  5
1C1
330
176
100
AcDbEntity
  8
$DDT_AUDIT_GENERATED_(D9)
  6
Continuous
 62
     7
100
AcDbSpline
210
0.0
220
0.0
230
1.0
 70
    12
 71
     5
 72
    12
 73
     6
 74
     0
 42
0.0000000070880827
 43
0.0000000001
 40
0.0
 40
0.0
 40
0.0
 40
0.0
 40
0.0
 40
0.0
 40
1.0
 40
1.0
 40
1.0
 40
1.0
 40
1.0
 40
1.0
 10
897.9758391272479
 20
720.4885301854355
 30
0.0
 41
1.0
 10
898.3486063527788
 20
720.4886478004835
 30
0.0
 41
1.0
 10
898.5736056459998
 20
720.4887187328925
 30
0.0
 41
1.0
 10
898.7258391272474
 20
720.6407377343085
 30
0.0
 41
1.0
 10
898.7258391272474
 20
720.8657740405056
 30
0.0
 41
1.0
 10
898.7258391272474
 20
721.2386508981094
 30
0.0
 41
1.0
  0
LINE
  5
1C2
330
176
100
AcDbEntity
  8
$DDT_AUDIT_GENERATED_(D9)
  6
Continuous
 62
     7
100
AcDbLine
 10
898.7258391272
 20
721.238650897
 30
0.0
 11
898.7258391272
 21
722.4383278922
 31
0.0
  0
LINE
  5
1C3
330
176
100
AcDbEntity
  8
$DDT_AUDIT_GENERATED_(D9)
  6
Continuous
 62
     7
100
AcDbLine
 10
897.9758391272
 20
720.5144300668
 30
0.0
 11
897.9758391272
 21
720.4885301854
 31
0.0
  0
SPLINE
  5
1C4
330
176
100
AcDbEntity
  8
$DDT_AUDIT_GENERATED_(D9)
  6
Continuous
 62
     7
100
AcDbSpline
210
0.0
220
0.0
230
1.0
 70
    12
 71
     3
 72
     8
 73
     4
 74
     0
 42
0.0000000133333331
 43
0.0000000001
 40
0.0
 40
0.0
 40
0.0
 40
0.0
 40
1.0
 40
1.0
 40
1.0
 40
1.0
 10
897.2258391272478
 20
720.4884558922575
 30
0.0
 41
1.0
 10
897.4758391272461
 20
720.4884558922575
 30
0.0
 41
1.0
 10
897.7258391272445
 20
720.4884558922575
 30
0.0
 41
1.0
 10
897.9758391272479
 20
720.4885301854355
 30
0.0
 41
1.0
  0
SPLINE
  5
1C5
330
176
100
AcDbEntity
  8
$DDT_AUDIT_GENERATED_(D9)
  6
Continuous
 62
     7
100
AcDbSpline
210
0.0
220
0.0
230
1.0
 70
    12
 71
     5
 72
    12
 73
     6
 74
     0
 42
0.0000000070879823
 43
0.0000000001
 40
0.0
 40
0.0
 40
0.0
 40
0.0
 40
0.0
 40
0.0
 40
1.0
 40
1.0
 40
1.0
 40
1.0
 40
1.0
 40
1.0
 10
897.9758391272452
 20
723.1883278921995
 30
0.0
 41
1.0
 10
898.3486313333788
 20
723.1883278921995
 30
0.0
 41
1.0
 10
898.573631333378
 20
723.1883278921995
 30
0.0
 41
1.0
 10
898.7258391272429
 20
723.0361200983403
 30
0.0
 41
1.0
 10
898.7258391272479
 20
722.8111200983454
 30
0.0
 41
1.0
 10
898.7258391272479
 20
722.4383278922195
 30
0.0
 41
1.0
  0
LINE
  5
1C6
330
176
100
AcDbEntity
  8
$DDT_AUDIT_GENERATED_(D9)
  6
Continuous
 62
     7
100
AcDbLine
 10
897.2258391272
 20
723.1883278922
 30
0.0
 11
897.9758391272
 21
723.1883278922
 31
0.0
  0
SPLINE
  5
1C7
330
176
100
AcDbEntity
  8
$DDT_AUDIT_GENERATED_(D9)
  6
Continuous
 62
     7
100
AcDbSpline
210
0.0
220
0.0
230
1.0
 70
    12
 71
     5
 72
    12
 73
     6
 74
     0
 42
0.0000000070880827
 43
0.0000000001
 40
0.0
 40
0.0
 40
0.0
 40
0.0
 40
0.0
 40
0.0
 40
1.0
 40
1.0
 40
1.0
 40
1.0
 40
1.0
 40
1.0
 10
897.9758391272479
 20
772.9885173246195
 30
0.0
 41
1.0
 10
898.3486063527788
 20
772.9886349396675
 30
0.0
 41
1.0
 10
898.5736056459998
 20
772.9887058720765
 30
0.0
 41
1.0
 10
898.7258391272474
 20
773.1407248734924
 30
0.0
 41
1.0
 10
898.7258391272474
 20
773.3657611796895
 30
0.0
 41
1.0
 10
898.7258391272474
 20
773.7386380372935
 30
0.0
 41
1.0
  0
LINE
  5
1C8
330
176
100
AcDbEntity
  8
$DDT_AUDIT_GENERATED_(D9)
  6
Continuous
 62
     7
100
AcDbLine
 10
898.7258391272
 20
773.7386380361
 30
0.0
 11
898.7258391272
 21
774.9383150314
 31
0.0
  0
LINE
  5
1C9
330
176
100
AcDbEntity
  8
$DDT_AUDIT_GENERATED_(D9)
  6
Continuous
 62
     7
100
AcDbLine
 10
897.9758391272
 20
773.0144172059
 30
0.0
 11
897.9758391272
 21
772.9885173246
 31
0.0
  0
SPLINE
  5
1CA
330
176
100
AcDbEntity
  8
$DDT_AUDIT_GENERATED_(D9)
  6
Continuous
 62
     7
100
AcDbSpline
210
0.0
220
0.0
230
1.0
 70
    12
 71
     3
 72
     8
 73
     4
 74
     0
 42
0.0000000133333331
 43
0.0000000001
 40
0.0
 40
0.0
 40
0.0
 40
0.0
 40
1.0
 40
1.0
 40
1.0
 40
1.0
 10
897.2258391272478
 20
772.9884430314415
 30
0.0
 41
1.0
 10
897.4758391272461
 20
772.9884430314415
 30
0.0
 41
1.0
 10
897.7258391272445
 20
772.9884430314415
 30
0.0
 41
1.0
 10
897.9758391272479
 20
772.9885173246195
 30
0.0
 41
1.0
  0
SPLINE
  5
1CB
330
176
100
AcDbEntity
  8
$DDT_AUDIT_GENERATED_(D9)
  6
Continuous
 62
     7
100
AcDbSpline
210
0.0
220
0.0
230
1.0
 70
    12
 71
     5
 72
    12
 73
     6
 74
     0
 42
0.0000000070879823
 43
0.0000000001
 40
0.0
 40
0.0
 40
0.0
 40
0.0
 40
0.0
 40
0.0
 40
1.0
 40
1.0
 40
1.0
 40
1.0
 40
1.0
 40
1.0
 10
897.9758391272452
 20
775.6883150313835
 30
0.0
 41
1.0
 10
898.3486313333788
 20
775.6883150313835
 30
0.0
 41
1.0
 10
898.573631333378
 20
775.6883150313835
 30
0.0
 41
1.0
 10
898.7258391272429
 20
775.5361072375244
 30
0.0
 41
1.0
 10
898.7258391272479
 20
775.3111072375295
 30
0.0
 41
1.0
 10
898.7258391272479
 20
774.9383150314036
 30
0.0
 41
1.0
  0
LINE
  5
1CC
330
176
100
AcDbEntity
  8
$DDT_AUDIT_GENERATED_(D9)
  6
Continuous
 62
     7
100
AcDbLine
 10
897.2258391272
 20
775.6883150314
 30
0.0
 11
897.9758391272
 21
775.6883150314
 31
0.0
  0
SPLINE
  5
1CD
330
176
100
AcDbEntity
  8
$DDT_AUDIT_GENERATED_(D9)
  6
Continuous
 62
     7
100
AcDbSpline
210
0.0
220
0.0
230
1.0
 70
    12
 71
     5
 72
    12
 73
     6
 74
     0
 42
0.0000000070880827
 43
0.0000000001
 40
0.0
 40
0.0
 40
0.0
 40
0.0
 40
0.0
 40
0.0
 40
1.0
 40
1.0
 40
1.0
 40
1.0
 40
1.0
 40
1.0
 10
897.9758391272479
 20
735.4885341853834
 30
0.0
 41
1.0
 10
898.3486063527788
 20
735.4886518004324
 30
0.0
 41
1.0
 10
898.5736056459998
 20
735.4887227328414
 30
0.0
 41
1.0
 10
898.7258391272474
 20
735.6407417342565
 30
0.0
 41
1.0
 10
898.7258391272474
 20
735.8657780404534
 30
0.0
 41
1.0
 10
898.7258391272474
 20
736.2386548980575
 30
0.0
 41
1.0
  0
LINE
  5
1CE
330
176
100
AcDbEntity
  8
$DDT_AUDIT_GENERATED_(D9)
  6
Continuous
 62
     7
100
AcDbLine
 10
898.7258391272
 20
736.2386548969
 30
0.0
 11
898.7258391272
 21
737.4383318922
 31
0.0
  0
LINE
  5
1CF
330
176
100
AcDbEntity
  8
$DDT_AUDIT_GENERATED_(D9)
  6
Continuous
 62
     7
100
AcDbLine
 10
897.9758391272
 20
735.5144340667
 30
0.0
 11
897.9758391272
 21
735.4885341854
 31
0.0
  0
SPLINE
  5
1D0
330
176
100
AcDbEntity
  8
$DDT_AUDIT_GENERATED_(D9)
  6
Continuous
 62
     7
100
AcDbSpline
210
0.0
220
0.0
230
1.0
 70
    12
 71
     3
 72
     8
 73
     4
 74
     0
 42
0.0000000133333331
 43
0.0000000001
 40
0.0
 40
0.0
 40
0.0
 40
0.0
 40
1.0
 40
1.0
 40
1.0
 40
1.0
 10
897.2258391272478
 20
735.4884598922055
 30
0.0
 41
1.0
 10
897.4758391272461
 20
735.4884598922055
 30
0.0
 41
1.0
 10
897.7258391272445
 20
735.4884598922055
 30
0.0
 41
1.0
 10
897.9758391272479
 20
735.4885341853834
 30
0.0
 41
1.0
  0
SPLINE
  5
1D1
330
176
100
AcDbEntity
  8
$DDT_AUDIT_GENERATED_(D9)
  6
Continuous
 62
     7
100
AcDbSpline
210
0.0
220
0.0
230
1.0
 70
    12
 71
     5
 72
    12
 73
     6
 74
     0
 42
0.0000000070879823
 43
0.0000000001
 40
0.0
 40
0.0
 40
0.0
 40
0.0
 40
0.0
 40
0.0
 40
1.0
 40
1.0
 40
1.0
 40
1.0
 40
1.0
 40
1.0
 10
897.9758391272452
 20
738.1883318921485
 30
0.0
 41
1.0
 10
898.3486313333788
 20
738.1883318921485
 30
0.0
 41
1.0
 10
898.573631333378
 20
738.1883318921485
 30
0.0
 41
1.0
 10
898.7258391272429
 20
738.0361240982895
 30
0.0
 41
1.0
 10
898.7258391272479
 20
737.8111240982934
 30
0.0
 41
1.0
 10
898.7258391272479
 20
737.4383318921684
 30
0.0
 41
1.0
  0
LINE
  5
1D2
330
176
100
AcDbEntity
  8
$DDT_AUDIT_GENERATED_(D9)
  6
Continuous
 62
     7
100
AcDbLine
 10
897.2258391272
 20
738.1883318921
 30
0.0
 11
897.9758391272
 21
738.1883318921
 31
0.0
  0
LINE
  5
1D3
330
176
100
AcDbEntity
  8
$DDT_AUDIT_GENERATED_(D9)
  6
Continuous
 62
     7
100
AcDbLine
 10
898.187029853
 20
745.6856315461
 30
0.0
 11
898.1246650715
 21
745.6787446687
 31
0.0
  0
LINE
  5
1D4
330
176
100
AcDbEntity
  8
$DDT_AUDIT_GENERATED_(D9)
  6
Continuous
 62
     7
100
AcDbLine
 10
898.187029853
 20
753.1856315461
 30
0.0
 11
898.1246650715
 21
753.1787446687
 31
0.0
  0
LINE
  5
1D5
330
176
100
AcDbEntity
  8
$DDT_AUDIT_GENERATED_(D9)
  6
Continuous
 62
     7
100
AcDbLine
 10
898.187029853
 20
753.1856325461
 30
0.0
 11
898.1246643535
 21
753.178745715
 31
0.0
  0
LINE
  5
1D6
330
176
100
AcDbEntity
  8
$DDT_AUDIT_GENERATED_(D9)
  6
Continuous
 62
     7
100
AcDbLine
 10
898.187029853
 20
768.1856300461
 30
0.0
 11
897.9758391272
 21
768.1623084818
 31
0.0
  0
SPLINE
  5
1D7
330
176
100
AcDbEntity
  8
$DDT_AUDIT_GENERATED_(D9)
  6
Continuous
 62
     7
100
AcDbSpline
210
0.0
220
0.0
230
1.0
 70
     8
 71
     3
 72
    13
 73
     9
 74
     0
 42
0.0000000109157332
 43
0.0000000001
 40
0.0
 40
0.0
 40
0.0
 40
0.0
 40
0.3264012689343807
 40
0.571448754176469
 40
0.6755516314478838
 40
0.776408300498684
 40
0.8821740779995206
 40
1.0
 40
1.0
 40
1.0
 40
1.0
 10
897.9758391272479
 20
765.5144725992225
 30
0.0
 10
898.0868261521939
 20
765.507118407814
 30
0.0
 10
898.2494051380179
 20
765.503598822436
 30
0.0
 10
898.459356289885
 20
765.5308373135015
 30
0.0
 10
898.5756022354427
 20
765.5974354664286
 30
0.0
 10
898.6388345229042
 20
765.6648739719639
 30
0.0
 10
898.6837005652751
 20
765.7545166855948
 30
0.0
 10
898.6980982555681
 20
765.8168720009913
 30
0.0
 10
898.7062076073771
 20
765.8559324210318
 30
0.0
  0
LINE
  5
1D8
330
176
100
AcDbEntity
  8
$DDT_AUDIT_GENERATED_(D9)
  6
Continuous
 62
     7
100
AcDbLine
 10
898.187029853
 20
730.6856300461
 30
0.0
 11
897.9758391272
 21
730.6623084818
 31
0.0
  0
SPLINE
  5
1D9
330
176
100
AcDbEntity
  8
$DDT_AUDIT_GENERATED_(D9)
  6
Continuous
 62
     7
100
AcDbSpline
210
0.0
220
0.0
230
1.0
 70
     8
 71
     3
 72
    13
 73
     9
 74
     0
 42
0.0000000109157332
 43
0.0000000001
 40
0.0
 40
0.0
 40
0.0
 40
0.0
 40
0.3264012689344066
 40
0.5714487541765617
 40
0.6755516314479708
 40
0.7764083004988371
 40
0.882174077999609
 40
1.0
 40
1.0
 40
1.0
 40
1.0
 10
897.9758391272479
 20
728.0144725992224
 30
0.0
 10
898.0868261521938
 20
728.0071184078141
 30
0.0
 10
898.2494051380179
 20
728.0035988224358
 30
0.0
 10
898.4593562898848
 20
728.0308373135015
 30
0.0
 10
898.5756022354425
 20
728.0974354664282
 30
0.0
 10
898.638834522904
 20
728.1648739719635
 30
0.0
 10
898.683700565275
 20
728.2545166855944
 30
0.0
 10
898.698098255568
 20
728.3168720009909
 30
0.0
 10
898.706207607377
 20
728.3559324210313
 30
0.0
  0
LINE
  5
1DA
330
176
100
AcDbEntity
  8
$DDT_AUDIT_GENERATED_(D9)
  6
Continuous
 62
     7
100
AcDbLine
 10
898.187029853
 20
775.6856156853
 30
0.0
 11
898.1246643535
 21
775.6787288542
 31
0.0
  0
LINE
  5
1DB
330
176
100
AcDbEntity
  8
$DDT_AUDIT_GENERATED_(D9)
  6
Continuous
 62
     7
100
AcDbLine
 10
898.187029853
 20
753.1856300461
 30
0.0
 11
897.9758391272
 21
753.1623084818
 31
0.0
  0
SPLINE
  5
1DC
330
176
100
AcDbEntity
  8
$DDT_AUDIT_GENERATED_(D9)
  6
Continuous
 62
     7
100
AcDbSpline
210
0.0
220
0.0
230
1.0
 70
     8
 71
     3
 72
    13
 73
     9
 74
     0
 42
0.0000000109157332
 43
0.0000000001
 40
0.0
 40
0.0
 40
0.0
 40
0.0
 40
0.3264012689346402
 40
0.5714487541773049
 40
0.675551631448896
 40
0.7764083004997459
 40
0.8821740780002553
 40
1.0
 40
1.0
 40
1.0
 40
1.0
 10
897.9758391272479
 20
750.5144725992224
 30
0.0
 10
898.0868261521935
 20
750.507118407814
 30
0.0
 10
898.249405138017
 20
750.503598822436
 30
0.0
 10
898.4593562898832
 20
750.530837313501
 30
0.0
 10
898.575602235441
 20
750.5974354664269
 30
0.0
 10
898.6388345229025
 20
750.6648739719612
 30
0.0
 10
898.683700565274
 20
750.7545166855914
 30
0.0
 10
898.6980982555672
 20
750.8168720009871
 30
0.0
 10
898.7062076073762
 20
750.855932421027
 30
0.0
  0
LINE
  5
1DD
330
176
100
AcDbEntity
  8
$DDT_AUDIT_GENERATED_(D9)
  6
Continuous
 62
     7
100
AcDbLine
 10
898.187029853
 20
768.1856315461
 30
0.0
 11
898.1246650715
 21
768.1787446687
 31
0.0
  0
LINE
  5
1DE
330
176
100
AcDbEntity
  8
$DDT_AUDIT_GENERATED_(D9)
  6
Continuous
 62
     7
100
AcDbLine
 10
898.187029853
 20
760.6856325461
 30
0.0
 11
898.1246643535
 21
760.678745715
 31
0.0
  0
LINE
  5
1DF
330
176
100
AcDbEntity
  8
$DDT_AUDIT_GENERATED_(D9)
  6
Continuous
 62
     7
100
AcDbLine
 10
898.187029853
 20
738.1856315461
 30
0.0
 11
898.1246650715
 21
738.1787446687
 31
0.0
  0
LINE
  5
1E0
330
176
100
AcDbEntity
  8
$DDT_AUDIT_GENERATED_(D9)
  6
Continuous
 62
     7
100
AcDbLine
 10
898.187029853
 20
738.1856325461
 30
0.0
 11
898.1246643535
 21
738.178745715
 31
0.0
  0
LINE
  5
1E1
330
176
100
AcDbEntity
  8
$DDT_AUDIT_GENERATED_(D9)
  6
Continuous
 62
     7
100
AcDbLine
 10
898.187029853
 20
745.6856300461
 30
0.0
 11
897.9758391272
 21
745.6623084818
 31
0.0
  0
SPLINE
  5
1E2
330
176
100
AcDbEntity
  8
$DDT_AUDIT_GENERATED_(D9)
  6
Continuous
 62
     7
100
AcDbSpline
210
0.0
220
0.0
230
1.0
 70
     8
 71
     3
 72
    13
 73
     9
 74
     0
 42
0.0000000109157332
 43
0.0000000001
 40
0.0
 40
0.0
 40
0.0
 40
0.0
 40
0.3264012689346374
 40
0.5714487541773099
 40
0.6755516314489474
 40
0.776408300499767
 40
0.882174078000245
 40
1.0
 40
1.0
 40
1.0
 40
1.0
 10
897.9758391272479
 20
743.0144725992225
 30
0.0
 10
898.0868261521933
 20
743.0071184078141
 30
0.0
 10
898.2494051380168
 20
743.0035988224362
 30
0.0
 10
898.4593562898831
 20
743.0308373135003
 30
0.0
 10
898.5756022354408
 20
743.0974354664268
 30
0.0
 10
898.6388345229024
 20
743.164873971961
 30
0.0
 10
898.6837005652737
 20
743.2545166855909
 30
0.0
 10
898.6980982555671
 20
743.3168720009866
 30
0.0
 10
898.7062076073762
 20
743.3559324210266
 30
0.0
  0
LINE
  5
1E3
330
176
100
AcDbEntity
  8
$DDT_AUDIT_GENERATED_(D9)
  6
Continuous
 62
     7
100
AcDbLine
 10
898.187029853
 20
730.6856325461
 30
0.0
 11
898.1246643535
 21
730.678745715
 31
0.0
  0
LINE
  5
1E4
330
176
100
AcDbEntity
  8
$DDT_AUDIT_GENERATED_(D9)
  6
Continuous
 62
     7
100
AcDbLine
 10
898.187029853
 20
723.1856285461
 30
0.0
 11
898.1246643535
 21
723.178741715
 31
0.0
  0
LINE
  5
1E5
330
176
100
AcDbEntity
  8
$DDT_AUDIT_GENERATED_(D9)
  6
Continuous
 62
     7
100
AcDbLine
 10
898.187029853
 20
760.6856300461
 30
0.0
 11
897.9758391272
 21
760.6623084818
 31
0.0
  0
SPLINE
  5
1E6
330
176
100
AcDbEntity
  8
$DDT_AUDIT_GENERATED_(D9)
  6
Continuous
 62
     7
100
AcDbSpline
210
0.0
220
0.0
230
1.0
 70
     8
 71
     3
 72
    13
 73
     9
 74
     0
 42
0.0000000109157332
 43
0.0000000001
 40
0.0
 40
0.0
 40
0.0
 40
0.0
 40
0.326401268934669
 40
0.5714487541774167
 40
0.675551631449043
 40
0.7764083004998937
 40
0.8821740780003968
 40
1.0
 40
1.0
 40
1.0
 40
1.0
 10
897.9758391272479
 20
758.0144725992224
 30
0.0
 10
898.0868261521933
 20
758.0071184078141
 30
0.0
 10
898.2494051380166
 20
758.0035988224354
 30
0.0
 10
898.4593562898829
 20
758.0308373135011
 30
0.0
 10
898.5756022354406
 20
758.0974354664264
 30
0.0
 10
898.6388345229021
 20
758.1648739719611
 30
0.0
 10
898.6837005652736
 20
758.2545166855905
 30
0.0
 10
898.698098255567
 20
758.3168720009862
 30
0.0
 10
898.7062076073761
 20
758.3559324210261
 30
0.0
  0
LINE
  5
1E7
330
176
100
AcDbEntity
  8
$DDT_AUDIT_GENERATED_(D9)
  6
Continuous
 62
     7
100
AcDbLine
 10
898.187029853
 20
745.6856325461
 30
0.0
 11
898.1246643535
 21
745.678745715
 31
0.0
  0
LINE
  5
1E8
330
176
100
AcDbEntity
  8
$DDT_AUDIT_GENERATED_(D9)
  6
Continuous
 62
     7
100
AcDbLine
 10
898.187029853
 20
723.1856260461
 30
0.0
 11
897.9758391272
 21
723.1623044819
 31
0.0
  0
SPLINE
  5
1E9
330
176
100
AcDbEntity
  8
$DDT_AUDIT_GENERATED_(D9)
  6
Continuous
 62
     7
100
AcDbSpline
210
0.0
220
0.0
230
1.0
 70
     8
 71
     3
 72
    13
 73
     9
 74
     0
 42
0.0000000109157332
 43
0.0000000001
 40
0.0
 40
0.0
 40
0.0
 40
0.0
 40
0.3264012689344087
 40
0.5714487541765654
 40
0.6755516314479931
 40
0.776408300498879
 40
0.8821740779996506
 40
1.0
 40
1.0
 40
1.0
 40
1.0
 10
897.9758391272479
 20
720.5144685992743
 30
0.0
 10
898.0868261521938
 20
720.5071144078659
 30
0.0
 10
898.2494051380177
 20
720.5035948224878
 30
0.0
 10
898.4593562898846
 20
720.530833313553
 30
0.0
 10
898.5756022354424
 20
720.5974314664796
 30
0.0
 10
898.6388345229038
 20
720.6648699720148
 30
0.0
 10
898.6837005652748
 20
720.7545126856458
 30
0.0
 10
898.6980982555679
 20
720.816868001042
 30
0.0
 10
898.7062076073769
 20
720.8559284210825
 30
0.0
  0
LINE
  5
1EA
330
176
100
AcDbEntity
  8
$DDT_AUDIT_GENERATED_(D9)
  6
Continuous
 62
     7
100
AcDbLine
 10
898.187029853
 20
723.1856275461
 30
0.0
 11
898.1246650715
 21
723.1787406687
 31
0.0
  0
LINE
  5
1EB
330
176
100
AcDbEntity
  8
$DDT_AUDIT_GENERATED_(D9)
  6
Continuous
 62
     7
100
AcDbLine
 10
898.187029853
 20
775.6856131853
 30
0.0
 11
897.9758391272
 21
775.6622916211
 31
0.0
  0
SPLINE
  5
1EC
330
176
100
AcDbEntity
  8
$DDT_AUDIT_GENERATED_(D9)
  6
Continuous
 62
     7
100
AcDbSpline
210
0.0
220
0.0
230
1.0
 70
     8
 71
     3
 72
    13
 73
     9
 74
     0
 42
0.0000000109157332
 43
0.0000000001
 40
0.0
 40
0.0
 40
0.0
 40
0.0
 40
0.3264012689341897
 40
0.5714487541763414
 40
0.6755516314478643
 40
0.7764083004987792
 40
0.8821740779997154
 40
1.0
 40
1.0
 40
1.0
 40
1.0
 10
897.9758391272479
 20
773.0144557384591
 30
0.0
 10
898.0868261521938
 20
773.0071015470503
 30
0.0
 10
898.2494051380179
 20
773.0035819616717
 30
0.0
 10
898.4593562898849
 20
773.030820452737
 30
0.0
 10
898.5756022354425
 20
773.0974186056637
 30
0.0
 10
898.638834522904
 20
773.1648571111991
 30
0.0
 10
898.6837005652749
 20
773.2544998248301
 30
0.0
 10
898.698098255568
 20
773.3168551402265
 30
0.0
 10
898.706207607377
 20
773.3559155602669
 30
0.0
  0
LINE
  5
1ED
330
176
100
AcDbEntity
  8
$DDT_AUDIT_GENERATED_(D9)
  6
Continuous
 62
     7
100
AcDbLine
 10
898.187029853
 20
730.6856315461
 30
0.0
 11
898.1246650715
 21
730.6787446687
 31
0.0
  0
LINE
  5
1EE
330
176
100
AcDbEntity
  8
$DDT_AUDIT_GENERATED_(D9)
  6
Continuous
 62
     7
100
AcDbLine
 10
898.187029853
 20
738.1856300461
 30
0.0
 11
897.9758391272
 21
738.1623084818
 31
0.0
  0
SPLINE
  5
1EF
330
176
100
AcDbEntity
  8
$DDT_AUDIT_GENERATED_(D9)
  6
Continuous
 62
     7
100
AcDbSpline
210
0.0
220
0.0
230
1.0
 70
     8
 71
     3
 72
    13
 73
     9
 74
     0
 42
0.0000000109157332
 43
0.0000000001
 40
0.0
 40
0.0
 40
0.0
 40
0.0
 40
0.3264012689346588
 40
0.5714487541773636
 40
0.6755516314489398
 40
0.7764083004998106
 40
0.8821740780002987
 40
1.0
 40
1.0
 40
1.0
 40
1.0
 10
897.9758391272479
 20
735.5144725992225
 30
0.0
 10
898.0868261521933
 20
735.507118407814
 30
0.0
 10
898.2494051380169
 20
735.5035988224361
 30
0.0
 10
898.459356289883
 20
735.5308373135007
 30
0.0
 10
898.5756022354408
 20
735.5974354664268
 30
0.0
 10
898.6388345229022
 20
735.6648739719611
 30
0.0
 10
898.6837005652737
 20
735.7545166855909
 30
0.0
 10
898.6980982555671
 20
735.8168720009867
 30
0.0
 10
898.7062076073762
 20
735.8559324210265
 30
0.0
  0
LINE
  5
1F0
330
176
100
AcDbEntity
  8
$DDT_AUDIT_GENERATED_(D9)
  6
Continuous
 62
     7
100
AcDbLine
 10
898.187029853
 20
760.6856315461
 30
0.0
 11
898.1246650715
 21
760.6787446687
 31
0.0
  0
LINE
  5
1F1
330
176
100
AcDbEntity
  8
$DDT_AUDIT_GENERATED_(D9)
  6
Continuous
 62
     7
100
AcDbLine
 10
898.187029853
 20
768.1856325461
 30
0.0
 11
898.1246643535
 21
768.178745715
 31
0.0
  0
LINE
  5
1F2
330
176
100
AcDbEntity
  8
$DDT_AUDIT_GENERATED_(D9)
  6
Continuous
 62
     7
100
AcDbLine
 10
898.187029853
 20
775.6856146853
 30
0.0
 11
898.1246650715
 21
775.6787278079
 31
0.0
  0
LINE
  5
1F3
330
176
100
AcDbEntity
  8
$DDT_AUDIT_GENERATED_(128)
  6
Continuous
 62
     7
100
AcDbLine
 10
905.7220320077
 20
574.5883810314
 30
0.0
 11
905.7220320077
 21
569.2954524528
 31
0.0
  0
LINE
  5
1F4
330
176
100
AcDbEntity
  8
$DDT_AUDIT_GENERATED_(128)
  6
Continuous
 62
     7
100
AcDbLine
 10
905.7220320077
 20
549.58130961
 30
0.0
 11
905.7220320077
 21
545.0383810314
 31
0.0
  0
LINE
  5
1F5
330
176
100
AcDbEntity
  8
$DDT_AUDIT_GENERATED_(128)
  6
Continuous
 62
     7
100
AcDbLine
 10
864.7220320077
 20
545.0383810314
 30
0.0
 11
864.7220320077
 21
549.58130961
 31
0.0
  0
LINE
  5
1F6
330
176
100
AcDbEntity
  8
$DDT_AUDIT_GENERATED_(128)
  6
Continuous
 62
     7
100
AcDbLine
 10
864.7220320077
 20
569.2954524528
 30
0.0
 11
864.7220320077
 21
574.5883810314
 31
0.0
  0
ARC
  5
1F7
330
176
100
AcDbEntity
  8
$DDT_AUDIT_GENERATED_(128)
  6
Continuous
 62
     7
100
AcDbCircle
 10
865.2220320077
 20
574.5883810314
 30
0.0
 40
0.5000000000000004
100
AcDbArc
 50
90.0
 51
180.0
  0
ARC
  5
1F8
330
176
100
AcDbEntity
  8
$DDT_AUDIT_GENERATED_(128)
  6
Continuous
 62
     7
100
AcDbCircle
 10
905.2220320077
 20
574.5883810314
 30
0.0
 40
0.5000000000000004
100
AcDbArc
 50
0.0
 51
90.0
  0
LINE
  5
1F9
330
176
100
AcDbEntity
  8
$DDT_AUDIT_GENERATED_(137)
  6
Continuous
 62
     7
100
AcDbLine
 10
865.2220320077
 20
545.0383810314
 30
0.0
 11
865.2220320077
 21
549.4383810314
 31
0.0
  0
LINE
  5
1FA
330
176
100
AcDbEntity
  8
$DDT_AUDIT_GENERATED_(137)
  6
Continuous
 62
     7
100
AcDbLine
 10
865.2220320077
 20
569.4383810314
 30
0.0
 11
865.2220320077
 21
643.5383810314
 31
0.0
  0
LINE
  5
1FB
330
176
100
AcDbEntity
  8
$DDT_AUDIT_GENERATED_(137)
  6
Continuous
 62
     7
100
AcDbLine
 10
1120.7220320077
 20
626.0383810314
 30
0.0
 11
908.2220320077
 21
626.0383810314
 31
0.0
  0
LINE
  5
1FC
330
176
100
AcDbEntity
  8
$DDT_AUDIT_GENERATED_(137)
  6
Continuous
 62
     7
100
AcDbLine
 10
905.2220320077
 20
623.0383810314
 30
0.0
 11
905.2220320077
 21
569.4383810314
 31
0.0
  0
LINE
  5
1FD
330
176
100
AcDbEntity
  8
$DDT_AUDIT_GENERATED_(137)
  6
Continuous
 62
     7
100
AcDbLine
 10
905.2220320077
 20
549.4383810314
 30
0.0
 11
905.2220320077
 21
545.0383810314
 31
0.0
  0
LINE
  5
1FE
330
176
100
AcDbEntity
  8
$DDT_AUDIT_GENERATED_(137)
  6
Continuous
 62
     7
100
AcDbLine
 10
865.7220320077
 20
644.0383810314
 30
0.0
 11
1120.7220320077
 21
644.0383810314
 31
0.0
  0
LINE
  5
1FF
330
176
100
AcDbEntity
  8
$DDT_AUDIT_GENERATED_(137)
  6
Continuous
 62
     7
100
AcDbLine
 10
1121.2220320077
 20
643.5383810314
 30
0.0
 11
1121.2220320077
 21
626.5383810314
 31
0.0
  0
SPLINE
  5
200
330
176
100
AcDbEntity
  8
$DDT_AUDIT_GENERATED_(137)
  6
Continuous
 62
     7
100
AcDbSpline
210
0.0
220
0.0
230
1.0
 70
    12
 71
     3
 72
     8
 73
     4
 74
     0
 42
0.0000000018967823
 43
0.0000000001
 40
0.0
 40
0.0
 40
0.0
 40
0.0
 40
1.0
 40
1.0
 40
1.0
 40
1.0
 10
905.2220320076719
 20
623.0383810313833
 30
0.0
 41
1.0
 10
905.2220272469922
 20
624.795743133065
 30
0.0
 41
0.8047402091105456
 10
906.4646699059903
 20
626.0383857922008
 30
0.0
 41
0.8047402091105456
 10
908.2220320076719
 20
626.0383810313834
 30
0.0
 41
1.0
  0
ARC
  5
201
330
176
100
AcDbEntity
  8
$DDT_AUDIT_GENERATED_(137)
  6
Continuous
 62
     7
100
AcDbCircle
 10
865.7220320077
 20
643.5383810314
 30
0.0
 40
0.4999999999999311
100
AcDbArc
 50
90.0
 51
180.0
  0
ARC
  5
202
330
176
100
AcDbEntity
  8
$DDT_AUDIT_GENERATED_(137)
  6
Continuous
 62
     7
100
AcDbCircle
 10
1120.7220320077
 20
643.5383810314
 30
0.0
 40
0.4999999999997229
100
AcDbArc
 50
0.0
 51
90.0
  0
ARC
  5
203
330
176
100
AcDbEntity
  8
$DDT_AUDIT_GENERATED_(137)
  6
Continuous
 62
     7
100
AcDbCircle
 10
1120.7220320077
 20
626.5383810314
 30
0.0
 40
0.4999999999999449
100
AcDbArc
 50
270.0
 51
0.0
  0
ARC
  5
204
330
176
100
AcDbEntity
  8
$DDT_AUDIT_GENERATED_(146)
  6
Continuous
 62
     7
100
AcDbCircle
 10
865.0984479422
 20
608.4907964266
 30
0.0
 40
15.72148615262576
100
AcDbArc
 50
96.482528365
 51
97.5752442054
  0
LINE
  5
205
330
176
100
AcDbEntity
  8
$DDT_AUDIT_GENERATED_(146)
  6
Continuous
 62
     7
100
AcDbLine
 10
863.3234885218
 20
624.1117645753
 30
0.0
 11
863.5690810558
 21
624.1419112216
 31
0.0
  0
LINE
  5
206
330
176
100
AcDbEntity
  8
$DDT_AUDIT_GENERATED_(146)
  6
Continuous
 62
     7
100
AcDbLine
 10
910.9619322385
 20
593.7311027635
 30
0.0
 11
910.6711716864
 21
593.7311027635
 31
0.0
  0
LINE
  5
207
330
176
100
AcDbEntity
  8
$DDT_AUDIT_GENERATED_(146)
  6
Continuous
 62
     7
100
AcDbLine
 10
910.6711716864
 20
593.7311027635
 30
0.0
 11
905.2220320077
 21
593.7311027635
 31
0.0
  0
ARC
  5
208
330
176
100
AcDbEntity
  8
$DDT_AUDIT_GENERATED_(146)
  6
Continuous
 62
     7
100
AcDbCircle
 10
1355.6119053869
 20
661.0015893963
 30
0.0
 40
448.9890790786637
100
AcDbArc
 50
186.5135794416
 51
187.4864153254
  0
LINE
  5
209
330
176
100
AcDbEntity
  8
$DDT_AUDIT_GENERATED_(146)
  6
Continuous
 62
     7
100
AcDbLine
 10
907.6333503478
 20
623.0867590569
 30
0.0
 11
911.1670930746
 21
594.2933716632
 31
0.0
  0
LINE
  5
20A
330
176
100
AcDbEntity
  8
$DDT_AUDIT_GENERATED_(146)
  6
Continuous
 62
     7
100
AcDbLine
 10
861.2483796552
 20
610.3113508733
 30
0.0
 11
862.888710109
 21
623.6779898266
 31
0.0
  0
LINE
  5
20B
330
176
100
AcDbEntity
  8
$DDT_AUDIT_GENERATED_(146)
  6
Continuous
 62
     7
100
AcDbLine
 10
865.2220320077
 20
607.4862479907
 30
0.0
 11
861.4793252964
 21
609.8249507078
 31
0.0
  0
LINE
  5
20C
330
176
100
AcDbEntity
  8
$DDT_AUDIT_GENERATED_(146)
  6
Continuous
 62
     7
100
AcDbLine
 10
861.4793252964
 20
609.8249507078
 30
0.0
 11
861.2101626704
 21
609.9931421834
 31
0.0
  0
ELLIPSE
  5
20D
330
176
100
AcDbEntity
  8
$DDT_AUDIT_GENERATED_(146)
  6
Continuous
 62
     7
100
AcDbEllipse
 10
910.6711716864
 20
594.2311027635
 30
0.0
 11
0.0
 21
0.5000000000001137
 31
0.0
210
0.0
220
0.0
230
1.0
 40
1.0
 41
3.141592653589793
 42
4.837297326018742
  0
LINE
  5
20E
330
176
100
AcDbEntity
  8
$DDT_AUDIT_GENERATED_(146)
  6
Continuous
 62
     7
100
AcDbLine
 10
864.1958109946
 20
624.2302697536
 30
0.0
 11
863.5690691761
 21
624.1420080008
 31
0.0
  0
SPLINE
  5
20F
330
176
100
AcDbEntity
  8
$DDT_AUDIT_GENERATED_(146)
  6
Continuous
 62
     7
100
AcDbSpline
210
0.0
220
0.0
230
1.0
 70
     8
 71
     3
 72
     8
 73
     4
 74
     0
 42
0.0000000001188811
 43
0.0000000001
 40
0.9876946242656515
 40
0.9876946242656515
 40
0.9876946242656515
 40
0.9876946242656515
 40
1.0
 40
1.0
 40
1.0
 40
1.0
 10
865.2219846364168
 20
624.3659087458312
 30
0.0
 10
864.8853236909213
 20
624.3214144177268
 30
0.0
 10
864.5435393009705
 20
624.2762365684752
 30
0.0
 10
864.1958109945454
 20
624.2302697536302
 30
0.0
  0
LINE
  5
210
330
176
100
AcDbEntity
  8
$DDT_AUDIT_GENERATED_(146)
  6
Continuous
 62
     7
100
AcDbLine
 10
909.5210307956
 20
610.0690256711
 30
0.0
 11
907.9525447134
 21
622.8433196921
 31
0.0
  0
LINE
  5
211
330
176
100
AcDbEntity
  8
$DDT_AUDIT_GENERATED_(146)
  6
Continuous
 62
     7
100
AcDbLine
 10
911.4582001621
 20
594.2920472609
 30
0.0
 11
910.4499951494
 21
602.5032181547
 31
0.0
  0
LINE
  5
212
330
176
100
AcDbEntity
  8
$DDT_AUDIT_GENERATED_(146)
  6
Continuous
 62
     7
100
AcDbLine
 10
862.5953192291
 20
623.6432481779
 30
0.0
 11
860.9788159861
 21
610.4778857644
 31
0.0
  0
ARC
  5
213
330
176
100
AcDbEntity
  8
$DDT_AUDIT_GENERATED_(146)
  6
Continuous
 62
     7
100
AcDbCircle
 10
910.9365069611
 20
623.1727092497
 30
0.0
 40
3.001820349235175
100
AcDbArc
 50
103.9941157318
 51
186.9685111538
  0
ARC
  5
214
330
176
100
AcDbEntity
  8
$DDT_AUDIT_GENERATED_(146)
  6
Continuous
 62
     7
100
AcDbCircle
 10
863.0921372116
 20
623.5816626322
 30
0.0
 40
0.5007742140058715
100
AcDbArc
 50
97.6347881338
 51
172.9342430677
  0
ARC
  5
215
330
176
100
AcDbEntity
  8
$DDT_AUDIT_GENERATED_(146)
  6
Continuous
 62
     7
100
AcDbCircle
 10
861.4759891911
 20
610.4171089533
 30
0.0
 40
0.5004108738112457
100
AcDbArc
 50
173.0296094647
 51
237.9702360603
  0
ARC
  5
216
330
176
100
AcDbEntity
  8
$DDT_AUDIT_GENERATED_(146)
  6
Continuous
 62
     7
100
AcDbCircle
 10
910.96165701
 20
594.2313596806
 30
0.0
 40
0.5002747085076391
100
AcDbArc
 50
269.5167851415
 51
6.9679251029
  0
LINE
  5
217
330
176
100
AcDbEntity
  8
$DDT_AUDIT_GENERATED_(168)
  6
Continuous
 62
     7
100
AcDbLine
 10
902.9720320077
 20
545.0383810314
 30
0.0
 11
902.9720320077
 21
549.4383810314
 31
0.0
  0
LINE
  5
218
330
176
100
AcDbEntity
  8
$DDT_AUDIT_GENERATED_(168)
  6
Continuous
 62
     7
100
AcDbLine
 10
867.4720320077
 20
549.4383810314
 30
0.0
 11
867.4720320077
 21
545.0383810314
 31
0.0
  0
ENDBLK
  5
21A
330
176
100
AcDbEntity
  8
0
100
AcDbBlockEnd
  0
BLOCK
  5
2EA
330
21B
100
AcDbEntity
  8
0
100
AcDbBlockBegin
  2
SE2
 70
     0
 10
0.0
 20
0.0
 30
0.0
  3
SE2
  1

  0
LINE
  5
21D
330
21B
100
AcDbEntity
  8
$DDT_AUDIT_GENERATED_(9C)
  6
Continuous
 62
     7
100
AcDbLine
 10
102.0220320077
 20
309.85
 30
0.0
 11
39.0220320077
 21
309.85
 31
0.0
  0
LINE
  5
21E
330
21B
100
AcDbEntity
  8
$DDT_AUDIT_GENERATED_(9C)
  6
Continuous
 62
     7
100
AcDbLine
 10
38.0220320077
 20
310.85
 30
0.0
 11
38.0220320077
 21
373.85
 31
0.0
  0
LINE
  5
21F
330
21B
100
AcDbEntity
  8
$DDT_AUDIT_GENERATED_(9C)
  6
Continuous
 62
     7
100
AcDbLine
 10
39.0220320077
 20
374.85
 30
0.0
 11
102.0220320077
 21
374.85
 31
0.0
  0
LINE
  5
220
330
21B
100
AcDbEntity
  8
$DDT_AUDIT_GENERATED_(9C)
  6
Continuous
 62
     7
100
AcDbLine
 10
103.0220320077
 20
373.85
 30
0.0
 11
103.0220320077
 21
310.85
 31
0.0
  0
ARC
  5
221
330
21B
100
AcDbEntity
  8
$DDT_AUDIT_GENERATED_(9C)
  6
Continuous
 62
     7
100
AcDbCircle
 10
102.0220320077
 20
373.85
 30
0.0
 40
1.000000000000001
100
AcDbArc
 50
0.0
 51
90.0
  0
ARC
  5
222
330
21B
100
AcDbEntity
  8
$DDT_AUDIT_GENERATED_(9C)
  6
Continuous
 62
     7
100
AcDbCircle
 10
39.0220320077
 20
373.85
 30
0.0
 40
1.000000000000001
100
AcDbArc
 50
90.0
 51
180.0
  0
ARC
  5
223
330
21B
100
AcDbEntity
  8
$DDT_AUDIT_GENERATED_(9C)
  6
Continuous
 62
     7
100
AcDbCircle
 10
102.0220320077
 20
310.85
 30
0.0
 40
1.000000000000001
100
AcDbArc
 50
270.0
 51
0.0
  0
ARC
  5
224
330
21B
100
AcDbEntity
  8
$DDT_AUDIT_GENERATED_(9C)
  6
Continuous
 62
     7
100
AcDbCircle
 10
39.0220320077
 20
310.85
 30
0.0
 40
1.000000000000001
100
AcDbArc
 50
180.0
 51
270.0
  0
ARC
  5
225
330
21B
100
AcDbEntity
  8
$DDT_AUDIT_GENERATED_(A5)
  6
Continuous
 62
     7
100
AcDbCircle
 10
570.5220320077
 20
342.35
 30
0.0
 40
24.53867513459482
100
AcDbArc
 50
81.0153056391
 51
98.9790787477
  0
ARC
  5
226
330
21B
100
AcDbEntity
  8
$DDT_AUDIT_GENERATED_(A5)
  6
Continuous
 62
     7
100
AcDbCircle
 10
570.5220320077
 20
342.35
 30
0.0
 40
24.24999999999999
100
AcDbArc
 50
88.8917301693
 51
91.1193832801
  0
LINE
  5
227
330
21B
100
AcDbEntity
  8
$DDT_AUDIT_GENERATED_(A5)
  6
Continuous
 62
     7
100
AcDbLine
 10
596.5220358224
 20
367.85
 30
0.0
 11
596.5220358224
 21
316.85
 31
0.0
  0
LINE
  5
228
330
21B
100
AcDbEntity
  8
$DDT_AUDIT_GENERATED_(A5)
  6
Continuous
 62
     7
100
AcDbLine
 10
596.0220358224
 20
316.35
 30
0.0
 11
593.6111560656
 21
316.35
 31
0.0
  0
LINE
  5
229
330
21B
100
AcDbEntity
  8
$DDT_AUDIT_GENERATED_(A5)
  6
Continuous
 62
     7
100
AcDbLine
 10
547.4275287044
 20
316.35
 30
0.0
 11
545.022028193
 21
316.35
 31
0.0
  0
LINE
  5
22A
330
21B
100
AcDbEntity
  8
$DDT_AUDIT_GENERATED_(A5)
  6
Continuous
 62
     7
100
AcDbLine
 10
544.522028193
 20
316.85
 30
0.0
 11
544.522028193
 21
367.85
 31
0.0
  0
LINE
  5
22B
330
21B
100
AcDbEntity
  8
$DDT_AUDIT_GENERATED_(A5)
  6
Continuous
 62
     7
100
AcDbLine
 10
545.022028193
 20
368.35
 30
0.0
 11
596.0220358224
 21
368.35
 31
0.0
  0
ARC
  5
22C
330
21B
100
AcDbEntity
  8
$DDT_AUDIT_GENERATED_(A5)
  6
Continuous
 62
     7
100
AcDbCircle
 10
545.022028193
 20
367.85
 30
0.0
 40
0.5000000000000004
100
AcDbArc
 50
90.0
 51
180.0
  0
ARC
  5
22D
330
21B
100
AcDbEntity
  8
$DDT_AUDIT_GENERATED_(A5)
  6
Continuous
 62
     7
100
AcDbCircle
 10
545.022028193
 20
316.85
 30
0.0
 40
0.5000000000000004
100
AcDbArc
 50
180.0
 51
270.0
  0
ARC
  5
22E
330
21B
100
AcDbEntity
  8
$DDT_AUDIT_GENERATED_(A5)
  6
Continuous
 62
     7
100
AcDbCircle
 10
596.0220358224
 20
367.85
 30
0.0
 40
0.5000000000000004
100
AcDbArc
 50
0.0
 51
90.0
  0
ARC
  5
22F
330
21B
100
AcDbEntity
  8
$DDT_AUDIT_GENERATED_(A5)
  6
Continuous
 62
     7
100
AcDbCircle
 10
596.0220358224
 20
316.85
 30
0.0
 40
0.5000000000000004
100
AcDbArc
 50
270.0
 51
0.0
  0
ARC
  5
231
330
21B
100
AcDbEntity
  8
$DDT_AUDIT_GENERATED_(230)
  6
Continuous
 62
     7
100
AcDbCircle
 10
415.5220320077
 20
342.35
 30
0.0
 40
13.25
100
AcDbArc
 50
334.915299838
 51
0.0
  0
ARC
  5
232
330
21B
100
AcDbEntity
  8
$DDT_AUDIT_GENERATED_(230)
  6
Continuous
 62
     7
100
AcDbCircle
 10
415.5220320077
 20
342.35
 30
0.0
 40
13.25
100
AcDbArc
 50
285.765621342
 51
295.0453204786
  0
ARC
  5
233
330
21B
100
AcDbEntity
  8
$DDT_AUDIT_GENERATED_(230)
  6
Continuous
 62
     7
100
AcDbCircle
 10
415.5220320077
 20
342.35
 30
0.0
 40
13.25
100
AcDbArc
 50
265.9345696189
 51
274.0653993916
  0
ARC
  5
234
330
21B
100
AcDbEntity
  8
$DDT_AUDIT_GENERATED_(230)
  6
Continuous
 62
     7
100
AcDbCircle
 10
415.5220320077
 20
342.35
 30
0.0
 40
13.25
100
AcDbArc
 50
244.9557823291
 51
254.2344593373
  0
ARC
  5
235
330
21B
100
AcDbEntity
  8
$DDT_AUDIT_GENERATED_(230)
  6
Continuous
 62
     7
100
AcDbCircle
 10
415.5220320077
 20
342.35
 30
0.0
 40
13.25
100
AcDbArc
 50
154.9125932201
 51
205.0832584165
  0
ARC
  5
236
330
21B
100
AcDbEntity
  8
$DDT_AUDIT_GENERATED_(230)
  6
Continuous
 62
     7
100
AcDbCircle
 10
415.5220320077
 20
342.35
 30
0.0
 40
13.25
100
AcDbArc
 50
64.8781413325
 51
115.1260339599
  0
ARC
  5
237
330
21B
100
AcDbEntity
  8
$DDT_AUDIT_GENERATED_(230)
  6
Continuous
 62
     7
100
AcDbCircle
 10
415.5220320077
 20
342.35
 30
0.0
 40
13.25
100
AcDbArc
 50
0.0
 51
25.0831044746
  0
ARC
  5
238
330
21B
100
AcDbEntity
  8
$DDT_AUDIT_GENERATED_(230)
  6
Continuous
 62
     7
100
AcDbCircle
 10
415.5220320077
 20
342.35
 30
0.0
 40
12.24999999999999
100
AcDbArc
 50
0.0
 51
11.5881852587
  0
ARC
  5
239
330
21B
100
AcDbEntity
  8
$DDT_AUDIT_GENERATED_(230)
  6
Continuous
 62
     7
100
AcDbCircle
 10
415.5220320077
 20
342.35
 30
0.0
 40
12.24999999999999
100
AcDbArc
 50
78.3267233213
 51
101.6761667392
  0
ARC
  5
23A
330
21B
100
AcDbEntity
  8
$DDT_AUDIT_GENERATED_(230)
  6
Continuous
 62
     7
100
AcDbCircle
 10
415.5220320077
 20
342.35
 30
0.0
 40
12.24999999999999
100
AcDbArc
 50
168.414880522
 51
191.5930320447
  0
ARC
  5
23B
330
21B
100
AcDbEntity
  8
$DDT_AUDIT_GENERATED_(230)
  6
Continuous
 62
     7
100
AcDbCircle
 10
415.5220320077
 20
342.35
 30
0.0
 40
12.24999999999999
100
AcDbArc
 50
265.786234555
 51
274.2136364586
  0
ARC
  5
23C
330
21B
100
AcDbEntity
  8
$DDT_AUDIT_GENERATED_(230)
  6
Continuous
 62
     7
100
AcDbCircle
 10
415.5220320077
 20
342.35
 30
0.0
 40
12.24999999999999
100
AcDbArc
 50
348.4161123512
 51
0.0
  0
LINE
  5
23D
330
21B
100
AcDbEntity
  8
$DDT_AUDIT_GENERATED_(BB)
  6
Continuous
 62
     7
100
AcDbLine
 10
49.8720320077
 20
322.2
 30
0.0
 11
49.8720320077
 21
362.5
 31
0.0
  0
LINE
  5
23E
330
21B
100
AcDbEntity
  8
$DDT_AUDIT_GENERATED_(BB)
  6
Continuous
 62
     7
100
AcDbLine
 10
50.3720320077
 20
363.0
 30
0.0
 11
90.6720320077
 21
363.0
 31
0.0
  0
LINE
  5
23F
330
21B
100
AcDbEntity
  8
$DDT_AUDIT_GENERATED_(BB)
  6
Continuous
 62
     7
100
AcDbLine
 10
90.6720320077
 20
321.7
 30
0.0
 11
50.3720320077
 21
321.7
 31
0.0
  0
LINE
  5
240
330
21B
100
AcDbEntity
  8
$DDT_AUDIT_GENERATED_(BB)
  6
Continuous
 62
     7
100
AcDbLine
 10
91.1720320077
 20
362.5
 30
0.0
 11
91.1720320077
 21
322.2
 31
0.0
  0
ARC
  5
241
330
21B
100
AcDbEntity
  8
$DDT_AUDIT_GENERATED_(BB)
  6
Continuous
 62
     7
100
AcDbCircle
 10
90.6720320077
 20
322.2
 30
0.0
 40
0.5000000000000004
100
AcDbArc
 50
270.0
 51
0.0
  0
ARC
  5
242
330
21B
100
AcDbEntity
  8
$DDT_AUDIT_GENERATED_(BB)
  6
Continuous
 62
     7
100
AcDbCircle
 10
90.6720320077
 20
362.5
 30
0.0
 40
0.5000000000000004
100
AcDbArc
 50
0.0
 51
90.0
  0
ARC
  5
243
330
21B
100
AcDbEntity
  8
$DDT_AUDIT_GENERATED_(BB)
  6
Continuous
 62
     7
100
AcDbCircle
 10
50.3720320077
 20
322.2
 30
0.0
 40
0.5000000000000004
100
AcDbArc
 50
180.0
 51
270.0
  0
ARC
  5
244
330
21B
100
AcDbEntity
  8
$DDT_AUDIT_GENERATED_(BB)
  6
Continuous
 62
     7
100
AcDbCircle
 10
50.3720320077
 20
362.5
 30
0.0
 40
0.5000000000000004
100
AcDbArc
 50
90.0
 51
180.0
  0
LINE
  5
245
330
21B
100
AcDbEntity
  8
$DDT_AUDIT_GENERATED_(C4)
  6
Continuous
 62
     7
100
AcDbLine
 10
194.0220320077
 20
374.85
 30
0.0
 11
257.0220320077
 21
374.85
 31
0.0
  0
LINE
  5
246
330
21B
100
AcDbEntity
  8
$DDT_AUDIT_GENERATED_(C4)
  6
Continuous
 62
     7
100
AcDbLine
 10
258.0220320077
 20
373.85
 30
0.0
 11
258.0220320077
 21
310.85
 31
0.0
  0
LINE
  5
247
330
21B
100
AcDbEntity
  8
$DDT_AUDIT_GENERATED_(C4)
  6
Continuous
 62
     7
100
AcDbLine
 10
193.0220320077
 20
310.85
 30
0.0
 11
193.0220320077
 21
373.85
 31
0.0
  0
LINE
  5
248
330
21B
100
AcDbEntity
  8
$DDT_AUDIT_GENERATED_(C4)
  6
Continuous
 62
     7
100
AcDbLine
 10
257.0220320077
 20
309.85
 30
0.0
 11
245.5220320077
 21
309.85
 31
0.0
  0
LINE
  5
249
330
21B
100
AcDbEntity
  8
$DDT_AUDIT_GENERATED_(C4)
  6
Continuous
 62
     7
100
AcDbLine
 10
205.5220320077
 20
309.85
 30
0.0
 11
194.0220320077
 21
309.85
 31
0.0
  0
ARC
  5
24A
330
21B
100
AcDbEntity
  8
$DDT_AUDIT_GENERATED_(C4)
  6
Continuous
 62
     7
100
AcDbCircle
 10
194.0220320077
 20
310.85
 30
0.0
 40
1.000000000000001
100
AcDbArc
 50
180.0
 51
270.0
  0
ARC
  5
24B
330
21B
100
AcDbEntity
  8
$DDT_AUDIT_GENERATED_(C4)
  6
Continuous
 62
     7
100
AcDbCircle
 10
257.0220320077
 20
310.85
 30
0.0
 40
1.000000000000001
100
AcDbArc
 50
270.0
 51
0.0
  0
ARC
  5
24C
330
21B
100
AcDbEntity
  8
$DDT_AUDIT_GENERATED_(C4)
  6
Continuous
 62
     7
100
AcDbCircle
 10
194.0220320077
 20
373.85
 30
0.0
 40
1.000000000000001
100
AcDbArc
 50
90.0
 51
180.0
  0
ARC
  5
24D
330
21B
100
AcDbEntity
  8
$DDT_AUDIT_GENERATED_(C4)
  6
Continuous
 62
     7
100
AcDbCircle
 10
257.0220320077
 20
373.85
 30
0.0
 40
1.000000000000001
100
AcDbArc
 50
0.0
 51
90.0
  0
LINE
  5
24E
330
21B
100
AcDbEntity
  8
$DDT_AUDIT_GENERATED_(D9)
  6
Continuous
 62
     7
100
AcDbLine
 10
427.0220321011
 20
354.34619288
 30
0.0
 11
404.0220321011
 21
354.34619288
 31
0.0
  0
LINE
  5
24F
330
21B
100
AcDbEntity
  8
$DDT_AUDIT_GENERATED_(D9)
  6
Continuous
 62
     7
100
AcDbLine
 10
427.5220321006
 20
330.8461928804
 30
0.0
 11
427.5220321002
 21
353.8461928804
 31
0.0
  0
SPLINE
  5
250
330
21B
100
AcDbEntity
  8
$DDT_AUDIT_GENERATED_(D9)
  6
Continuous
 62
     7
100
AcDbSpline
210
0.0
220
0.0
230
1.0
 70
    12
 71
     5
 72
    12
 73
     6
 74
     0
 42
0.0000000251373102
 43
0.0000000001
 40
0.0
 40
0.0
 40
0.0
 40
0.0
 40
0.0
 40
0.0
 40
1.0
 40
1.0
 40
1.0
 40
1.0
 40
1.0
 40
1.0
 10
403.5220321019258
 20
353.846192880418
 30
0.0
 41
1.0
 10
403.5220321022733
 20
353.929035592899
 30
0.0
 41
1.0
 10
403.5388214432753
 20
354.007956818356
 30
0.0
 41
1.0
 10
403.5702554886033
 20
354.080812365406
 30
0.0
 41
1.0
 10
403.6141893889293
 20
354.145456949049
 30
0.0
 41
1.0
 10
403.6684787106803
 20
354.1997462707999
 30
0.0
 41
1.0
  0
SPLINE
  5
251
330
21B
100
AcDbEntity
  8
$DDT_AUDIT_GENERATED_(D9)
  6
Continuous
 62
     7
100
AcDbSpline
210
0.0
220
0.0
230
1.0
 70
    12
 71
     5
 72
    12
 73
     6
 74
     0
 42
0.0000000251373102
 43
0.0000000001
 40
0.0
 40
0.0
 40
0.0
 40
0.0
 40
0.0
 40
0.0
 40
1.0
 40
1.0
 40
1.0
 40
1.0
 40
1.0
 40
1.0
 10
403.6684787106803
 20
354.1997462707999
 30
0.0
 41
1.0
 10
403.7227680324313
 20
354.254035592551
 30
0.0
 41
1.0
 10
403.7874126160743
 20
354.297969495398
 30
0.0
 41
1.0
 10
403.8602681631243
 20
354.329403533772
 30
0.0
 41
1.0
 10
403.9391893885813
 20
354.346192880946
 30
0.0
 41
1.0
 10
404.0220321010622
 20
354.3461928799895
 30
0.0
 41
1.0
  0
ARC
  5
252
330
21B
100
AcDbEntity
  8
$DDT_AUDIT_GENERATED_(D9)
  6
Continuous
 62
     7
100
AcDbCircle
 10
404.0214746256
 20
353.847538567
 30
0.0
 40
0.4986544464397133
100
AcDbArc
 50
89.9359456329
 51
92.2844739296
  0
SPLINE
  5
253
330
21B
100
AcDbEntity
  8
$DDT_AUDIT_GENERATED_(D9)
  6
Continuous
 62
     7
100
AcDbSpline
210
0.0
220
0.0
230
1.0
 70
    12
 71
     5
 72
    12
 73
     6
 74
     0
 42
0.0000000251373102
 43
0.0000000001
 40
0.0
 40
0.0
 40
0.0
 40
0.0
 40
0.0
 40
0.0
 40
1.0
 40
1.0
 40
1.0
 40
1.0
 40
1.0
 40
1.0
 10
404.0220321010622
 20
330.3461928808588
 30
0.0
 41
1.0
 10
403.9391893885813
 20
330.346192879903
 30
0.0
 41
1.0
 10
403.8602681631243
 20
330.362982227077
 30
0.0
 41
1.0
 10
403.7874126160743
 20
330.39441626545
 30
0.0
 41
1.0
 10
403.7227680324313
 20
330.438350168297
 30
0.0
 41
1.0
 10
403.6684787106803
 20
330.492639490048
 30
0.0
 41
1.0
  0
SPLINE
  5
254
330
21B
100
AcDbEntity
  8
$DDT_AUDIT_GENERATED_(D9)
  6
Continuous
 62
     7
100
AcDbSpline
210
0.0
220
0.0
230
1.0
 70
    12
 71
     5
 72
    12
 73
     6
 74
     0
 42
0.0000000251373102
 43
0.0000000001
 40
0.0
 40
0.0
 40
0.0
 40
0.0
 40
0.0
 40
0.0
 40
1.0
 40
1.0
 40
1.0
 40
1.0
 40
1.0
 40
1.0
 10
403.6684787106803
 20
330.492639490048
 30
0.0
 41
1.0
 10
403.6141893889293
 20
330.546928811799
 30
0.0
 41
1.0
 10
403.5702554886033
 20
330.611573395443
 30
0.0
 41
1.0
 10
403.5388214432753
 20
330.684428942493
 30
0.0
 41
1.0
 10
403.5220321022733
 20
330.76335016795
 30
0.0
 41
1.0
 10
403.5220321019253
 20
330.8461928804308
 30
0.0
 41
1.0
  0
ARC
  5
255
330
21B
100
AcDbEntity
  8
$DDT_AUDIT_GENERATED_(D9)
  6
Continuous
 62
     7
100
AcDbCircle
 10
404.0214737131
 20
330.8448455988
 30
0.0
 40
0.4986526738631952
100
AcDbArc
 50
265.7802752078
 51
267.6543817674
  0
SPLINE
  5
256
330
21B
100
AcDbEntity
  8
$DDT_AUDIT_GENERATED_(D9)
  6
Continuous
 62
     7
100
AcDbSpline
210
0.0
220
0.0
230
1.0
 70
    12
 71
     5
 72
    12
 73
     6
 74
     0
 42
0.0000000251373102
 43
0.0000000001
 40
0.0
 40
0.0
 40
0.0
 40
0.0
 40
0.0
 40
0.0
 40
1.0
 40
1.0
 40
1.0
 40
1.0
 40
1.0
 40
1.0
 10
427.3755854914323
 20
330.492639490048
 30
0.0
 41
1.0
 10
427.3212961696813
 20
330.438350168297
 30
0.0
 41
1.0
 10
427.2566515860383
 20
330.394416267971
 30
0.0
 41
1.0
 10
427.1837960389882
 20
330.362982222643
 30
0.0
 41
1.0
 10
427.1048748135313
 20
330.346192881641
 30
0.0
 41
1.0
 10
427.0220321010503
 20
330.3461928812935
 30
0.0
 41
1.0
  0
SPLINE
  5
257
330
21B
100
AcDbEntity
  8
$DDT_AUDIT_GENERATED_(D9)
  6
Continuous
 62
     7
100
AcDbSpline
210
0.0
220
0.0
230
1.0
 70
    12
 71
     5
 72
    12
 73
     6
 74
     0
 42
0.0000000251373102
 43
0.0000000001
 40
0.0
 40
0.0
 40
0.0
 40
0.0
 40
0.0
 40
0.0
 40
1.0
 40
1.0
 40
1.0
 40
1.0
 40
1.0
 40
1.0
 10
427.3755854914323
 20
330.492639490048
 30
0.0
 41
1.0
 10
427.4298748131833
 20
330.546928811799
 30
0.0
 41
1.0
 10
427.4738087160302
 20
330.611573395443
 30
0.0
 41
1.0
 10
427.5052427544053
 20
330.684428942492
 30
0.0
 41
1.0
 10
427.5220321015783
 20
330.76335016795
 30
0.0
 41
1.0
 10
427.5220321006218
 20
330.84619288043
 30
0.0
 41
1.0
  0
SPLINE
  5
258
330
21B
100
AcDbEntity
  8
$DDT_AUDIT_GENERATED_(D9)
  6
Continuous
 62
     7
100
AcDbSpline
210
0.0
220
0.0
230
1.0
 70
    12
 71
     5
 72
    12
 73
     6
 74
     0
 42
0.0000000251373102
 43
0.0000000001
 40
0.0
 40
0.0
 40
0.0
 40
0.0
 40
0.0
 40
0.0
 40
1.0
 40
1.0
 40
1.0
 40
1.0
 40
1.0
 40
1.0
 10
427.5220321001872
 20
353.8461928804185
 30
0.0
 41
1.0
 10
427.5220320998393
 20
353.929035592899
 30
0.0
 41
1.0
 10
427.5052427588373
 20
354.007956818356
 30
0.0
 41
1.0
 10
427.4738087135092
 20
354.080812365406
 30
0.0
 41
1.0
 10
427.4298748131833
 20
354.14545694905
 30
0.0
 41
1.0
 10
427.3755854914323
 20
354.199746270801
 30
0.0
 41
1.0
  0
SPLINE
  5
259
330
21B
100
AcDbEntity
  8
$DDT_AUDIT_GENERATED_(D9)
  6
Continuous
 62
     7
100
AcDbSpline
210
0.0
220
0.0
230
1.0
 70
    12
 71
     5
 72
    12
 73
     6
 74
     0
 42
0.0000000251373102
 43
0.0000000001
 40
0.0
 40
0.0
 40
0.0
 40
0.0
 40
0.0
 40
0.0
 40
1.0
 40
1.0
 40
1.0
 40
1.0
 40
1.0
 40
1.0
 10
427.3755854914323
 20
354.199746270801
 30
0.0
 41
1.0
 10
427.3212961696813
 20
354.254035592551
 30
0.0
 41
1.0
 10
427.2566515860383
 20
354.297969495398
 30
0.0
 41
1.0
 10
427.1837960389882
 20
354.329403533773
 30
0.0
 41
1.0
 10
427.1048748135313
 20
354.346192880946
 30
0.0
 41
1.0
 10
427.0220321010503
 20
354.3461928799895
 30
0.0
 41
1.0
  0
ARC
  5
25A
330
21B
100
AcDbEntity
  8
$DDT_AUDIT_GENERATED_(D9)
  6
Continuous
 62
     7
100
AcDbCircle
 10
427.0233777876
 20
353.8467503558
 30
0.0
 40
0.4986544464440755
100
AcDbArc
 50
2.2845349184
 51
4.2201879345
  0
ARC
  5
25B
330
21B
100
AcDbEntity
  8
$DDT_AUDIT_GENERATED_(D9)
  6
Continuous
 62
     7
100
AcDbCircle
 10
427.022590489
 20
353.847540162
 30
0.0
 40
0.4986526738600393
100
AcDbArc
 50
87.6544424276
 51
90.0641594485
  0
ARC
  5
25C
330
21B
100
AcDbEntity
  8
$DDT_AUDIT_GENERATED_(D9)
  6
Continuous
 62
     7
100
AcDbCircle
 10
427.022590489
 20
353.847540162
 30
0.0
 40
0.4986526738600393
100
AcDbArc
 50
65.650770908
 51
69.2612395094
  0
ARC
  5
25D
330
21B
100
AcDbEntity
  8
$DDT_AUDIT_GENERATED_(D9)
  6
Continuous
 62
     7
100
AcDbCircle
 10
404.0206848195
 20
353.8467512684
 30
0.0
 40
0.4986526738638618
100
AcDbArc
 50
134.9359044282
 51
180.0641594484
  0
ARC
  5
25E
330
21B
100
AcDbEntity
  8
$DDT_AUDIT_GENERATED_(D9)
  6
Continuous
 62
     7
100
AcDbCircle
 10
427.0233793827
 20
330.8456344925
 30
0.0
 40
0.4986526738659677
100
AcDbArc
 50
335.650770912
 51
339.2612395081
  0
ARC
  5
25F
330
21B
100
AcDbEntity
  8
$DDT_AUDIT_GENERATED_(D9)
  6
Continuous
 62
     7
100
AcDbCircle
 10
427.0225895765
 20
330.8448471938
 30
0.0
 40
0.4986544464461336
100
AcDbArc
 50
272.284541046
 51
315.064039896
  0
LINE
  5
260
330
21B
100
AcDbEntity
  8
$DDT_AUDIT_GENERATED_(D9)
  6
Continuous
 62
     7
100
AcDbLine
 10
403.5220321019
 20
330.8461928804
 30
0.0
 11
403.5220321019
 21
353.8461928804
 31
0.0
  0
LINE
  5
261
330
21B
100
AcDbEntity
  8
$DDT_AUDIT_GENERATED_(D9)
  6
Continuous
 62
     7
100
AcDbLine
 10
427.0220321011
 20
330.3461928813
 30
0.0
 11
404.0220321011
 21
330.3461928809
 31
0.0
  0
LINE
  5
262
330
21B
100
AcDbEntity
  8
$DDT_AUDIT_GENERATED_(D9)
  6
Continuous
 62
     7
100
AcDbLine
 10
421.9226364931
 20
328.8461928804
 30
0.0
 11
422.5220275945
 21
328.8461928804
 31
0.0
  0
LINE
  5
263
330
21B
100
AcDbEntity
  8
$DDT_AUDIT_GENERATED_(D9)
  6
Continuous
 62
     7
100
AcDbLine
 10
422.5220275945
 20
328.8461928804
 30
0.0
 11
423.1214194765
 21
328.8461928804
 31
0.0
  0
LINE
  5
264
330
21B
100
AcDbEntity
  8
$DDT_AUDIT_GENERATED_(D9)
  6
Continuous
 62
     7
100
AcDbLine
 10
417.1726321154
 20
328.8461928804
 30
0.0
 11
417.7720256006
 21
328.8461928804
 31
0.0
  0
LINE
  5
265
330
21B
100
AcDbEntity
  8
$DDT_AUDIT_GENERATED_(D9)
  6
Continuous
 62
     7
100
AcDbLine
 10
417.7720256006
 20
328.8461928804
 30
0.0
 11
418.3714099115
 21
328.8461928804
 31
0.0
  0
LINE
  5
266
330
21B
100
AcDbEntity
  8
$DDT_AUDIT_GENERATED_(D9)
  6
Continuous
 62
     7
100
AcDbLine
 10
407.9226308023
 20
328.8461928804
 30
0.0
 11
408.5220225998
 21
328.8461928804
 31
0.0
  0
LINE
  5
267
330
21B
100
AcDbEntity
  8
$DDT_AUDIT_GENERATED_(D9)
  6
Continuous
 62
     7
100
AcDbLine
 10
408.5220225998
 20
328.8461928804
 30
0.0
 11
409.1214077509
 21
328.8461928804
 31
0.0
  0
LINE
  5
268
330
21B
100
AcDbEntity
  8
$DDT_AUDIT_GENERATED_(D9)
  6
Continuous
 62
     7
100
AcDbLine
 10
413.2720253715
 20
328.8461928804
 30
0.0
 11
412.6726358284
 21
328.8461928804
 31
0.0
  0
LINE
  5
269
330
21B
100
AcDbEntity
  8
$DDT_AUDIT_GENERATED_(D9)
  6
Continuous
 62
     7
100
AcDbLine
 10
413.2720241063
 20
328.8461928804
 30
0.0
 11
413.8714108267
 21
328.8461928804
 31
0.0
  0
SPLINE
  5
26A
330
21B
100
AcDbEntity
  8
$DDT_AUDIT_GENERATED_(D9)
  6
Continuous
 62
     7
100
AcDbSpline
210
0.0
220
0.0
230
1.0
 70
     8
 71
     3
 72
    51
 73
    47
 74
     0
 42
0.0000000076932657
 43
0.0000000001
 40
0.0
 40
0.0
 40
0.0
 40
0.0
 40
0.0341535416474458
 40
0.0660149582466603
 40
0.0957385927164363
 40
0.1234657227061327
 40
0.1493264778304588
 40
0.1734412969908674
 40
0.1997724430190451
 40
0.2240027377271798
 40
0.2462878092345404
 40
0.2667705229792586
 40
0.2908938382086705
 40
0.3124540556538241
 40
0.3316770165090238
 40
0.3487584483809841
 40
0.3638655604716616
 40
0.3771389218756896
 40
0.3886946498291313
 40
0.4024285798700412
 40
0.4165520713619739
 40
0.4319534164181262
 40
0.448597726139878
 40
0.4664809163473572
 40
0.4902817553245952
 40
0.5140410524949863
 40
0.5377369367565449
 40
0.5616064499912862
 40
0.5857720268042231
 40
0.6101609746491269
 40
0.634871902796875
 40
0.6599775770114747
 40
0.694166813219604
 40
0.7293444076203818
 40
0.7655176832074594
 40
0.7966384891288532
 40
0.8275937892607397
 40
0.8572750538184468
 40
0.8854024336567875
 40
0.8974533815635225
 40
0.9096584936508001
 40
0.9236205944077832
 40
0.9395263993004737
 40
0.9574780660662312
 40
0.9775919654234645
 40
1.0
 40
1.0
 40
1.0
 40
1.0
 10
421.172174816619
 20
329.5961928804246
 30
0.0
 10
421.1721804416769
 20
329.5799208618072
 30
0.0
 10
421.1722020446291
 20
329.5534479508007
 30
0.0
 10
421.1723432887477
 20
329.5111862523805
 30
0.0
 10
421.1726939154138
 20
329.472696026803
 30
0.0
 10
421.1733156943355
 20
329.436570292863
 30
0.0
 10
421.1742520554258
 20
329.4029386897305
 30
0.0
 10
421.1755952011552
 20
329.3699118637354
 30
0.0
 10
421.1774297797466
 20
329.3376185903541
 30
0.0
 10
421.1798519495242
 20
329.3061574812096
 30
0.0
 10
421.1827256307313
 20
329.2772788721604
 30
0.0
 10
421.1862935371644
 20
329.2485243352231
 30
0.0
 10
421.1906556952568
 20
329.2201940088574
 30
0.0
 10
421.1959193975559
 20
329.1925722883433
 30
0.0
 10
421.2015126260229
 20
329.1681358512062
 30
0.0
 10
421.2072831427809
 20
329.1466236404086
 30
0.0
 10
421.2130786674367
 20
329.1278006653692
 30
0.0
 10
421.2187515259842
 20
329.1114562634518
 30
0.0
 10
421.2247537803511
 20
329.0958664739322
 30
0.0
 10
421.2314637238185
 20
329.0801643430896
 30
0.0
 10
421.2395624260067
 20
329.0632616425618
 30
0.0
 10
421.2490755945121
 20
329.0456620064186
 30
0.0
 10
421.2604228111311
 20
329.0272370087782
 30
0.0
 10
421.2750397715258
 20
329.0066086403632
 30
0.0
 10
421.2932880077468
 20
328.9848604966875
 30
0.0
 10
421.3153423039488
 20
328.9632025548262
 30
0.0
 10
421.3393886741003
 20
328.943735621009
 30
0.0
 10
421.365270597087
 20
328.9264736352658
 30
0.0
 10
421.3928097759307
 20
328.9113782073247
 30
0.0
 10
421.4217852684261
 20
328.8983665101441
 30
0.0
 10
421.4519871907517
 20
328.8873038084993
 30
0.0
 10
421.4868872006461
 20
328.876944202097
 30
0.0
 10
421.5268070191205
 20
328.8678161335539
 30
0.0
 10
421.5719174638343
 20
328.8602953196381
 30
0.0
 10
421.6160102247706
 20
328.8551076222461
 30
0.0
 10
421.6584260715666
 20
328.8516125813813
 30
0.0
 10
421.6981076514011
 20
328.8493540817593
 30
0.0
 10
421.736527751414
 20
328.8479049654229
 30
0.0
 10
421.7667780285806
 20
328.8471850853066
 30
0.0
 10
421.7894630813865
 20
328.8468086734096
 30
0.0
 10
421.8060161930739
 20
328.8465966324144
 30
0.0
 10
421.8242325503746
 20
328.8464266322385
 30
0.0
 10
421.844968544666
 20
328.8463004926376
 30
0.0
 10
421.8682320706758
 20
328.846223807854
 30
0.0
 10
421.8949197155647
 20
328.8461918732183
 30
0.0
 10
421.9119612762861
 20
328.8461950589306
 30
0.0
 10
421.9226368893936
 20
328.8461928804242
 30
0.0
  0
LINE
  5
26B
330
21B
100
AcDbEntity
  8
$DDT_AUDIT_GENERATED_(D9)
  6
Continuous
 62
     7
100
AcDbLine
 10
421.1720916011
 20
330.3461928804
 30
0.0
 11
421.1720916011
 21
329.5961928804
 31
0.0
  0
SPLINE
  5
26C
330
21B
100
AcDbEntity
  8
$DDT_AUDIT_GENERATED_(D9)
  6
Continuous
 62
     7
100
AcDbSpline
210
0.0
220
0.0
230
1.0
 70
     8
 71
     3
 72
    51
 73
    47
 74
     0
 42
0.0000000076931992
 43
0.0000000001
 40
0.0
 40
0.0
 40
0.0
 40
0.0
 40
0.0177251601349526
 40
0.0326790849052392
 40
0.0449909609485501
 40
0.0550673912657746
 40
0.0648576362237257
 40
0.0746919955637746
 40
0.0980218947191828
 40
0.1221433063886269
 40
0.1530675722265268
 40
0.1860445538512803
 40
0.2202699705265353
 40
0.2581787319952865
 40
0.2947514006143044
 40
0.3300139449521035
 40
0.3557812791934636
 40
0.3811189769129638
 40
0.4060908684330584
 40
0.4308000907424634
 40
0.4552381854640274
 40
0.4794278629986877
 40
0.5036133490754223
 40
0.5279932949187924
 40
0.5465945945943255
 40
0.5639015374942992
 40
0.5799205808829343
 40
0.5946217403317399
 40
0.6084073732189501
 40
0.6197420995817479
 40
0.6328357353957693
 40
0.6478054153109563
 40
0.6647941052537237
 40
0.6839730870335387
 40
0.7055441004839559
 40
0.729741154623411
 40
0.7507211044199968
 40
0.773623352873613
 40
0.7986061152791615
 40
0.8258423492708283
 40
0.855520850760389
 40
0.8806867523575864
 40
0.9075957249159479
 40
0.9363646561012728
 40
0.9671201216272155
 40
1.0
 40
1.0
 40
1.0
 40
1.0
 10
423.1214194764614
 20
328.8461928804244
 30
0.0
 10
423.1298635360332
 20
328.8461939526724
 30
0.0
 10
423.1429473735863
 20
328.8461924215411
 30
0.0
 10
423.1627941796562
 20
328.8462067533986
 30
0.0
 10
423.178894705526
 20
328.8462365445343
 30
0.0
 10
423.1928466504655
 20
328.8462808185317
 30
0.0
 10
423.2057071475364
 20
328.8463406537692
 30
0.0
 10
423.2243125964119
 20
328.8464599558918
 30
0.0
 10
423.2491226309411
 20
328.8467059152017
 30
0.0
 10
423.2830647657224
 20
328.8472790294009
 30
0.0
 10
423.3211761333118
 20
328.848331330462
 30
0.0
 10
423.3636379579875
 20
328.850224542768
 30
0.0
 10
423.4090632319881
 20
328.853335748634
 30
0.0
 10
423.4559154472735
 20
328.8581294570895
 30
0.0
 10
423.5029493694507
 20
328.8651355368009
 30
0.0
 10
423.5443671074747
 20
328.8737515696651
 30
0.0
 10
423.5804716885042
 20
328.8836133656202
 30
0.0
 10
423.6116952385935
 20
328.8942142082372
 30
0.0
 10
423.6416927512021
 20
328.9067767992352
 30
0.0
 10
423.6702785049638
 20
328.9214663674772
 30
0.0
 10
423.6972107709926
 20
328.938387574582
 30
0.0
 10
423.7222842806707
 20
328.9575950299796
 30
0.0
 10
423.7453643052499
 20
328.9791238035691
 30
0.0
 10
423.7646117216754
 20
329.0010029425159
 30
0.0
 10
423.7801427244938
 20
329.0220211363011
 30
0.0
 10
423.7922569706689
 20
329.0409892274173
 30
0.0
 10
423.8023938092375
 20
329.0591661427553
 30
0.0
 10
423.8109066183018
 20
329.0764692654615
 30
0.0
 10
423.8178250801425
 20
329.092274128858
 30
0.0
 10
423.8239033592618
 20
329.1076719573195
 30
0.0
 10
423.8296351477148
 20
329.1237485084755
 30
0.0
 10
423.8355295841374
 20
329.1423546359158
 30
0.0
 10
423.8414317139147
 20
329.1637080677811
 30
0.0
 10
423.8471806720577
 20
329.1880525139181
 30
0.0
 10
423.8526145639008
 20
329.2156594569807
 30
0.0
 10
423.85716071187
 20
329.2442163795361
 30
0.0
 10
423.8609084644429
 20
329.2734672610455
 30
0.0
 10
423.8639453393168
 20
329.3031424140956
 30
0.0
 10
423.8664991718096
 20
329.3355817990705
 30
0.0
 10
423.8685393904842
 20
329.3709963244475
 30
0.0
 10
423.8699356540343
 20
329.406525179781
 30
0.0
 10
423.8708512226015
 20
329.4419119208043
 30
0.0
 10
423.871412001855
 20
329.4769682984219
 30
0.0
 10
423.871727935893
 20
329.5142175812844
 30
0.0
 10
423.8718559242783
 20
329.5550080779499
 30
0.0
 10
423.8718762991796
 20
329.5805276983123
 30
0.0
 10
423.8718819984169
 20
329.5961928804246
 30
0.0
  0
LINE
  5
26D
330
21B
100
AcDbEntity
  8
$DDT_AUDIT_GENERATED_(D9)
  6
Continuous
 62
     7
100
AcDbLine
 10
423.871963601
 20
329.5961928804
 30
0.0
 11
423.871963601
 21
330.3461928804
 31
0.0
  0
SPLINE
  5
26E
330
21B
100
AcDbEntity
  8
$DDT_AUDIT_GENERATED_(D9)
  6
Continuous
 62
     7
100
AcDbSpline
210
0.0
220
0.0
230
1.0
 70
     8
 71
     3
 72
    51
 73
    47
 74
     0
 42
0.0000000076932794
 43
0.0000000001
 40
0.0
 40
0.0
 40
0.0
 40
0.0
 40
0.0341535595245749
 40
0.066014995743278
 40
0.0957386508850024
 40
0.1234658020902019
 40
0.1493265786205333
 40
0.173441419153279
 40
0.1997725901635801
 40
0.2240029095761107
 40
0.2462880055466368
 40
0.2667707436108968
 40
0.2908940904113758
 40
0.3124543396967614
 40
0.3316773329294493
 40
0.3487587979341008
 40
0.3638659440764246
 40
0.3771393405678121
 40
0.3886951047260683
 40
0.4024290605293056
 40
0.4165525282631666
 40
0.4319538495013614
 40
0.4485981352972006
 40
0.4664813009015862
 40
0.4902821345561209
 40
0.514041449683387
 40
0.5377373488709675
 40
0.5616068714443814
 40
0.5857724573720093
 40
0.6101614117890536
 40
0.6348723418860228
 40
0.6599780143677877
 40
0.6941672410089396
 40
0.729344816505477
 40
0.765518068742671
 40
0.7966388550455017
 40
0.8275941647026201
 40
0.8572754384689614
 40
0.8854028283442732
 40
0.8974537815311086
 40
0.9096588682814449
 40
0.9236209230206011
 40
0.9395266681828373
 40
0.9574782594234994
 40
0.9775920681777127
 40
1.0
 40
1.0
 40
1.0
 40
1.0
 10
416.4221745030816
 20
329.5961928804244
 30
0.0
 10
416.4221800447881
 20
329.5799208871176
 30
0.0
 10
416.42220151232
 20
329.5534480160113
 30
0.0
 10
416.422342542208
 20
329.5111863791803
 30
0.0
 10
416.4226929770945
 20
329.4726962055257
 30
0.0
 10
416.4233145800844
 20
329.4365705163277
 30
0.0
 10
416.4242507820341
 20
329.4029389510532
 30
0.0
 10
416.4255937766569
 20
329.3699121582554
 30
0.0
 10
416.4274282135028
 20
329.3376189131509
 30
0.0
 10
416.429850252008
 20
329.3061578271219
 30
0.0
 10
416.4327238192863
 20
329.2772792348698
 30
0.0
 10
416.436291619057
 20
329.2485247096302
 30
0.0
 10
416.4406536797892
 20
329.2201943891542
 30
0.0
 10
416.4459172957674
 20
329.192572668274
 30
0.0
 10
416.4515104556696
 20
329.1681362243896
 30
0.0
 10
416.457280919132
 20
329.1466240013202
 30
0.0
 10
416.4630764036581
 20
329.127801009197
 30
0.0
 10
416.4687492334947
 20
329.1114565859595
 30
0.0
 10
416.4747514634257
 20
329.0958667780873
 30
0.0
 10
416.4814613753168
 20
329.0801646531826
 30
0.0
 10
416.4895600322985
 20
329.0632619833949
 30
0.0
 10
416.4990731407007
 20
329.0456623958524
 30
0.0
 10
416.5104202891679
 20
329.0272374443494
 30
0.0
 10
416.52503717131
 20
329.0066091116822
 30
0.0
 10
416.5432853258726
 20
328.9848609812483
 30
0.0
 10
416.5653395405361
 20
328.9632030284766
 30
0.0
 10
416.5893858322814
 20
328.9437360680726
 30
0.0
 10
416.615267673685
 20
328.9264740470621
 30
0.0
 10
416.64280676946
 20
328.9113785764911
 30
0.0
 10
416.6717821790346
 20
328.8983668318886
 30
0.0
 10
416.7019840177918
 20
328.8873040814413
 30
0.0
 10
416.7368839314991
 20
328.8769444223385
 30
0.0
 10
416.7768036399621
 20
328.8678163001132
 30
0.0
 10
416.8219139599969
 20
328.8602954358427
 30
0.0
 10
416.8660065988776
 20
328.8551076997474
 30
0.0
 10
416.9084223418475
 20
328.8516126295977
 30
0.0
 10
416.948103839256
 20
328.8493541095817
 30
0.0
 10
416.9865238738256
 20
328.8479049796945
 30
0.0
 10
417.0167741010548
 20
328.8471850930106
 30
0.0
 10
417.0394591046557
 20
328.8468086780223
 30
0.0
 10
417.0560121547608
 20
328.846596635601
 30
0.0
 10
417.0742284386529
 20
328.846426634239
 30
0.0
 10
417.094964356625
 20
328.846300493639
 30
0.0
 10
417.1182278069768
 20
328.8462238081641
 30
0.0
 10
417.1449153719032
 20
328.8461918732101
 30
0.0
 10
417.1619568829847
 20
328.8461950589527
 30
0.0
 10
417.1726324640192
 20
328.8461928804244
 30
0.0
  0
LINE
  5
26F
330
21B
100
AcDbEntity
  8
$DDT_AUDIT_GENERATED_(D9)
  6
Continuous
 62
     7
100
AcDbLine
 10
416.4220901011
 20
330.3461928804
 30
0.0
 11
416.4220901011
 21
329.5961928804
 31
0.0
  0
SPLINE
  5
270
330
21B
100
AcDbEntity
  8
$DDT_AUDIT_GENERATED_(D9)
  6
Continuous
 62
     7
100
AcDbSpline
210
0.0
220
0.0
230
1.0
 70
     8
 71
     3
 72
    51
 73
    47
 74
     0
 42
0.0000000076931841
 43
0.0000000001
 40
0.0
 40
0.0
 40
0.0
 40
0.0
 40
0.0177255437495234
 40
0.0326797171660816
 40
0.044991716524288
 40
0.055068175430589
 40
0.0648584202561924
 40
0.0746927789587169
 40
0.098022675204573
 40
0.1221440588816076
 40
0.1530682918849916
 40
0.1860452425158375
 40
0.2202706630790138
 40
0.2581794579070487
 40
0.2947521512056321
 40
0.330014705217671
 40
0.3557820300923075
 40
0.3811197124944708
 40
0.4060915821455511
 40
0.4308007767251654
 40
0.4552388471789924
 40
0.4794284929968376
 40
0.503613944433431
 40
0.5279938710235763
 40
0.5465951936038556
 40
0.563902160012966
 40
0.5799212274758256
 40
0.5946224108349544
 40
0.6084080289009177
 40
0.6197427119512832
 40
0.6328363057867827
 40
0.64780594497157
 40
0.664794595190321
 40
0.6839735378145979
 40
0.7055445120181896
 40
0.7297415259419913
 40
0.7507214428414882
 40
0.773623656628146
 40
0.7986063820967092
 40
0.8258425764890941
 40
0.8555210355289997
 40
0.8806869018408539
 40
0.9075958376815725
 40
0.936364731184199
 40
0.967120158784174
 40
1.0
 40
1.0
 40
1.0
 40
1.0
 10
418.3714099115297
 20
328.8461928804244
 30
0.0
 10
418.3798539435376
 20
328.8461923904803
 30
0.0
 10
418.3929378839808
 20
328.8461930342425
 30
0.0
 10
418.4127847386204
 20
328.8462066297777
 30
0.0
 10
418.4288853573336
 20
328.8462365681519
 30
0.0
 10
418.4428374044452
 20
328.846280811875
 30
0.0
 10
418.4556979394616
 20
328.8463406536943
 30
0.0
 10
418.4743034308453
 20
328.8464599518868
 30
0.0
 10
418.4991135159178
 20
328.8467059095588
 30
0.0
 10
418.5330557153741
 20
328.8472790158644
 30
0.0
 10
418.5711671451483
 20
328.8483313028939
 30
0.0
 10
418.6136290582423
 20
328.8502244903798
 30
0.0
 10
418.6590544585176
 20
328.8533356592967
 30
0.0
 10
418.7059068308897
 20
328.8581293188569
 30
0.0
 10
418.7529409180217
 20
328.8651353387093
 30
0.0
 10
418.7943587928733
 20
328.8737513095091
 30
0.0
 10
418.8304634845454
 20
328.8836130460901
 30
0.0
 10
418.8616871225606
 20
328.8942138343078
 30
0.0
 10
418.8916847178559
 20
328.9067763744658
 30
0.0
 10
418.9202705516545
 20
328.9214659002656
 30
0.0
 10
418.9472028925861
 20
328.9383870761569
 30
0.0
 10
418.9722764709852
 20
328.9575945131006
 30
0.0
 10
418.9953565614796
 20
328.9791232825912
 30
0.0
 10
419.0146040484246
 20
329.0010024429566
 30
0.0
 10
419.030135124692
 20
329.0220206819064
 30
0.0
 10
419.0422494418232
 20
329.0409888335634
 30
0.0
 10
419.0523863456197
 20
329.0591658100813
 30
0.0
 10
419.0608992089601
 20
329.0764689781018
 30
0.0
 10
419.0678177111399
 20
329.0922738567372
 30
0.0
 10
419.0738960238896
 20
329.1076716717233
 30
0.0
 10
419.079627851242
 20
329.1237481983191
 30
0.0
 10
419.0855223451643
 20
329.142354305374
 30
0.0
 10
419.0914245549695
 20
329.1637077215218
 30
0.0
 10
419.0971736203358
 20
329.1880521572597
 30
0.0
 10
419.1026076520376
 20
329.2156590960678
 30
0.0
 10
419.1071539636426
 20
329.2442160209055
 30
0.0
 10
419.110901901025
 20
329.2734669109537
 30
0.0
 10
419.1139389786416
 20
329.3031420780233
 30
0.0
 10
419.1164930489042
 20
329.3355814836603
 30
0.0
 10
419.1185335438734
 20
329.3709960372653
 30
0.0
 10
419.1199301000375
 20
329.4065249263776
 30
0.0
 10
419.1208459719817
 20
329.4419117058301
 30
0.0
 10
419.1214070608581
 20
329.4769681258991
 30
0.0
 10
419.1217233315126
 20
329.5142174584395
 30
0.0
 10
419.1218516946673
 20
329.5550080146102
 30
0.0
 10
419.1218723056641
 20
329.5805276736846
 30
0.0
 10
419.121878150019
 20
329.5961928804244
 30
0.0
  0
LINE
  5
271
330
21B
100
AcDbEntity
  8
$DDT_AUDIT_GENERATED_(D9)
  6
Continuous
 62
     7
100
AcDbLine
 10
419.121961101
 20
329.5961928804
 30
0.0
 11
419.121961101
 21
330.3461928804
 31
0.0
  0
SPLINE
  5
272
330
21B
100
AcDbEntity
  8
$DDT_AUDIT_GENERATED_(D9)
  6
Continuous
 62
     7
100
AcDbSpline
210
0.0
220
0.0
230
1.0
 70
     8
 71
     3
 72
    51
 73
    47
 74
     0
 42
0.0000000076932684
 43
0.0000000001
 40
0.0
 40
0.0
 40
0.0
 40
0.0
 40
0.0341535466138932
 40
0.0660149683342669
 40
0.0957386079521704
 40
0.1234657430272131
 40
0.1493265031174488
 40
0.173441327095127
 40
0.1997724786001828
 40
0.2240027785849265
 40
0.2462878552049473
 40
0.2667705739458497
 40
0.2908938955716509
 40
0.3124541194108291
 40
0.3316770867493332
 40
0.3487585252640275
 40
0.363865644204955
 40
0.3771390126952142
 40
0.3886947479837077
 40
0.4024286833550105
 40
0.4165521702359145
 40
0.4319535105933251
 40
0.4485978155888697
 40
0.4664810009951009
 40
0.4902818394065639
 40
0.5140411410786109
 40
0.5377370293728129
 40
0.5616065454959291
 40
0.5857721252266117
 40
0.6101610759456803
 40
0.6348720067191852
 40
0.6599776837886298
 40
0.6941669234698404
 40
0.7293445179495814
 40
0.7655177907660877
 40
0.7966385927773632
 40
0.8275938936088653
 40
0.8572751555968918
 40
0.8854025297188013
 40
0.897453474158967
 40
0.909658574142197
 40
0.9236206571940232
 40
0.9395264439290318
 40
0.9574780935713578
 40
0.9775919778306804
 40
1.0
 40
1.0
 40
1.0
 40
1.0
 10
407.1721699858567
 20
329.596192880424
 30
0.0
 10
407.1721755907624
 20
329.5799208664018
 30
0.0
 10
407.172197160982
 20
329.553447962656
 30
0.0
 10
407.1723383534293
 20
329.5111862754773
 30
0.0
 10
407.1726889339848
 20
329.4726960594172
 30
0.0
 10
407.1733106707777
 20
329.4365703337177
 30
0.0
 10
407.1742469939546
 20
329.4029387375907
 30
0.0
 10
407.1755901039024
 20
329.3699119177786
 30
0.0
 10
407.1774246491884
 20
329.3376186496945
 30
0.0
 10
407.1798467884275
 20
329.3061575449025
 30
0.0
 10
407.1827204434359
 20
329.2772789390434
 30
0.0
 10
407.1862883256625
 20
329.2485244043634
 30
0.0
 10
407.1906504620396
 20
329.220194079168
 30
0.0
 10
407.1959141455304
 20
329.1925723586492
 30
0.0
 10
407.2015073594597
 20
329.1681359202992
 30
0.0
 10
407.2072778652786
 20
329.1466237072339
 30
0.0
 10
407.2130733820202
 20
329.1278007289997
 30
0.0
 10
407.2187462352003
 20
329.1114563230641
 30
0.0
 10
407.2247484852732
 20
329.0958665301462
 30
0.0
 10
407.2314584232424
 20
329.0801644008634
 30
0.0
 10
407.2395571174864
 20
329.063261707064
 30
0.0
 10
407.2490702752979
 20
329.0456620814804
 30
0.0
 10
407.2604174798408
 20
329.0272370941748
 30
0.0
 10
407.2750344265377
 20
329.006608734259
 30
0.0
 10
407.2932826487261
 20
328.9848605946861
 30
0.0
 10
407.3153369310423
 20
328.9632026520501
 30
0.0
 10
407.3393832876696
 20
328.9437357140688
 30
0.0
 10
407.3652651960844
 20
328.9264737221142
 30
0.0
 10
407.3928043598304
 20
328.9113782860215
 30
0.0
 10
407.4217798368247
 20
328.8983665794034
 30
0.0
 10
407.4519817431818
 20
328.8873038677414
 30
0.0
 10
407.4868817341783
 20
328.8769442503347
 30
0.0
 10
407.5268015284368
 20
328.8678161707676
 30
0.0
 10
407.5719119473881
 20
328.8602953458258
 30
0.0
 10
407.6160046831343
 20
328.855107639833
 30
0.0
 10
407.6584205084901
 20
328.8516125924063
 30
0.0
 10
407.6981020711825
 20
328.8493540881952
 30
0.0
 10
407.7365221587512
 20
328.8479049687523
 30
0.0
 10
407.7667724279951
 20
328.8471850870901
 30
0.0
 10
407.789457471523
 20
328.8468086744788
 30
0.0
 10
407.8060105712894
 20
328.8465966331425
 30
0.0
 10
407.8242269151961
 20
328.8464266326783
 30
0.0
 10
407.8449628936173
 20
328.8463004928538
 30
0.0
 10
407.8682264033307
 20
328.8462238079186
 30
0.0
 10
407.8949140310787
 20
328.8461918732158
 30
0.0
 10
407.911955578967
 20
328.8461950589359
 30
0.0
 10
407.9226311856646
 20
328.8461928804244
 30
0.0
  0
LINE
  5
273
330
21B
100
AcDbEntity
  8
$DDT_AUDIT_GENERATED_(D9)
  6
Continuous
 62
     7
100
AcDbLine
 10
407.1720866011
 20
330.3461928804
 30
0.0
 11
407.1720866011
 21
329.5961928804
 31
0.0
  0
SPLINE
  5
274
330
21B
100
AcDbEntity
  8
$DDT_AUDIT_GENERATED_(D9)
  6
Continuous
 62
     7
100
AcDbSpline
210
0.0
220
0.0
230
1.0
 70
     8
 71
     3
 72
    51
 73
    47
 74
     0
 42
0.0000000076931865
 43
0.0000000001
 40
0.0
 40
0.0
 40
0.0
 40
0.0
 40
0.0177253512423476
 40
0.0326793929672632
 40
0.0449913234486963
 40
0.0550677640291915
 40
0.0648580014661568
 40
0.0746923564938509
 40
0.0980222562909269
 40
0.1221436529258783
 40
0.1530679015725282
 40
0.1860448674007198
 40
0.2202703001478876
 40
0.2581791073284787
 40
0.2947518140067751
 40
0.3300143825247897
 40
0.3557817182396736
 40
0.3811194100806144
 40
0.406091288402862
 40
0.430800491541679
 40
0.4552385697951749
 40
0.479428224028618
 40
0.5036136847267686
 40
0.5279936195567677
 40
0.5465949437869081
 40
0.5639019118108236
 40
0.5799209805556157
 40
0.5946221646295217
 40
0.6084077892802716
 40
0.6197424831584678
 40
0.6328360884050179
 40
0.647805739709502
 40
0.6647944028882979
 40
0.6839733594439235
 40
0.7055443486726245
 40
0.72974137882054
 40
0.7507213093300986
 40
0.7736235375341726
 40
0.7986062782310499
 40
0.8258424886439998
 40
0.8555209644513702
 40
0.8806868444126039
 40
0.9075957942639361
 40
0.9363647020694417
 40
0.9671201441776537
 40
1.0
 40
1.0
 40
1.0
 40
1.0
 10
409.12140775094
 20
328.8461928804244
 30
0.0
 10
409.1298517747414
 20
328.8461923904854
 30
0.0
 10
409.1429357115225
 20
328.8461930342459
 30
0.0
 10
409.1627825582252
 20
328.8462066298176
 30
0.0
 10
409.1788831712917
 20
328.8462365682604
 30
0.0
 10
409.1928351885916
 20
328.8462808119516
 30
0.0
 10
409.205695718589
 20
328.8463406538021
 30
0.0
 10
409.2243012099212
 20
328.846459952115
 30
0.0
 10
409.249111288961
 20
328.8467059100122
 30
0.0
 10
409.2830534757058
 20
328.8472790167211
 30
0.0
 10
409.3211648989269
 20
328.848331304732
 30
0.0
 10
409.3636268020288
 20
328.8502244939922
 30
0.0
 10
409.4090521899248
 20
328.8533356658153
 30
0.0
 10
409.4559045442732
 20
328.8581293293265
 30
0.0
 10
409.5029386110874
 20
328.8651353544655
 30
0.0
 10
409.5443564654412
 20
328.8737513310099
 30
0.0
 10
409.5804611389466
 20
328.8836130738623
 30
0.0
 10
409.611684761025
 20
328.8942138686735
 30
0.0
 10
409.6416823395904
 20
328.9067764160032
 30
0.0
 10
409.6702681556524
 20
328.9214659492541
 30
0.0
 10
409.6972004776668
 20
328.9383871323686
 30
0.0
 10
409.7222740361463
 20
328.9575945758027
 30
0.0
 10
409.7453541058106
 20
328.9791233504849
 30
0.0
 10
409.7646015716679
 20
329.0010025122471
 30
0.0
 10
409.7801326279896
 20
329.0220207484993
 30
0.0
 10
409.7922469275462
 20
329.0409888943041
 30
0.0
 10
409.802383815943
 20
329.0591658638859
 30
0.0
 10
409.8108966669272
 20
329.0764690265144
 30
0.0
 10
409.8178151604094
 20
329.0922739038446
 30
0.0
 10
409.8238934666962
 20
329.1076717218561
 30
0.0
 10
409.8296252878848
 20
329.1237482532601
 30
0.0
 10
409.8355197741853
 20
329.142354364385
 30
0.0
 10
409.8414219749483
 20
329.1637077837644
 30
0.0
 10
409.8471710298878
 20
329.188052221765
 30
0.0
 10
409.8526050498122
 20
329.215659161704
 30
0.0
 10
409.8571513494186
 20
329.2442160864431
 30
0.0
 10
409.8608992747277
 20
329.2734669752533
 30
0.0
 10
409.8639363403137
 20
329.3031421400161
 30
0.0
 10
409.866490397686
 20
329.3355815420933
 30
0.0
 10
409.8685308788638
 20
329.3709960906987
 30
0.0
 10
409.8699274214617
 20
329.4065249737899
 30
0.0
 10
409.8708432801033
 20
329.4419117462792
 30
0.0
 10
409.8714043559678
 20
329.476968158488
 30
0.0
 10
409.8717206129542
 20
329.5142174817227
 30
0.0
 10
409.8718489612905
 20
329.5550080266437
 30
0.0
 10
409.8718695631067
 20
329.5805276783944
 30
0.0
 10
409.8718754018313
 20
329.596192880424
 30
0.0
  0
LINE
  5
275
330
21B
100
AcDbEntity
  8
$DDT_AUDIT_GENERATED_(D9)
  6
Continuous
 62
     7
100
AcDbLine
 10
409.871958601
 20
329.5961928804
 30
0.0
 11
409.871958601
 21
330.3461928804
 31
0.0
  0
SPLINE
  5
276
330
21B
100
AcDbEntity
  8
$DDT_AUDIT_GENERATED_(D9)
  6
Continuous
 62
     7
100
AcDbSpline
210
0.0
220
0.0
230
1.0
 70
     8
 71
     3
 72
    51
 73
    47
 74
     0
 42
0.0000000076932515
 43
0.0000000001
 40
0.0
 40
0.0
 40
0.0
 40
0.0
 40
0.0341535338782881
 40
0.0660149388849749
 40
0.0957385586979162
 40
0.1234656715944896
 40
0.1493264077063598
 40
0.1734412063584434
 40
0.1997723267609644
 40
0.2240025946909837
 40
0.246287638612896
 40
0.2667703242243887
 40
0.2908936024010325
 40
0.3124537824418318
 40
0.331676705657657
 40
0.3487580996497693
 40
0.3638651735121942
 40
0.3771384961481759
 40
0.3886941845389179
 40
0.4024280879512891
 40
0.4165516081935438
 40
0.4319529811950548
 40
0.4485973190671747
 40
0.4664805391349043
 40
0.4902813916309565
 40
0.5140406817241121
 40
0.5377365638480662
 40
0.5616060801583608
 40
0.5857716593777644
 40
0.6101606120181853
 40
0.6348715480645102
 40
0.6599772316252355
 40
0.6941664829905554
 40
0.7293440966054724
 40
0.7655173920620215
 40
0.7966382131898659
 40
0.8275935066439133
 40
0.8572747641817225
 40
0.8854021368731151
 40
0.8974530814197472
 40
0.9096582115646181
 40
0.9236203458830681
 40
0.9395261953114273
 40
0.9574779190078117
 40
0.9775918870879278
 40
1.0
 40
1.0
 40
1.0
 40
1.0
 10
411.922170691336
 20
329.596192880424
 30
0.0
 10
411.9221763550876
 20
329.5799208322262
 30
0.0
 10
411.9221980209905
 20
329.5534478749137
 30
0.0
 10
411.922339365638
 20
329.5111861053033
 30
0.0
 10
411.922690083785
 20
329.4726958202698
 30
0.0
 10
411.923311948465
 20
329.4365700356344
 30
0.0
 10
411.9242483892818
 20
329.402938390058
 30
0.0
 10
411.9255916131791
 20
329.3699115274218
 30
0.0
 10
411.9274262680698
 20
329.3376182232948
 30
0.0
 10
411.9298485120693
 20
329.3061570894068
 30
0.0
 10
411.9327222612604
 20
329.2772784629224
 30
0.0
 10
411.9362902351061
 20
329.2485239146634
 30
0.0
 10
411.9406524591842
 20
329.2201935836639
 30
0.0
 10
411.9459162251673
 20
329.1925718657735
 30
0.0
 10
411.9515095088177
 20
329.1681354385344
 30
0.0
 10
411.9572800724804
 20
329.1466232439232
 30
0.0
 10
411.9630756358807
 20
329.1278002905402
 30
0.0
 10
411.9687485250658
 20
329.1114559150919
 30
0.0
 10
411.9747508086539
 20
329.0958661487848
 30
0.0
 10
411.981460792538
 20
329.0801640147182
 30
0.0
 10
411.9895595539308
 20
329.063261285374
 30
0.0
 10
411.9990728013552
 20
329.0456616033173
 30
0.0
 10
412.0104201088008
 20
329.0272365655635
 30
0.0
 10
412.0250371759934
 20
329.0066081710284
 30
0.0
 10
412.0432855271371
 20
328.9848600268778
 30
0.0
 10
412.0653399396435
 20
328.9632021101666
 30
0.0
 10
412.0893864196148
 20
328.9437352153526
 30
0.0
 10
412.1152684507429
 20
328.9264732742678
 30
0.0
 10
412.1428077342103
 20
328.9113778943012
 30
0.0
 10
412.1717833268391
 20
328.8983662456388
 30
0.0
 10
412.2019853462662
 20
328.8873035902604
 30
0.0
 10
412.2368854623963
 20
328.8769440311544
 30
0.0
 10
412.2768053961957
 20
328.8678160080452
 30
0.0
 10
412.32191596596
 20
328.8602952344326
 30
0.0
 10
412.3660088451339
 20
328.85510756663
 30
0.0
 10
412.4084247930895
 20
328.8516125474104
 30
0.0
 10
412.4481064551737
 20
328.8493540624892
 30
0.0
 10
412.4865266236696
 20
328.8479049557109
 30
0.0
 10
412.5167769534377
 20
328.8471850801346
 30
0.0
 10
412.5394620541768
 20
328.8468086703418
 30
0.0
 10
412.5560152193451
 20
328.8465966302973
 30
0.0
 10
412.5742316388253
 20
328.8464266309126
 30
0.0
 10
412.594967699049
 20
328.8463004919751
 30
0.0
 10
412.6182312923506
 20
328.8462238076495
 30
0.0
 10
412.6449190100371
 20
328.8461918732242
 30
0.0
 10
412.6619606164589
 20
328.8461950589166
 30
0.0
 10
412.6726362590014
 20
328.8461928804246
 30
0.0
  0
LINE
  5
277
330
21B
100
AcDbEntity
  8
$DDT_AUDIT_GENERATED_(D9)
  6
Continuous
 62
     7
100
AcDbLine
 10
411.9220881011
 20
330.3461928804
 30
0.0
 11
411.9220881011
 21
329.5961928804
 31
0.0
  0
SPLINE
  5
278
330
21B
100
AcDbEntity
  8
$DDT_AUDIT_GENERATED_(D9)
  6
Continuous
 62
     7
100
AcDbSpline
210
0.0
220
0.0
230
1.0
 70
     8
 71
     3
 72
    51
 73
    47
 74
     0
 42
0.0000000076931964
 43
0.0000000001
 40
0.0
 40
0.0
 40
0.0
 40
0.0
 40
0.017725569139699
 40
0.0326797480082052
 40
0.0449917348885741
 40
0.0550681804538121
 40
0.0648584215479315
 40
0.0746927761132063
 40
0.0980226613326142
 40
0.1221440455602566
 40
0.1530682796028747
 40
0.1860452300392351
 40
0.2202706312626178
 40
0.2581793881530969
 40
0.2947520464083558
 40
0.3300145716304527
 40
0.3557818825361365
 40
0.3811195529916375
 40
0.406091414116509
 40
0.4308006046360989
 40
0.4552386691732155
 40
0.479428314258275
 40
0.5036137693298935
 40
0.5279936916807099
 40
0.5465949844103581
 40
0.5639019229799661
 40
0.5799209633837978
 40
0.5946221197933605
 40
0.6084077433256024
 40
0.6197424581024847
 40
0.6328360823287064
 40
0.6478057506495613
 40
0.6647944287835599
 40
0.6839733980844401
 40
0.705544397653309
 40
0.7297414354983883
 40
0.7507213700158932
 40
0.7736236002721095
 40
0.7986063408772903
 40
0.8258425488247808
 40
0.8555210195019612
 40
0.8806868933217445
 40
0.907595834922312
 40
0.9363647320781257
 40
0.9671201607796938
 40
1.0
 40
1.0
 40
1.0
 40
1.0
 10
413.8714108266761
 20
328.8461928804246
 30
0.0
 10
413.8798548418682
 20
328.8461923904755
 30
0.0
 10
413.8929387508371
 20
328.8461930342427
 30
0.0
 10
413.9127855559741
 20
328.8462066298586
 30
0.0
 10
413.9288861313607
 20
328.8462365683997
 30
0.0
 10
413.9428381452063
 20
328.8462808123811
 30
0.0
 10
413.9556986511713
 20
328.8463406545631
 30
0.0
 10
413.9743041061988
 20
328.846459953535
 30
0.0
 10
413.9991141474893
 20
328.8467059129056
 30
0.0
 10
414.0330562915169
 20
328.8472790233865
 30
0.0
 10
414.0711676639919
 20
328.8483313184965
 30
0.0
 10
414.1136295039898
 20
328.8502245203649
 30
0.0
 10
414.1590548085611
 20
328.853335711415
 30
0.0
 10
414.2059070656559
 20
328.8581294015795
 30
0.0
 10
414.2529410290252
 20
328.8651354612292
 30
0.0
 10
414.2943587942581
 20
328.8737514762236
 30
0.0
 10
414.330463389404
 20
328.8836132583147
 30
0.0
 10
414.3616869430163
 20
328.8942140910751
 30
0.0
 10
414.3916844531583
 20
328.9067766773957
 30
0.0
 10
414.4202701991283
 20
328.9214662480861
 30
0.0
 10
414.4472024507093
 20
328.9383874649939
 30
0.0
 10
414.4722759393864
 20
328.9575949364113
 30
0.0
 10
414.4953559390985
 20
328.9791237305511
 30
0.0
 10
414.5146033348888
 20
329.0010028931626
 30
0.0
 10
414.5301343249935
 20
329.0220211118767
 30
0.0
 10
414.5422485660627
 20
329.0409892270512
 30
0.0
 10
414.5523854041128
 20
329.0591661626497
 30
0.0
 10
414.5608982161302
 20
329.0764692991601
 30
0.0
 10
414.5678166838251
 20
329.0922741685844
 30
0.0
 10
414.573894972188
 20
329.1076719971337
 30
0.0
 10
414.5796267756288
 20
329.1237485461871
 30
0.0
 10
414.5855212374454
 20
329.1423546714832
 30
0.0
 10
414.5914234063501
 20
329.1637081010405
 30
0.0
 10
414.5971724212607
 20
329.1880525445926
 30
0.0
 10
414.6026063920026
 20
329.2156594847012
 30
0.0
 10
414.6071526371638
 20
329.2442164043507
 30
0.0
 10
414.6109005035127
 20
329.273467283056
 30
0.0
 10
414.6139375064976
 20
329.3031424330715
 30
0.0
 10
414.6164914925561
 20
329.3355818147938
 30
0.0
 10
414.6185318928861
 20
329.3709963367766
 30
0.0
 10
414.6199283515944
 20
329.4065251892774
 30
0.0
 10
414.6208441244671
 20
329.4419119277401
 30
0.0
 10
414.6214051136472
 20
329.4769683029536
 30
0.0
 10
414.6217212770392
 20
329.514217583777
 30
0.0
 10
414.621849521624
 20
329.5550080789926
 30
0.0
 10
414.6218700580939
 20
329.5805276986517
 30
0.0
 10
414.6218758566679
 20
329.5961928804243
 30
0.0
  0
LINE
  5
279
330
21B
100
AcDbEntity
  8
$DDT_AUDIT_GENERATED_(D9)
  6
Continuous
 62
     7
100
AcDbLine
 10
414.621960101
 20
329.5961928804
 30
0.0
 11
414.621960101
 21
330.3461928804
 31
0.0
  0
ARC
  5
27A
330
21B
100
AcDbEntity
  8
$DDT_AUDIT_GENERATED_(128)
  6
Continuous
 62
     7
100
AcDbCircle
 10
415.5220320077
 20
342.35
 30
0.0
 40
14.05
100
AcDbArc
 50
0.0
 51
31.3371710105
  0
ARC
  5
27B
330
21B
100
AcDbEntity
  8
$DDT_AUDIT_GENERATED_(128)
  6
Continuous
 62
     7
100
AcDbCircle
 10
415.5220320077
 20
342.35
 30
0.0
 40
14.05
100
AcDbArc
 50
58.6315993331
 51
121.3675803057
  0
ARC
  5
27C
330
21B
100
AcDbEntity
  8
$DDT_AUDIT_GENERATED_(128)
  6
Continuous
 62
     7
100
AcDbCircle
 10
415.5220320077
 20
342.35
 30
0.0
 40
14.05
100
AcDbArc
 50
148.660104186
 51
211.3371261548
  0
ARC
  5
27D
330
21B
100
AcDbEntity
  8
$DDT_AUDIT_GENERATED_(128)
  6
Continuous
 62
     7
100
AcDbCircle
 10
415.5220320077
 20
342.35
 30
0.0
 40
14.05
100
AcDbArc
 50
246.2847715367
 51
293.7151499879
  0
ARC
  5
27E
330
21B
100
AcDbEntity
  8
$DDT_AUDIT_GENERATED_(128)
  6
Continuous
 62
     7
100
AcDbCircle
 10
415.5220320077
 20
342.35
 30
0.0
 40
14.05
100
AcDbArc
 50
328.6619612897
 51
0.0
  0
LINE
  5
27F
330
21B
100
AcDbEntity
  8
$DDT_AUDIT_GENERATED_(128)
  6
Continuous
 62
     7
100
AcDbLine
 10
435.5220320077
 20
321.85
 30
0.0
 11
395.5220320077
 21
321.85
 31
0.0
  0
LINE
  5
280
330
21B
100
AcDbEntity
  8
$DDT_AUDIT_GENERATED_(128)
  6
Continuous
 62
     7
100
AcDbLine
 10
395.0220320077
 20
322.35
 30
0.0
 11
395.0220320077
 21
362.35
 31
0.0
  0
LINE
  5
281
330
21B
100
AcDbEntity
  8
$DDT_AUDIT_GENERATED_(128)
  6
Continuous
 62
     7
100
AcDbLine
 10
436.0220320077
 20
362.35
 30
0.0
 11
436.0220320077
 21
322.35
 31
0.0
  0
LINE
  5
282
330
21B
100
AcDbEntity
  8
$DDT_AUDIT_GENERATED_(128)
  6
Continuous
 62
     7
100
AcDbLine
 10
395.5220320077
 20
362.85
 30
0.0
 11
435.5220320077
 21
362.85
 31
0.0
  0
ARC
  5
283
330
21B
100
AcDbEntity
  8
$DDT_AUDIT_GENERATED_(128)
  6
Continuous
 62
     7
100
AcDbCircle
 10
435.5220320077
 20
362.35
 30
0.0
 40
0.5000000000000004
100
AcDbArc
 50
0.0
 51
90.0
  0
ARC
  5
284
330
21B
100
AcDbEntity
  8
$DDT_AUDIT_GENERATED_(128)
  6
Continuous
 62
     7
100
AcDbCircle
 10
395.5220320077
 20
362.35
 30
0.0
 40
0.5000000000000004
100
AcDbArc
 50
90.0
 51
180.0
  0
ARC
  5
285
330
21B
100
AcDbEntity
  8
$DDT_AUDIT_GENERATED_(128)
  6
Continuous
 62
     7
100
AcDbCircle
 10
435.5220320077
 20
322.35
 30
0.0
 40
0.5000000000000004
100
AcDbArc
 50
270.0
 51
0.0
  0
ARC
  5
286
330
21B
100
AcDbEntity
  8
$DDT_AUDIT_GENERATED_(128)
  6
Continuous
 62
     7
100
AcDbCircle
 10
395.5220320077
 20
322.35
 30
0.0
 40
0.5000000000000004
100
AcDbArc
 50
180.0
 51
270.0
  0
LINE
  5
287
330
21B
100
AcDbEntity
  8
$DDT_AUDIT_GENERATED_(12E)
  6
Continuous
 62
     7
100
AcDbLine
 10
448.0220320077
 20
373.85
 30
0.0
 11
448.0220320077
 21
310.85
 31
0.0
  0
LINE
  5
288
330
21B
100
AcDbEntity
  8
$DDT_AUDIT_GENERATED_(12E)
  6
Continuous
 62
     7
100
AcDbLine
 10
447.0220320077
 20
309.85
 30
0.0
 11
384.0220320077
 21
309.85
 31
0.0
  0
LINE
  5
289
330
21B
100
AcDbEntity
  8
$DDT_AUDIT_GENERATED_(12E)
  6
Continuous
 62
     7
100
AcDbLine
 10
383.0220320077
 20
310.85
 30
0.0
 11
383.0220320077
 21
373.85
 31
0.0
  0
LINE
  5
28A
330
21B
100
AcDbEntity
  8
$DDT_AUDIT_GENERATED_(12E)
  6
Continuous
 62
     7
100
AcDbLine
 10
384.0220320077
 20
374.85
 30
0.0
 11
447.0220320077
 21
374.85
 31
0.0
  0
ARC
  5
28B
330
21B
100
AcDbEntity
  8
$DDT_AUDIT_GENERATED_(12E)
  6
Continuous
 62
     7
100
AcDbCircle
 10
384.0220320077
 20
373.85
 30
0.0
 40
1.000000000000001
100
AcDbArc
 50
90.0
 51
180.0
  0
ARC
  5
28C
330
21B
100
AcDbEntity
  8
$DDT_AUDIT_GENERATED_(12E)
  6
Continuous
 62
     7
100
AcDbCircle
 10
384.0220320077
 20
310.85
 30
0.0
 40
1.000000000000001
100
AcDbArc
 50
180.0
 51
270.0
  0
ARC
  5
28D
330
21B
100
AcDbEntity
  8
$DDT_AUDIT_GENERATED_(12E)
  6
Continuous
 62
     7
100
AcDbCircle
 10
447.0220320077
 20
373.85
 30
0.0
 40
1.000000000000001
100
AcDbArc
 50
0.0
 51
90.0
  0
ARC
  5
28E
330
21B
100
AcDbEntity
  8
$DDT_AUDIT_GENERATED_(12E)
  6
Continuous
 62
     7
100
AcDbCircle
 10
447.0220320077
 20
310.85
 30
0.0
 40
1.000000000000001
100
AcDbArc
 50
270.0
 51
0.0
  0
LINE
  5
28F
330
21B
100
AcDbEntity
  8
$DDT_AUDIT_GENERATED_(137)
  6
Continuous
 62
     7
100
AcDbLine
 10
245.5220320077
 20
106.85
 30
0.0
 11
245.5220320077
 21
361.85
 31
0.0
  0
LINE
  5
290
330
21B
100
AcDbEntity
  8
$DDT_AUDIT_GENERATED_(137)
  6
Continuous
 62
     7
100
AcDbLine
 10
245.0220320077
 20
362.35
 30
0.0
 11
206.0220320077
 21
362.35
 31
0.0
  0
LINE
  5
291
330
21B
100
AcDbEntity
  8
$DDT_AUDIT_GENERATED_(137)
  6
Continuous
 62
     7
100
AcDbLine
 10
205.5220320077
 20
361.85
 30
0.0
 11
205.5220320077
 21
106.85
 31
0.0
  0
LINE
  5
292
330
21B
100
AcDbEntity
  8
$DDT_AUDIT_GENERATED_(137)
  6
Continuous
 62
     7
100
AcDbLine
 10
245.0220320077
 20
106.35
 30
0.0
 11
206.0220320077
 21
106.35
 31
0.0
  0
ARC
  5
293
330
21B
100
AcDbEntity
  8
$DDT_AUDIT_GENERATED_(137)
  6
Continuous
 62
     7
100
AcDbCircle
 10
206.0220320077
 20
361.85
 30
0.0
 40
0.5000000000000004
100
AcDbArc
 50
90.0
 51
180.0
  0
ARC
  5
294
330
21B
100
AcDbEntity
  8
$DDT_AUDIT_GENERATED_(137)
  6
Continuous
 62
     7
100
AcDbCircle
 10
206.0220320077
 20
106.85
 30
0.0
 40
0.5000000000000004
100
AcDbArc
 50
180.0
 51
270.0
  0
ARC
  5
295
330
21B
100
AcDbEntity
  8
$DDT_AUDIT_GENERATED_(137)
  6
Continuous
 62
     7
100
AcDbCircle
 10
245.0220320077
 20
361.85
 30
0.0
 40
0.5000000000000039
100
AcDbArc
 50
0.0
 51
90.0
  0
ARC
  5
296
330
21B
100
AcDbEntity
  8
$DDT_AUDIT_GENERATED_(137)
  6
Continuous
 62
     7
100
AcDbCircle
 10
245.0220320077
 20
106.85
 30
0.0
 40
0.5000000000001115
100
AcDbArc
 50
270.0
 51
360.0
  0
ELLIPSE
  5
297
330
21B
100
AcDbEntity
  8
$DDT_AUDIT_GENERATED_(146)
  6
Continuous
 62
     7
100
AcDbEllipse
 10
557.4953505157
 20
262.4526773097
 30
0.0
 11
-0.4999782935504182
 21
0.00472714952888531
 31
0.0
210
0.0
220
0.0
230
1.0
 40
0.1294926725
 41
3.124615286036405
 42
3.141689585880487
  0
ARC
  5
298
330
21B
100
AcDbEntity
  8
$DDT_AUDIT_GENERATED_(146)
  6
Continuous
 62
     7
100
AcDbCircle
 10
581.0538636552
 20
262.4403485226
 30
0.0
 40
1.989852573368518
100
AcDbArc
 50
324.6891999593
 51
0.3174181352
  0
ELLIPSE
  5
299
330
21B
100
AcDbEntity
  8
$DDT_AUDIT_GENERATED_(146)
  6
Continuous
 62
     7
100
AcDbEllipse
 10
583.5429986446
 20
262.4526819458
 30
0.0
 11
0.4999775722062672
 21
0.00473366591190183
 31
0.0
210
0.0
220
0.0
230
1.0
 40
0.1294918633
 41
-3.194400546073453
 42
-3.192639201294619
  0
SPLINE
  5
29A
330
21B
100
AcDbEntity
  8
$DDT_AUDIT_GENERATED_(146)
  6
Continuous
 62
     7
100
AcDbSpline
210
0.0
220
0.0
230
1.0
 70
     8
 71
     3
 72
     8
 73
     4
 74
     0
 42
0.0000000941185285
 43
0.0000000001
 40
0.0322337902126247
 40
0.0322337902126247
 40
0.0322337902126247
 40
0.0322337902126247
 40
0.0426377264325851
 40
0.0426377264325851
 40
0.0426377264325851
 40
0.0426377264325851
 10
583.0322186128861
 20
263.5880883317695
 30
0.0
 10
583.0322229122368
 20
263.5877212574638
 30
0.0
 10
583.0322515346422
 20
263.5873544158641
 30
0.0
 10
583.0323044162549
 20
263.5869878588555
 30
0.0
  0
SPLINE
  5
29B
330
21B
100
AcDbEntity
  8
$DDT_AUDIT_GENERATED_(146)
  6
Continuous
 62
     7
100
AcDbSpline
210
0.0
220
0.0
230
1.0
 70
     8
 71
     3
 72
     8
 73
     4
 74
     0
 42
0.0000000965454362
 43
0.0000000001
 40
0.0421802363337684
 40
0.0421802363337684
 40
0.0421802363337684
 40
0.0421802363337684
 40
0.068000978239075
 40
0.068000978239075
 40
0.068000978239075
 40
0.068000978239075
 10
557.9941734967147
 20
283.684710556886
 30
0.0
 10
557.9940487464814
 20
283.6855527973893
 30
0.0
 10
557.9937744985624
 20
283.6863934084702
 30
0.0
 10
557.9933517437303
 20
283.6872316569389
 30
0.0
  0
SPLINE
  5
29C
330
21B
100
AcDbEntity
  8
$DDT_AUDIT_GENERATED_(146)
  6
Continuous
 62
     7
100
AcDbSpline
210
0.0
220
0.0
230
1.0
 70
     8
 71
     3
 72
     8
 73
     4
 74
     0
 42
0.0000001016744444
 43
0.0000000001
 40
0.0322130175625998
 40
0.0322130175625998
 40
0.0322130175625998
 40
0.0322130175625998
 40
0.04264133510547
 40
0.04264133510547
 40
0.04264133510547
 40
0.04264133510547
 10
583.0322247591555
 20
282.3584507997784
 30
0.0
 10
583.032228832588
 20
282.3587911569062
 30
0.0
 10
583.0322573142493
 20
282.3591312936665
 30
0.0
 10
583.0323101404662
 20
282.3594711617754
 30
0.0
  0
SPLINE
  5
29D
330
21B
100
AcDbEntity
  8
$DDT_AUDIT_GENERATED_(146)
  6
Continuous
 62
     7
100
AcDbSpline
210
0.0
220
0.0
230
1.0
 70
     8
 71
     3
 72
     8
 73
     4
 74
     0
 42
0.00000009675184
 43
0.0000000001
 40
0.9295229803676527
 40
0.9295229803676527
 40
0.9295229803676527
 40
0.9295229803676527
 40
0.9677678046323995
 40
0.9677678046323995
 40
0.9677678046323995
 40
0.9677678046323995
 10
583.0451199875532
 20
283.687468504878
 30
0.0
 10
583.0444503362497
 20
283.68622744142
 30
0.0
 10
583.044105717777
 20
283.6849810254183
 30
0.0
 10
583.0440892272796
 20
283.6837316386931
 30
0.0
  0
SPLINE
  5
29E
330
21B
100
AcDbEntity
  8
$DDT_AUDIT_GENERATED_(146)
  6
Continuous
 62
     7
100
AcDbSpline
210
0.0
220
0.0
230
1.0
 70
     8
 71
     3
 72
    17
 73
    13
 74
     0
 42
0.0000000000841897
 43
0.0000000001
 40
0.0
 40
0.0
 40
0.0
 40
0.0
 40
0.129786673499619
 40
0.129786673499619
 40
0.129786673499619
 40
0.386771923704479
 40
0.386771923704479
 40
0.386771923704479
 40
0.6437571738134971
 40
0.6437571738134971
 40
0.6437571738134971
 40
1.0
 40
1.0
 40
1.0
 40
1.0
 10
592.1538094960804
 20
364.1948720302028
 30
0.0
 10
592.1535955064728
 20
359.0564478194981
 30
0.0
 10
592.1534154400894
 20
353.9179905738978
 30
0.0
 10
592.1532666802345
 20
348.7795022021182
 30
0.0
 10
592.1529721269698
 20
338.6049929096998
 30
0.0
 10
592.1527997715071
 20
328.4303620534631
 30
0.0
 10
592.1527413284687
 20
318.2556181390932
 30
0.0
 10
592.1526828854302
 20
308.0808742265591
 30
0.0
 10
592.1527383471214
 20
297.9060171722756
 30
0.0
 10
592.1529082089179
 20
287.7310467395849
 30
0.0
 10
592.1531436778647
 20
273.6261119021567
 30
0.0
 10
592.1535977361511
 20
259.5209602032093
 30
0.0
 10
592.1542994716441
 20
245.4155636022568
 30
0.0
  0
ELLIPSE
  5
29F
330
21B
100
AcDbEntity
  8
$DDT_AUDIT_GENERATED_(146)
  6
Continuous
 62
     7
100
AcDbEllipse
 10
6632.9365255283
 20
6331.8515867241
 30
0.0
 11
-747.1535931529783
 21
-49908.40657527956
 31
0.0
210
0.0
220
0.0
230
1.0
 40
0.1209876523
 41
-1.447455638002173
 42
-1.446722936757355
  0
SPLINE
  5
2A0
330
21B
100
AcDbEntity
  8
$DDT_AUDIT_GENERATED_(146)
  6
Continuous
 62
     7
100
AcDbSpline
210
0.0
220
0.0
230
1.0
 70
     8
 71
     3
 72
    17
 73
    13
 74
     0
 42
0.0000000000841898
 43
0.0000000001
 40
0.0
 40
0.0
 40
0.0
 40
0.0
 40
0.128248024489474
 40
0.128248024489474
 40
0.128248024489474
 40
0.385233290211513
 40
0.385233290211513
 40
0.385233290211513
 40
0.642218555837836
 40
0.642218555837836
 40
0.642218555837836
 40
1.0
 40
1.0
 40
1.0
 40
1.0
 10
548.8839999522584
 20
245.4155671620056
 30
0.0
 10
548.8842525781904
 20
250.4935337070542
 30
0.0
 10
548.8844728075794
 20
255.5714682100449
 30
0.0
 10
548.8846624687885
 20
260.6493724415925
 30
0.0
 10
548.8850425146899
 20
270.8245511168095
 30
0.0
 10
548.8853003687503
 20
280.9996088559416
 30
0.0
 10
548.8854443120337
 20
291.1745535916676
 30
0.0
 10
548.8855882553172
 20
301.3494983255608
 30
0.0
 10
548.885618295587
 20
311.524330155
 30
0.0
 10
548.8855339336106
 20
321.6990483297237
 30
0.0
 10
548.885416482715
 20
335.864550530513
 30
0.0
 10
548.8850785693694
 20
350.0298339365576
 30
0.0
 10
548.8844969221041
 20
364.194868330279
 30
0.0
  0
LINE
  5
2A1
330
21B
100
AcDbEntity
  8
$DDT_AUDIT_GENERATED_(146)
  6
Continuous
 62
     7
100
AcDbLine
 10
591.671097902
 20
364.6833121807
 30
0.0
 11
593.274607083
 21
366.3236672593
 31
0.0
  0
LINE
  5
2A2
330
21B
100
AcDbEntity
  8
$DDT_AUDIT_GENERATED_(146)
  6
Continuous
 62
     7
100
AcDbLine
 10
547.7636954264
 20
366.3236523525
 30
0.0
 11
549.3672047486
 21
364.6833218987
 31
0.0
  0
ARC
  5
2A3
330
21B
100
AcDbEntity
  8
$DDT_AUDIT_GENERATED_(146)
  6
Continuous
 62
     7
100
AcDbCircle
 10
570.5190950985
 20
-397.7131024315
 30
0.0
 40
762.6897944105076
100
AcDbArc
 50
88.4107878059
 51
91.5892037295
  0
ARC
  5
2A4
330
21B
100
AcDbEntity
  8
$DDT_AUDIT_GENERATED_(146)
  6
Continuous
 62
     7
100
AcDbCircle
 10
723.3856749059
 20
280.9677390319
 30
0.0
 40
140.3596459467841
100
AcDbArc
 50
179.9995628093
 51
179.9997743536
  0
ARC
  5
2A5
330
21B
100
AcDbEntity
  8
$DDT_AUDIT_GENERATED_(146)
  6
Continuous
 62
     7
100
AcDbCircle
 10
417.9996121199
 20
280.9665672859
 30
0.0
 40
140.0126640437885
100
AcDbArc
 50
0.0007024232
 51
0.0009318533
  0
ARC
  5
2A6
330
21B
100
AcDbEntity
  8
$DDT_AUDIT_GENERATED_(146)
  6
Continuous
 62
     7
100
AcDbCircle
 10
581.0515352644
 20
283.6904576104
 30
0.0
 40
1.993237852819103
100
AcDbArc
 50
35.845155698
 51
36.0660402198
  0
ARC
  5
2A7
330
21B
100
AcDbEntity
  8
$DDT_AUDIT_GENERATED_(146)
  6
Continuous
 62
     7
100
AcDbCircle
 10
559.9868245921
 20
283.6904349158
 30
0.0
 40
1.993265282908077
100
AcDbArc
 50
89.8594205771
 51
151.7546296814
  0
ARC
  5
2A8
330
21B
100
AcDbEntity
  8
$DDT_AUDIT_GENERATED_(146)
  6
Continuous
 62
     7
100
AcDbCircle
 10
559.8430674854
 20
262.6245730266
 30
0.0
 40
1.987865542571834
100
AcDbArc
 50
216.8541935462
 51
217.2919271603
  0
SPLINE
  5
2A9
330
21B
100
AcDbEntity
  8
$DDT_AUDIT_GENERATED_(146)
  6
Continuous
 62
     7
100
AcDbSpline
210
0.0
220
0.0
230
1.0
 70
     8
 71
     3
 72
     9
 73
     5
 74
     0
 42
0.0000000276074908
 43
0.0000000001
 40
0.0
 40
0.0
 40
0.0
 40
0.0
 40
0.0579380127783816
 40
0.0864023826420891
 40
0.0864023826420891
 40
0.0864023826420891
 40
0.0864023826420891
 10
544.9443988706839
 20
340.2012195164794
 30
0.0
 10
544.9431950547526
 20
340.2081869206132
 30
0.0
 10
544.9413998160184
 20
340.2185773411527
 30
0.0
 10
544.9418246443389
 20
340.2288600034473
 30
0.0
 10
544.9421730822764
 20
340.2322323278314
 30
0.0
  0
SPLINE
  5
2AA
330
21B
100
AcDbEntity
  8
$DDT_AUDIT_GENERATED_(146)
  6
Continuous
 62
     7
100
AcDbSpline
210
0.0
220
0.0
230
1.0
 70
     8
 71
     3
 72
     9
 73
     5
 74
     0
 42
0.0000000904138582
 43
0.0000000001
 40
0.0
 40
0.0
 40
0.0
 40
0.0
 40
0.0627692445736462
 40
0.0729703967628715
 40
0.0729703967628715
 40
0.0729703967628715
 40
0.0729703967628715
 10
544.9443988706839
 20
340.2012195164794
 30
0.0
 10
544.9428460898276
 20
340.2032270784131
 30
0.0
 10
544.9410409536365
 20
340.2055609059401
 30
0.0
 10
544.9407879426984
 20
340.2078152686076
 30
0.0
 10
544.9407815412484
 20
340.2081289295074
 30
0.0
  0
SPLINE
  5
2AB
330
21B
100
AcDbEntity
  8
$DDT_AUDIT_GENERATED_(146)
  6
Continuous
 62
     7
100
AcDbSpline
210
0.0
220
0.0
230
1.0
 70
     8
 71
     3
 72
     8
 73
     4
 74
     0
 42
0.0000000277045278
 43
0.0000000001
 40
0.913812108396752
 40
0.913812108396752
 40
0.913812108396752
 40
0.913812108396752
 40
1.0
 40
1.0
 40
1.0
 40
1.0
 10
596.0958447091085
 20
340.232158896666
 30
0.0
 10
596.096428708052
 20
340.2219412458631
 30
0.0
 10
596.0951647650263
 20
340.211580381421
 30
0.0
 10
596.0939008220005
 20
340.2012195169788
 30
0.0
  0
SPLINE
  5
2AC
330
21B
100
AcDbEntity
  8
$DDT_AUDIT_GENERATED_(146)
  6
Continuous
 62
     7
100
AcDbSpline
210
0.0
220
0.0
230
1.0
 70
     8
 71
     3
 72
     9
 73
     5
 74
     0
 42
0.0000000889484039
 43
0.0000000001
 40
0.926774134071286
 40
0.926774134071286
 40
0.926774134071286
 40
0.926774134071286
 40
0.957265607349159
 40
1.0
 40
1.0
 40
1.0
 40
1.0
 10
596.0974674654136
 20
340.2082455072792
 30
0.0
 10
596.097502916328
 20
340.2072835562885
 30
0.0
 10
596.0970759032758
 20
340.2049556289713
 30
0.0
 10
596.0950709225672
 20
340.2025963721078
 30
0.0
 10
596.0939008220005
 20
340.2012195169788
 30
0.0
  0
LINE
  5
2AD
330
21B
100
AcDbEntity
  8
$DDT_AUDIT_GENERATED_(146)
  6
Continuous
 62
     7
100
AcDbLine
 10
557.9953777035
 20
262.4479585005
 30
0.0
 11
558.0060275756
 21
263.5880845564
 31
0.0
  0
ARC
  5
2AE
330
21B
100
AcDbEntity
  8
$DDT_AUDIT_GENERATED_(146)
  6
Continuous
 62
     7
100
AcDbCircle
 10
581.1206727945
 20
262.4307038986
 30
0.0
 40
1.922497080025741
100
AcDbArc
 50
330.7803192177
 51
0.4132641118
  0
LINE
  5
2AF
330
21B
100
AcDbEntity
  8
$DDT_AUDIT_GENERATED_(146)
  6
Continuous
 62
     7
100
AcDbLine
 10
583.0321998455
 20
263.5880888162
 30
0.0
 11
583.0427465604
 21
262.4771890084
 31
0.0
  0
LINE
  5
2B0
330
21B
100
AcDbEntity
  8
$DDT_AUDIT_GENERATED_(146)
  6
Continuous
 62
     7
100
AcDbLine
 10
558.0060445978
 20
282.3584529334
 30
0.0
 11
557.9945379769
 21
283.6545956898
 31
0.0
  0
LINE
  5
2B1
330
21B
100
AcDbEntity
  8
$DDT_AUDIT_GENERATED_(146)
  6
Continuous
 62
     7
100
AcDbLine
 10
583.044083522
 20
283.6837312694
 30
0.0
 11
583.0322103749
 21
282.3584503018
 31
0.0
  0
LINE
  5
2B2
330
21B
100
AcDbEntity
  8
$DDT_AUDIT_GENERATED_(146)
  6
Continuous
 62
     7
100
AcDbLine
 10
583.0260288141
 20
280.9682908935
 30
0.0
 11
583.0260288141
 21
264.9035587471
 31
0.0
  0
LINE
  5
2B3
330
21B
100
AcDbEntity
  8
$DDT_AUDIT_GENERATED_(146)
  6
Continuous
 62
     7
100
AcDbLine
 10
558.0122709054
 20
264.903566372
 30
0.0
 11
558.0122709054
 21
280.9682829362
 31
0.0
  0
ARC
  5
2B4
330
21B
100
AcDbEntity
  8
$DDT_AUDIT_GENERATED_(146)
  6
Continuous
 62
     7
100
AcDbCircle
 10
581.2019129885
 20
283.4728857619
 30
0.0
 40
2.000403558115638
100
AcDbArc
 50
89.5744805512
 51
90.0184106526
  0
ARC
  5
2B5
330
21B
100
AcDbEntity
  8
$DDT_AUDIT_GENERATED_(146)
  6
Continuous
 62
     7
100
AcDbCircle
 10
570.534958286
 20
14519.1456919877
 30
0.0
 40
14233.67639928657
100
AcDbArc
 50
269.9569369136
 51
270.0429358302
  0
ARC
  5
2B6
330
21B
100
AcDbEntity
  8
$DDT_AUDIT_GENERATED_(146)
  6
Continuous
 62
     7
100
AcDbCircle
 10
559.8410873768
 20
283.4640429034
 30
0.0
 40
2.009274129706389
100
AcDbArc
 50
90.1156185261
 51
90.5734493391
  0
ARC
  5
2B7
330
21B
100
AcDbEntity
  8
$DDT_AUDIT_GENERATED_(146)
  6
Continuous
 62
     7
100
AcDbCircle
 10
706.6863134746
 20
264.836168728
 30
0.0
 40
123.660306719206
100
AcDbArc
 50
179.9688651907
 51
179.9746778064
  0
ARC
  5
2B8
330
21B
100
AcDbEntity
  8
$DDT_AUDIT_GENERATED_(146)
  6
Continuous
 62
     7
100
AcDbCircle
 10
706.6863134746
 20
264.836168728
 30
0.0
 40
123.660306719206
100
AcDbArc
 50
180.1276198064
 51
180.5787935692
  0
ARC
  5
2B9
330
21B
100
AcDbEntity
  8
$DDT_AUDIT_GENERATED_(146)
  6
Continuous
 62
     7
100
AcDbCircle
 10
428.93729412
 20
264.8619911591
 30
0.0
 40
129.0749866485179
100
AcDbArc
 50
359.4340245175
 51
359.8074964314
  0
ARC
  5
2BA
330
21B
100
AcDbEntity
  8
$DDT_AUDIT_GENERATED_(146)
  6
Continuous
 62
     7
100
AcDbCircle
 10
428.93729412
 20
264.8619911591
 30
0.0
 40
129.0749866485179
100
AcDbArc
 50
0.0056395627
 51
0.0183668323
  0
ARC
  5
2BB
330
21B
100
AcDbEntity
  8
$DDT_AUDIT_GENERATED_(146)
  6
Continuous
 62
     7
100
AcDbCircle
 10
559.9669758622
 20
262.4327315425
 30
0.0
 40
1.971828768326378
100
AcDbArc
 50
179.5898998922
 51
212.8096624364
  0
ARC
  5
2BC
330
21B
100
AcDbEntity
  8
$DDT_AUDIT_GENERATED_(146)
  6
Continuous
 62
     7
100
AcDbCircle
 10
559.920573313
 20
283.6999870548
 30
0.0
 40
1.926496080740422
100
AcDbArc
 50
150.7310462536
 51
180.4530413301
  0
ARC
  5
2BD
330
21B
100
AcDbEntity
  8
$DDT_AUDIT_GENERATED_(146)
  6
Continuous
 62
     7
100
AcDbCircle
 10
421.3374085675
 20
281.0461218259
 30
0.0
 40
136.674888628841
100
AcDbArc
 50
359.9674476839
 51
0.5505788433
  0
ARC
  5
2BE
330
21B
100
AcDbEntity
  8
$DDT_AUDIT_GENERATED_(146)
  6
Continuous
 62
     7
100
AcDbCircle
 10
581.0567584773
 20
283.6919399627
 30
0.0
 40
1.988345580308077
100
AcDbArc
 50
359.8714175407
 51
35.899912438
  0
ARC
  5
2BF
330
21B
100
AcDbEntity
  8
$DDT_AUDIT_GENERATED_(146)
  6
Continuous
 62
     7
100
AcDbCircle
 10
723.2368781024
 20
281.0301869064
 30
0.0
 40
140.2108666064457
100
AcDbArc
 50
179.4567946825
 51
180.0252221697
  0
ARC
  5
2C0
330
21B
100
AcDbEntity
  8
$DDT_AUDIT_GENERATED_(146)
  6
Continuous
 62
     7
100
AcDbCircle
 10
559.8537394467
 20
262.6467138111
 30
0.0
 40
2.009384188916317
100
AcDbArc
 50
217.2662718744
 51
269.9083482753
  0
SPLINE
  5
2C1
330
21B
100
AcDbEntity
  8
$DDT_AUDIT_GENERATED_(146)
  6
Continuous
 62
     7
100
AcDbSpline
210
0.0
220
0.0
230
1.0
 70
     8
 71
     3
 72
    17
 73
    13
 74
     0
 42
0.0000000004686639
 43
0.0000000001
 40
0.0
 40
0.0
 40
0.0
 40
0.0
 40
0.1456997713144205
 40
0.2645834904673916
 40
0.362499310658342
 40
0.4392816117596642
 40
0.5421370515299522
 40
0.7073255042548565
 40
0.7538897419238269
 40
0.8162973783029503
 40
0.9020648825686381
 40
1.0
 40
1.0
 40
1.0
 40
1.0
 10
581.1877772548337
 20
260.6373520846941
 30
0.0
 10
580.0478864890537
 20
260.6371855318756
 30
0.0
 10
578.343441355315
 20
260.6369731446702
 30
0.0
 10
575.6587727482976
 20
260.6367365164858
 30
0.0
 10
573.6171438611273
 20
260.6366306058977
 30
0.0
 10
571.6237145769878
 20
260.6365760984701
 30
0.0
 10
569.1771377273029
 20
260.6365801238568
 30
0.0
 10
566.9457290286899
 20
260.6366552779199
 30
0.0
 10
564.9818738611145
 20
260.6367865803283
 30
0.0
 10
563.6257460178329
 20
260.6368911655239
 30
0.0
 10
561.8026817932816
 20
260.6370761662181
 30
0.0
 10
560.6167269554913
 20
260.6372255988265
 30
0.0
 10
559.8505251881624
 20
260.6373321929163
 30
0.0
  0
ARC
  5
2C2
330
21B
100
AcDbEntity
  8
$DDT_AUDIT_GENERATED_(146)
  6
Continuous
 62
     7
100
AcDbCircle
 10
581.1796116761
 20
262.6571467445
 30
0.0
 40
2.019811165472283
100
AcDbArc
 50
270.2316327776
 51
322.6440273306
  0
SPLINE
  5
2C3
330
21B
100
AcDbEntity
  8
$DDT_AUDIT_GENERATED_(146)
  6
Continuous
 62
     7
100
AcDbSpline
210
0.0
220
0.0
230
1.0
 70
     8
 71
     3
 72
    21
 73
    17
 74
     0
 42
0.0000000029475161
 43
0.0000000001
 40
0.0
 40
0.0
 40
0.0
 40
0.0
 40
0.0747117750304612
 40
0.0972812182146236
 40
0.2485472341827339
 40
0.333371909787429
 40
0.3605149611186625
 40
0.4224749679492263
 40
0.4566966865696562
 40
0.5159869676278169
 40
0.5476497311250457
 40
0.6158576139497309
 40
0.662710212784357
 40
0.7183750864413418
 40
0.796125660786437
 40
0.8203418345574515
 40
0.8203418345574515
 40
0.8203418345574515
 40
0.8203418345574515
 10
592.4548945348553
 20
317.3754836316916
 30
0.0
 10
592.4549473116192
 20
317.5139369724045
 30
0.0
 10
592.4560438353681
 20
317.6607866328935
 30
0.0
 10
592.462838222205
 20
318.0763815907293
 30
0.0
 10
592.4767123396203
 20
318.4791254411525
 30
0.0
 10
592.4994111244262
 20
318.8616602048629
 30
0.0
 10
592.5168488838552
 20
319.0958414103337
 30
0.0
 10
592.5306094574365
 20
319.2549271515331
 30
0.0
 10
592.549603902503
 20
319.4397491591477
 30
0.0
 10
592.5661844942016
 20
319.5773553315877
 30
0.0
 10
592.5884324422658
 20
319.7347134138194
 30
0.0
 10
592.6101098793449
 20
319.861765915526
 30
0.0
 10
592.6355404487382
 20
319.9829269378113
 30
0.0
 10
592.6616882700835
 20
320.0828412429308
 30
0.0
 10
592.6801529893015
 20
320.1339358286477
 30
0.0
 10
592.6841790021438
 20
320.1405434300395
 30
0.0
 10
592.6841770180371
 20
320.1403924634749
 30
0.0
  0
SPLINE
  5
2C4
330
21B
100
AcDbEntity
  8
$DDT_AUDIT_GENERATED_(146)
  6
Continuous
 62
     7
100
AcDbSpline
210
0.0
220
0.0
230
1.0
 70
     8
 71
     3
 72
    24
 73
    20
 74
     0
 42
0.0000000001383895
 43
0.0000000001
 40
0.0
 40
0.0
 40
0.0
 40
0.0
 40
0.0280771446992564
 40
0.0475002897627259
 40
0.0709507643529422
 40
0.1879846722768343
 40
0.2264308244773726
 40
0.2555486854143668
 40
0.3016120483117394
 40
0.5706446327184893
 40
0.6079934885424346
 40
0.6231969384443865
 40
0.6373892042966951
 40
0.661740001279759
 40
0.90017805823922
 40
0.9283829356090163
 40
0.9439931617579334
 40
0.9680436056271478
 40
1.0
 40
1.0
 40
1.0
 40
1.0
 10
592.4526745923429
 20
245.1142769822632
 30
0.0
 10
592.4527654655216
 20
245.8581225024187
 30
0.0
 10
592.4528897039559
 20
246.8977846787147
 30
0.0
 10
592.4530923975473
 20
248.6544964997314
 30
0.0
 10
592.4535145078521
 20
252.4811881460707
 30
0.0
 10
592.4539442349615
 20
256.8089136057669
 30
0.0
 10
592.4542933124318
 20
261.2489626221929
 30
0.0
 10
592.4546640000356
 20
263.9890618747217
 30
0.0
 10
592.4551620788318
 20
272.2787991290743
 30
0.0
 10
592.4555626744681
 20
280.7688663967578
 30
0.0
 10
592.4556236069365
 20
288.5144154637867
 30
0.0
 10
592.4556515831845
 20
290.1221393950881
 30
0.0
 10
592.4555061143349
 20
291.4137050995882
 30
0.0
 10
592.4555684251275
 20
298.0951202768218
 30
0.0
 10
592.4553517545762
 20
305.0718013751213
 30
0.0
 10
592.4550639025664
 20
311.9032898343851
 30
0.0
 10
592.4549793526637
 20
313.5122644398669
 30
0.0
 10
592.4548873372863
 20
315.3086658196773
 30
0.0
 10
592.4548155780693
 20
316.5273332489976
 30
0.0
 10
592.4547645519351
 20
317.3740991939808
 30
0.0
  0
ARC
  5
2C5
330
21B
100
AcDbEntity
  8
$DDT_AUDIT_GENERATED_(146)
  6
Continuous
 62
     7
100
AcDbCircle
 10
591.9528169462
 20
245.1158024747
 30
0.0
 40
0.4999999999999985
100
AcDbArc
 50
271.5245216143
 51
0.0
  0
SPLINE
  5
2C6
330
21B
100
AcDbEntity
  8
$DDT_AUDIT_GENERATED_(146)
  6
Continuous
 62
     7
100
AcDbSpline
210
0.0
220
0.0
230
1.0
 70
     8
 71
     3
 72
    13
 73
     9
 74
     0
 42
0.0000000029359974
 43
0.0000000001
 40
0.1809011938647388
 40
0.1809011938647388
 40
0.1809011938647388
 40
0.1809011938647388
 40
0.2685325914989036
 40
0.3893419975473376
 40
0.5269454931370989
 40
0.6321593978589221
 40
0.8524920394350011
 40
1.0
 40
1.0
 40
1.0
 40
1.0
 10
548.3549026568093
 20
320.1434942711012
 30
0.0
 10
548.354313094384
 20
320.1451657864206
 30
0.0
 10
548.3784660605887
 20
320.0849700615069
 30
0.0
 10
548.4303735680402
 20
319.8737498485233
 30
0.0
 10
548.4831024481123
 20
319.5095816173133
 30
0.0
 10
548.5375426374917
 20
318.9524449791635
 30
0.0
 10
548.5748908527947
 20
318.2086902963483
 30
0.0
 10
548.5832676146325
 20
317.6480266613412
 30
0.0
 10
548.5834049100531
 20
317.3754900153048
 30
0.0
  0
ARC
  5
2C7
330
21B
100
AcDbEntity
  8
$DDT_AUDIT_GENERATED_(146)
  6
Continuous
 62
     7
100
AcDbCircle
 10
570.5192136806
 20
1041.834729361
 30
0.0
 40
797.5040458154215
100
AcDbArc
 50
268.4589916606
 51
271.5409993833
  0
SPLINE
  5
2C8
330
21B
100
AcDbEntity
  8
$DDT_AUDIT_GENERATED_(146)
  6
Continuous
 62
     7
100
AcDbSpline
210
0.0
220
0.0
230
1.0
 70
     8
 71
     3
 72
    25
 73
    21
 74
     0
 42
0.0000000001383895
 43
0.0000000001
 40
0.0
 40
0.0
 40
0.0
 40
0.0
 40
0.0272956624148962
 40
0.0463713357006168
 40
0.0653086790611737
 40
0.2951055582078078
 40
0.3385098679219751
 40
0.3690318265954096
 40
0.4075414660440845
 40
0.4870781016234458
 40
0.7118956742830377
 40
0.7376633231212928
 40
0.7508363419980308
 40
0.7662301182954723
 40
0.7993640315491288
 40
0.9044215920029353
 40
0.929654551422769
 40
0.9453710486614217
 40
0.9689918634067731
 40
1.0
 40
1.0
 40
1.0
 40
1.0
 10
548.5835349039249
 20
317.3741053382679
 30
0.0
 10
548.5834913098348
 20
316.6508372590269
 30
0.0
 10
548.5834344464548
 20
315.6353014548354
 30
0.0
 10
548.5833415768535
 20
314.0185099876383
 30
0.0
 10
548.5830382642285
 20
307.5908538235746
 30
0.0
 10
548.5827355396889
 20
300.5314799029721
 30
0.0
 10
548.5828068079514
 20
293.2234984278991
 30
0.0
 10
548.5826715479944
 20
290.5140026770578
 30
0.0
 10
548.5826686989999
 20
286.938040235088
 30
0.0
 10
548.5828577838688
 20
278.6768999128415
 30
0.0
 10
548.5832105181486
 20
270.7269887113835
 30
0.0
 10
548.5836264737425
 20
264.3747071990429
 30
0.0
 10
548.5837497938029
 20
263.064481680007
 30
0.0
 10
548.584014190254
 20
261.5787278096096
 30
0.0
 10
548.5842240625265
 20
257.875178712514
 30
0.0
 10
548.5846518556446
 20
253.9554984402665
 30
0.0
 10
548.5850093952934
 20
250.4177582370433
 30
0.0
 10
548.5851830755477
 20
248.8896222429726
 30
0.0
 10
548.5853811853125
 20
247.1242427850642
 30
0.0
 10
548.5855245179577
 20
245.9357764856078
 30
0.0
 10
548.5856248633703
 20
245.1142803425439
 30
0.0
  0
ARC
  5
2C9
330
21B
100
AcDbEntity
  8
$DDT_AUDIT_GENERATED_(146)
  6
Continuous
 62
     7
100
AcDbCircle
 10
549.0854824977
 20
245.1158058956
 30
0.0
 40
0.5000000000000137
100
AcDbArc
 50
180.0084639607
 51
268.4746214268
  0
ARC
  5
2CA
330
21B
100
AcDbEntity
  8
$DDT_AUDIT_GENERATED_(146)
  6
Continuous
 62
     7
100
AcDbCircle
 10
547.7763375984
 20
365.8277470792
 30
0.0
 40
0.5000000000000013
100
AcDbArc
 50
91.3528325125
 51
174.7938082952
  0
ARC
  5
2CB
330
21B
100
AcDbEntity
  8
$DDT_AUDIT_GENERATED_(146)
  6
Continuous
 62
     7
100
AcDbCircle
 10
570.5192065549
 20
-596.687094331
 30
0.0
 40
963.2823768954679
100
AcDbArc
 50
88.6464691169
 51
91.3535375006
  0
LINE
  5
2CC
330
21B
100
AcDbEntity
  8
$DDT_AUDIT_GENERATED_(146)
  6
Continuous
 62
     7
100
AcDbLine
 10
547.2784002991
 20
365.8731171795
 30
0.0
 11
544.9421255069
 21
340.2324782268
 31
0.0
  0
ARC
  5
2CD
330
21B
100
AcDbEntity
  8
$DDT_AUDIT_GENERATED_(146)
  6
Continuous
 62
     7
100
AcDbCircle
 10
593.2619616913
 20
365.8277497574
 30
0.0
 40
0.5000000000000085
100
AcDbArc
 50
5.2061920583
 51
88.6463445063
  0
LINE
  5
2CE
330
21B
100
AcDbEntity
  8
$DDT_AUDIT_GENERATED_(146)
  6
Continuous
 62
     7
100
AcDbLine
 10
544.9420872923
 20
340.2306887094
 30
0.0
 11
544.9409157371
 21
340.2081207412
 31
0.0
  0
LINE
  5
2CF
330
21B
100
AcDbEntity
  8
$DDT_AUDIT_GENERATED_(146)
  6
Continuous
 62
     7
100
AcDbLine
 10
596.0961741861
 20
340.2324782295
 30
0.0
 11
593.7598989903
 21
365.8731198607
 31
0.0
  0
LINE
  5
2D0
330
21B
100
AcDbEntity
  8
$DDT_AUDIT_GENERATED_(146)
  6
Continuous
 62
     7
100
AcDbLine
 10
544.940828215
 20
340.2079773442
 30
0.0
 11
544.5921800632
 21
316.9083413206
 31
0.0
  0
LINE
  5
2D1
330
21B
100
AcDbEntity
  8
$DDT_AUDIT_GENERATED_(146)
  6
Continuous
 62
     7
100
AcDbLine
 10
596.097383956
 20
340.2081207419
 30
0.0
 11
596.0962124004
 21
340.2306887165
 31
0.0
  0
ARC
  5
2D2
330
21B
100
AcDbEntity
  8
$DDT_AUDIT_GENERATED_(146)
  6
Continuous
 62
     7
100
AcDbCircle
 10
545.0921240947
 20
316.9008603213
 30
0.0
 40
0.4999999999999863
100
AcDbArc
 50
179.1427086304
 51
268.6896282412
  0
LINE
  5
2D3
330
21B
100
AcDbEntity
  8
$DDT_AUDIT_GENERATED_(146)
  6
Continuous
 62
     7
100
AcDbLine
 10
596.4461196855
 20
316.9083390507
 30
0.0
 11
596.0974675813
 21
340.2082377625
 31
0.0
  0
ARC
  5
2D4
330
21B
100
AcDbEntity
  8
$DDT_AUDIT_GENERATED_(146)
  6
Continuous
 62
     7
100
AcDbCircle
 10
570.5191995798
 20
1428.7186761874
 30
0.0
 40
1112.608326159254
100
AcDbArc
 50
268.6898839869
 51
268.8703068609
  0
ARC
  5
2D5
330
21B
100
AcDbEntity
  8
$DDT_AUDIT_GENERATED_(146)
  6
Continuous
 62
     7
100
AcDbCircle
 10
570.5191995798
 20
1428.7186761874
 30
0.0
 40
1112.608326159254
100
AcDbArc
 50
271.1296879923
 51
271.3101110078
  0
ARC
  5
2D6
330
21B
100
AcDbEntity
  8
$DDT_AUDIT_GENERATED_(146)
  6
Continuous
 62
     7
100
AcDbCircle
 10
595.9461756563
 20
316.9008580509
 30
0.0
 40
0.4999999999999989
100
AcDbArc
 50
271.3106285327
 51
0.0
  0
ARC
  5
2D7
330
21B
100
AcDbEntity
  8
$DDT_AUDIT_GENERATED_(146)
  6
Continuous
 62
     7
100
AcDbCircle
 10
595.9461756563
 20
316.9008580509
 30
0.0
 40
0.5000000000000004
100
AcDbArc
 50
0.0
 51
0.8572914281
  0
LINE
  5
2D8
330
21B
100
AcDbEntity
  8
$DDT_AUDIT_GENERATED_(16B)
  6
Continuous
 62
     7
100
AcDbLine
 10
603.0220320077
 20
373.85
 30
0.0
 11
603.0220320077
 21
310.85
 31
0.0
  0
LINE
  5
2D9
330
21B
100
AcDbEntity
  8
$DDT_AUDIT_GENERATED_(16B)
  6
Continuous
 62
     7
100
AcDbLine
 10
602.0220320077
 20
309.85
 30
0.0
 11
592.4551520747
 21
309.85
 31
0.0
  0
LINE
  5
2DA
330
21B
100
AcDbEntity
  8
$DDT_AUDIT_GENERATED_(16B)
  6
Continuous
 62
     7
100
AcDbLine
 10
548.5831476756
 20
309.85
 30
0.0
 11
539.0220320077
 21
309.85
 31
0.0
  0
LINE
  5
2DB
330
21B
100
AcDbEntity
  8
$DDT_AUDIT_GENERATED_(16B)
  6
Continuous
 62
     7
100
AcDbLine
 10
539.0220320077
 20
374.85
 30
0.0
 11
602.0220320077
 21
374.85
 31
0.0
  0
LINE
  5
2DC
330
21B
100
AcDbEntity
  8
$DDT_AUDIT_GENERATED_(16B)
  6
Continuous
 62
     7
100
AcDbLine
 10
538.0220320077
 20
310.85
 30
0.0
 11
538.0220320077
 21
373.85
 31
0.0
  0
ARC
  5
2DD
330
21B
100
AcDbEntity
  8
$DDT_AUDIT_GENERATED_(16B)
  6
Continuous
 62
     7
100
AcDbCircle
 10
539.0220320077
 20
373.85
 30
0.0
 40
1.000000000000001
100
AcDbArc
 50
90.0
 51
180.0
  0
ARC
  5
2DE
330
21B
100
AcDbEntity
  8
$DDT_AUDIT_GENERATED_(16B)
  6
Continuous
 62
     7
100
AcDbCircle
 10
539.0220320077
 20
310.85
 30
0.0
 40
1.000000000000001
100
AcDbArc
 50
180.0
 51
270.0
  0
ARC
  5
2DF
330
21B
100
AcDbEntity
  8
$DDT_AUDIT_GENERATED_(16B)
  6
Continuous
 62
     7
100
AcDbCircle
 10
602.0220320077
 20
373.85
 30
0.0
 40
1.000000000000001
100
AcDbArc
 50
0.0
 51
90.0
  0
ARC
  5
2E0
330
21B
100
AcDbEntity
  8
$DDT_AUDIT_GENERATED_(16B)
  6
Continuous
 62
     7
100
AcDbCircle
 10
602.0220320077
 20
310.85
 30
0.0
 40
1.000000000000001
100
AcDbArc
 50
270.0
 51
0.0
  0
LINE
  5
2E1
330
21B
100
AcDbEntity
  8
$DDT_AUDIT_GENERATED_(16B)
  6
Continuous
 62
     7
100
AcDbLine
 10
596.7720320077
 20
316.6
 30
0.0
 11
596.7720320077
 21
368.1
 31
0.0
  0
ARC
  5
2E2
330
21B
100
AcDbEntity
  8
$DDT_AUDIT_GENERATED_(16B)
  6
Continuous
 62
     7
100
AcDbCircle
 10
596.2720320077
 20
368.1
 30
0.0
 40
0.5000000000000004
100
AcDbArc
 50
0.0
 51
90.0
  0
ARC
  5
2E3
330
21B
100
AcDbEntity
  8
$DDT_AUDIT_GENERATED_(16B)
  6
Continuous
 62
     7
100
AcDbCircle
 10
596.2720320077
 20
316.6
 30
0.0
 40
0.5000000000000004
100
AcDbArc
 50
270.0
 51
0.0
  0
LINE
  5
2E4
330
21B
100
AcDbEntity
  8
$DDT_AUDIT_GENERATED_(16B)
  6
Continuous
 62
     7
100
AcDbLine
 10
596.2720320077
 20
368.6
 30
0.0
 11
544.7720320077
 21
368.6
 31
0.0
  0
LINE
  5
2E5
330
21B
100
AcDbEntity
  8
$DDT_AUDIT_GENERATED_(16B)
  6
Continuous
 62
     7
100
AcDbLine
 10
544.7720320077
 20
316.1
 30
0.0
 11
548.5834597665
 21
316.1
 31
0.0
  0
LINE
  5
2E6
330
21B
100
AcDbEntity
  8
$DDT_AUDIT_GENERATED_(16B)
  6
Continuous
 62
     7
100
AcDbLine
 10
592.4548396931
 20
316.1
 30
0.0
 11
596.2720320077
 21
316.1
 31
0.0
  0
ARC
  5
2E7
330
21B
100
AcDbEntity
  8
$DDT_AUDIT_GENERATED_(16B)
  6
Continuous
 62
     7
100
AcDbCircle
 10
544.7720320077
 20
368.1
 30
0.0
 40
0.5000000000000004
100
AcDbArc
 50
90.0
 51
180.0
  0
ARC
  5
2E8
330
21B
100
AcDbEntity
  8
$DDT_AUDIT_GENERATED_(16B)
  6
Continuous
 62
     7
100
AcDbCircle
 10
544.7720320077
 20
316.6
 30
0.0
 40
0.5000000000000004
100
AcDbArc
 50
180.0
 51
270.0
  0
LINE
  5
2E9
330
21B
100
AcDbEntity
  8
$DDT_AUDIT_GENERATED_(16B)
  6
Continuous
 62
     7
100
AcDbLine
 10
544.2720320077
 20
368.1
 30
0.0
 11
544.2720320077
 21
316.6
 31
0.0
  0
ENDBLK
  5
2EB
330
21B
100
AcDbEntity
  8
0
100
AcDbBlockEnd
  0
ENDSEC
  0
SECTION
  2
ENTITIES
  0
INSERT
  5
5F
330
1F
100
AcDbEntity
  8
Default
100
AcDbBlockReference
  2
SEANNOT_GROUP
 10
0.0
 20
0.0
 30
0.0
  0
INSERT
  5
66
330
1F
100
AcDbEntity
  8
Default
100
AcDbBlockReference
  2
SEANNOT_GROUP1
 10
0.0
 20
0.0
 30
0.0
  0
INSERT
  5
6C
330
1F
100
AcDbEntity
  8
Default
100
AcDbBlockReference
  2
SEANNOT_GROUP2
 10
0.0
 20
0.0
 30
0.0
  0
INSERT
  5
72
330
1F
100
AcDbEntity
  8
Default
100
AcDbBlockReference
  2
SEANNOT_GROUP3
 10
0.0
 20
0.0
 30
0.0
  0
LINE
  5
77
330
1F
100
AcDbEntity
  8
Default
  6
Continuous
 62
     7
100
AcDbLine
 10
917.7220320077
 20
535.0383810314
 30
0.0
 11
852.7220320077
 21
535.0383810314
 31
0.0
  0
INSERT
  5
79
330
1F
100
AcDbEntity
  8
Default
100
AcDbBlockReference
  2
SEANNOT_GROUP4
 10
0.0
 20
0.0
 30
0.0
  0
LINE
  5
7E
330
1F
100
AcDbEntity
  8
Default
  6
Continuous
 62
     7
100
AcDbLine
 10
61.5831366848
 20
342.35
 30
0.0
 11
79.4609273305
 21
342.35
 31
0.0
  0
LINE
  5
7F
330
1F
100
AcDbEntity
  8
Default
  6
Continuous
 62
     7
100
AcDbLine
 10
214.2778270753
 20
342.35
 30
0.0
 11
236.76623694
 21
342.35
 31
0.0
  0
LINE
  5
80
330
1F
100
AcDbEntity
  8
Default
  6
Continuous
 62
     7
100
AcDbLine
 10
579.7051118237
 20
342.35
 30
0.0
 11
561.3389521916
 21
342.35
 31
0.0
  0
LINE
  5
81
330
1F
100
AcDbEntity
  8
Default
  6
Continuous
 62
     7
100
AcDbLine
 10
408.8870133291
 20
342.35
 30
0.0
 11
422.1570506862
 21
342.35
 31
0.0
  0
INSERT
  5
83
330
1F
100
AcDbEntity
  8
Default
100
AcDbBlockReference
  2
SEANNOT_GROUP5
 10
0.0
 20
0.0
 30
0.0
  0
INSERT
  5
89
330
1F
100
AcDbEntity
  8
Default
100
AcDbBlockReference
  2
SEANNOT_GROUP6
 10
0.0
 20
0.0
 30
0.0
  0
INSERT
  5
8F
330
1F
100
AcDbEntity
  8
Default
100
AcDbBlockReference
  2
SEANNOT_GROUP7
 10
0.0
 20
0.0
 30
0.0
  0
INSERT
  5
95
330
1F
100
AcDbEntity
  8
Default
100
AcDbBlockReference
  2
SEANNOT_GROUP8
 10
0.0
 20
0.0
 30
0.0
  0
INSERT
  5
9B
330
1F
100
AcDbEntity
  8
Default
100
AcDbBlockReference
  2
SE
 10
0.0
 20
0.0
 30
0.0
  0
INSERT
  5
177
330
1F
100
AcDbEntity
  8
Default
100
AcDbBlockReference
  2
SE1
 10
0.0
 20
0.0
 30
0.0
  0
INSERT
  5
21C
330
1F
100
AcDbEntity
  8
Default
100
AcDbBlockReference
  2
SE2
 10
0.0
 20
0.0
 30
0.0
  0
TEXT
  5
2ED
330
1F
100
AcDbEntity
  8
Default
  6
Continuous
 62
     7
100
AcDbText
 10
5.9362635081
 20
53.4225120485
 30
0.0
 40
10.0
  1
Grohe AG^J
  7
SEACAD_seiso_ttf
 11
5.9362635081
 21
63.4225120485
 31
0.0
100
AcDbText
 73
     3
  0
TEXT
  5
2EE
330
1F
100
AcDbEntity
  8
Default
  6
Continuous
 62
     7
100
AcDbText
 10
5.9362635081
 20
37.0588756849
 30
0.0
 40
10.0
  1
 
  7
SEACAD_seiso_ttf
 11
5.9362635081
 21
47.0588756849
 31
0.0
100
AcDbText
 73
     3
  0
TEXT
  5
2EF
330
1F
100
AcDbEntity
  8
Default
  6
Continuous
 62
     7
100
AcDbText
 10
5.9362635081
 20
20.6952393213
 30
0.0
 40
10.0
  1
ecn: 
  7
SEACAD_seiso_ttf
 11
5.9362635081
 21
30.6952393213
 31
0.0
100
AcDbText
 73
     3
  0
TEXT
  5
2F0
330
1F
100
AcDbEntity
  8
Default
  6
Continuous
 62
     7
100
AcDbText
 10
5.9362635081
 20
4.3316029576
 30
0.0
 40
10.0
  1
unit: mm
  7
SEACAD_seiso_ttf
 11
5.9362635081
 21
14.3316029576
 31
0.0
100
AcDbText
 73
     3
  0
LINE
  5
2F1
330
1F
100
AcDbEntity
  8
Default
  6
Continuous
 62
     7
100
AcDbLine
 10
0.0
 20
0.0
 30
0.0
 11
100.0
 21
0.0
 31
0.0
  0
LINE
  5
2F2
330
1F
100
AcDbEntity
  8
Default
  6
Continuous
 62
     7
100
AcDbLine
 10
0.0
 20
0.0
 30
0.0
 11
0.0
 21
100.0
 31
0.0
  0
TEXT
  5
2F3
330
1F
100
AcDbEntity
  8
Default
  6
Continuous
 62
     7
100
AcDbText
 10
24.3923665681
 20
-18.2375342018
 30
0.0
 40
10.0
  1
100 mm
  7
SEACAD_seiso_ttf
 11
24.3923665681
 21
-8.2375342018
 31
0.0
100
AcDbText
 73
     3
  0
TEXT
  5
2F4
330
1F
100
AcDbEntity
  8
Default
  6
Continuous
 62
     7
100
AcDbText
 10
-7.6150308803
 20
24.6231930421
 30
0.0
 40
10.0
  1
100 mm
 50
90.0
  7
SEACAD_seiso_ttf
 11
-17.6150308803
 21
24.6231930421
 31
0.0
100
AcDbText
 73
     3
  0
TEXT
  5
2F5
330
1F
100
AcDbEntity
  8
Default
  6
Continuous
 62
     7
100
AcDbText
 10
28.4878128572
 20
20.0907663715
 30
0.0
 40
10.0
  1
221160
  7
SEACAD_seiso_ttf
 11
28.4878128572
 21
30.0907663715
 31
0.0
100
AcDbText
 73
     3
  0
TEXT
  5
2F6
330
1F
100
AcDbEntity
  8
Default
  6
Continuous
 62
     7
100
AcDbText
 10
5.9012241913
 20
36.7242780188
 30
0.0
 40
10.0
  1
19897000
  7
SEACAD_seiso_ttf
 11
5.9012241913
 21
46.7242780188
 31
0.0
100
AcDbText
 73
     3
  0
ENDSEC
  0
SECTION
  2
OBJECTS
  0
DICTIONARY
  5
C
330
0
100
AcDbDictionary
281
     1
  3
ACAD_GROUP
350
D
  3
ACAD_LAYOUT
350
1A
  3
ACAD_MLEADERSTYLE
350
2FA
  3
ACAD_MLINESTYLE
350
17
  3
ACAD_PLOTSETTINGS
350
19
  3
ACAD_PLOTSTYLENAME
350
E
  3
ACAD_SCALELIST
350
3B
  3
ACAD_TABLESTYLE
350
2F9
  3
ACAD_VISUALSTYLE
350
2A
  3
AcDbVariableDictionary
350
2F7
  0
DICTIONARY
  5
D
102
{ACAD_REACTORS
330
C
102
}
330
C
100
AcDbDictionary
281
     1
  0
DICTIONARY
  5
1A
102
{ACAD_REACTORS
330
C
102
}
330
C
100
AcDbDictionary
281
     1
  3
Layout1
350
1E
  3
Model
350
22
  0
DICTIONARY
  5
2FA
102
{ACAD_REACTORS
330
C
102
}
330
C
100
AcDbDictionary
281
     1
  0
DICTIONARY
  5
17
102
{ACAD_REACTORS
330
C
102
}
330
C
100
AcDbDictionary
281
     1
  3
Standard
350
18
  0
DICTIONARY
  5
19
102
{ACAD_REACTORS
330
C
102
}
330
C
100
AcDbDictionary
281
     1
  0
ACDBDICTIONARYWDFLT
  5
E
102
{ACAD_REACTORS
330
C
102
}
330
C
100
AcDbDictionary
281
     1
  3
Normal
350
F
100
AcDbDictionaryWithDefault
340
F
  0
DICTIONARY
  5
3B
102
{ACAD_REACTORS
330
C
102
}
330
C
100
AcDbDictionary
281
     1
  3
A0
350
3C
  3
A1
350
3D
  3
A2
350
3E
  3
A3
350
3F
  3
A4
350
40
  3
A5
350
41
  3
A6
350
42
  3
A7
350
43
  3
A8
350
44
  3
A9
350
45
  3
B0
350
46
  3
B1
350
47
  3
B2
350
48
  3
B3
350
49
  3
B4
350
4A
  3
B5
350
4B
  3
B6
350
4C
  3
B7
350
4D
  3
B8
350
4E
  3
B9
350
4F
  3
C0
350
50
  3
C1
350
51
  3
C2
350
52
  3
C3
350
53
  3
C4
350
54
  3
C5
350
55
  3
C6
350
56
  3
C7
350
57
  3
C8
350
58
  3
C9
350
59
  3
D0
350
5A
  3
D1
350
5B
  3
D2
350
5C
  0
DICTIONARY
  5
2F9
102
{ACAD_REACTORS
330
C
102
}
330
C
100
AcDbDictionary
281
     1
  0
DICTIONARY
  5
2A
102
{ACAD_REACTORS
330
C
102
}
330
C
100
AcDbDictionary
281
     1
  3
2dWireframe
350
2F
  3
3D Hidden
350
31
  3
3dWireframe
350
30
  3
Basic
350
32
  3
Brighten
350
36
  3
ColorChange
350
3A
  3
Conceptual
350
34
  3
Dim
350
35
  3
Facepattern
350
39
  3
Flat
350
2B
  3
FlatWithEdges
350
2C
  3
Gouraud
350
2D
  3
GouraudWithEdges
350
2E
  3
Linepattern
350
38
  3
Realistic
350
33
  3
Thicken
350
37
  0
DICTIONARY
  5
2F7
102
{ACAD_REACTORS
330
C
102
}
330
C
100
AcDbDictionary
281
     1
  3
CANNOSCALE
350
2F8
  3
PSOLHEIGHT
350
2FC
  3
PSOLWIDTH
350
2FB
  0
LAYOUT
  5
1E
102
{ACAD_REACTORS
330
1A
102
}
330
1A
100
AcDbPlotSettings
  1

  2
none_device
  4

  6

 40
0.0
 41
0.0
 42
0.0
 43
0.0
 44
0.0
 45
0.0
 46
0.0
 47
0.0
 48
0.0
 49
0.0
140
0.0
141
0.0
142
1.0
143
1.0
 70
   688
 72
     0
 73
     0
 74
     5
  7

 75
    16
147
1.0
148
0.0
149
0.0
100
AcDbLayout
  1
Layout1
 70
     1
 71
     1
 10
0.0
 20
0.0
 11
1682.0
 21
2378.0
 12
0.0
 22
0.0
 32
0.0
 14
0.0
 24
0.0
 34
0.0
 15
1682.0
 25
2378.0
 35
0.0
146
0.0
 13
0.0
 23
0.0
 33
0.0
 16
1.0
 26
0.0
 36
0.0
 17
0.0
 27
1.0
 37
0.0
 76
     0
330
1B
  0
LAYOUT
  5
22
102
{ACAD_REACTORS
330
1A
102
}
330
1A
100
AcDbPlotSettings
  1

  2
none_device
  4

  6

 40
0.0
 41
0.0
 42
0.0
 43
0.0
 44
0.0
 45
0.0
 46
0.0
 47
0.0
 48
0.0
 49
0.0
140
0.0
141
0.0
142
1.0
143
1.0
 70
  1712
 72
     0
 73
     0
 74
     0
  7

 75
     0
147
1.0
148
0.0
149
0.0
100
AcDbLayout
  1
Model
 70
     1
 71
     0
 10
0.0
 20
0.0
 11
1682.0
 21
2378.0
 12
0.0
 22
0.0
 32
0.0
 14
0.0
 24
0.0
 34
0.0
 15
1682.0
 25
2378.0
 35
0.0
146
0.0
 13
0.0
 23
0.0
 33
0.0
 16
1.0
 26
0.0
 36
0.0
 17
0.0
 27
1.0
 37
0.0
 76
     0
330
1F
331
29
  0
MLINESTYLE
  5
18
102
{ACAD_REACTORS
330
17
102
}
330
17
100
AcDbMlineStyle
  2
Standard
 70
     0
  3

 62
   256
 51
90.0
 52
90.0
 71
     2
 49
0.5
 62
   256
  6
BYLAYER
 49
-0.5
 62
   256
  6
BYLAYER
  0
ACDBPLACEHOLDER
  5
F
102
{ACAD_REACTORS
330
E
102
}
330
E
  0
SCALE
  5
3C
102
{ACAD_REACTORS
330
3B
102
}
330
3B
100
AcDbScale
 70
     0
300
1:1
140
1.0
141
1.0
290
     1
  0
SCALE
  5
3D
102
{ACAD_REACTORS
330
3B
102
}
330
3B
100
AcDbScale
 70
     0
300
1:2
140
1.0
141
2.0
290
     0
  0
SCALE
  5
3E
102
{ACAD_REACTORS
330
3B
102
}
330
3B
100
AcDbScale
 70
     0
300
1:4
140
1.0
141
4.0
290
     0
  0
SCALE
  5
3F
102
{ACAD_REACTORS
330
3B
102
}
330
3B
100
AcDbScale
 70
     0
300
1:5
140
1.0
141
5.0
290
     0
  0
SCALE
  5
40
102
{ACAD_REACTORS
330
3B
102
}
330
3B
100
AcDbScale
 70
     0
300
1:8
140
1.0
141
8.0
290
     0
  0
SCALE
  5
41
102
{ACAD_REACTORS
330
3B
102
}
330
3B
100
AcDbScale
 70
     0
300
1:10
140
1.0
141
10.0
290
     0
  0
SCALE
  5
42
102
{ACAD_REACTORS
330
3B
102
}
330
3B
100
AcDbScale
 70
     0
300
1:16
140
1.0
141
16.0
290
     0
  0
SCALE
  5
43
102
{ACAD_REACTORS
330
3B
102
}
330
3B
100
AcDbScale
 70
     0
300
1:20
140
1.0
141
20.0
290
     0
  0
SCALE
  5
44
102
{ACAD_REACTORS
330
3B
102
}
330
3B
100
AcDbScale
 70
     0
300
1:30
140
1.0
141
30.0
290
     0
  0
SCALE
  5
45
102
{ACAD_REACTORS
330
3B
102
}
330
3B
100
AcDbScale
 70
     0
300
1:40
140
1.0
141
40.0
290
     0
  0
SCALE
  5
46
102
{ACAD_REACTORS
330
3B
102
}
330
3B
100
AcDbScale
 70
     0
300
1:50
140
1.0
141
50.0
290
     0
  0
SCALE
  5
47
102
{ACAD_REACTORS
330
3B
102
}
330
3B
100
AcDbScale
 70
     0
300
1:100
140
1.0
141
100.0
290
     0
  0
SCALE
  5
48
102
{ACAD_REACTORS
330
3B
102
}
330
3B
100
AcDbScale
 70
     0
300
2:1
140
2.0
141
1.0
290
     0
  0
SCALE
  5
49
102
{ACAD_REACTORS
330
3B
102
}
330
3B
100
AcDbScale
 70
     0
300
4:1
140
4.0
141
1.0
290
     0
  0
SCALE
  5
4A
102
{ACAD_REACTORS
330
3B
102
}
330
3B
100
AcDbScale
 70
     0
300
8:1
140
8.0
141
1.0
290
     0
  0
SCALE
  5
4B
102
{ACAD_REACTORS
330
3B
102
}
330
3B
100
AcDbScale
 70
     0
300
10:1
140
10.0
141
1.0
290
     0
  0
SCALE
  5
4C
102
{ACAD_REACTORS
330
3B
102
}
330
3B
100
AcDbScale
 70
     0
300
100:1
140
100.0
141
1.0
290
     0
  0
SCALE
  5
4D
102
{ACAD_REACTORS
330
3B
102
}
330
3B
100
AcDbScale
 70
     0
300
1/128" = 1'-0"
140
0.0078125
141
12.0
290
     0
  0
SCALE
  5
4E
102
{ACAD_REACTORS
330
3B
102
}
330
3B
100
AcDbScale
 70
     0
300
1/64" = 1'-0"
140
0.015625
141
12.0
290
     0
  0
SCALE
  5
4F
102
{ACAD_REACTORS
330
3B
102
}
330
3B
100
AcDbScale
 70
     0
300
1/32" = 1'-0"
140
0.03125
141
12.0
290
     0
  0
SCALE
  5
50
102
{ACAD_REACTORS
330
3B
102
}
330
3B
100
AcDbScale
 70
     0
300
1/16" = 1'-0"
140
0.0625
141
12.0
290
     0
  0
SCALE
  5
51
102
{ACAD_REACTORS
330
3B
102
}
330
3B
100
AcDbScale
 70
     0
300
3/32" = 1'-0"
140
0.09375
141
12.0
290
     0
  0
SCALE
  5
52
102
{ACAD_REACTORS
330
3B
102
}
330
3B
100
AcDbScale
 70
     0
300
1/8" = 1'-0"
140
0.125
141
12.0
290
     0
  0
SCALE
  5
53
102
{ACAD_REACTORS
330
3B
102
}
330
3B
100
AcDbScale
 70
     0
300
3/16" = 1'-0"
140
0.1875
141
12.0
290
     0
  0
SCALE
  5
54
102
{ACAD_REACTORS
330
3B
102
}
330
3B
100
AcDbScale
 70
     0
300
1/4" = 1'-0"
140
0.25
141
12.0
290
     0
  0
SCALE
  5
55
102
{ACAD_REACTORS
330
3B
102
}
330
3B
100
AcDbScale
 70
     0
300
3/8" = 1'-0"
140
0.375
141
12.0
290
     0
  0
SCALE
  5
56
102
{ACAD_REACTORS
330
3B
102
}
330
3B
100
AcDbScale
 70
     0
300
1/2" = 1'-0"
140
0.5
141
12.0
290
     0
  0
SCALE
  5
57
102
{ACAD_REACTORS
330
3B
102
}
330
3B
100
AcDbScale
 70
     0
300
3/4" = 1'-0"
140
0.75
141
12.0
290
     0
  0
SCALE
  5
58
102
{ACAD_REACTORS
330
3B
102
}
330
3B
100
AcDbScale
 70
     0
300
1" = 1'-0"
140
1.0
141
12.0
290
     0
  0
SCALE
  5
59
102
{ACAD_REACTORS
330
3B
102
}
330
3B
100
AcDbScale
 70
     0
300
1-1/2" = 1'-0"
140
1.5
141
12.0
290
     0
  0
SCALE
  5
5A
102
{ACAD_REACTORS
330
3B
102
}
330
3B
100
AcDbScale
 70
     0
300
3" = 1'-0"
140
3.0
141
12.0
290
     0
  0
SCALE
  5
5B
102
{ACAD_REACTORS
330
3B
102
}
330
3B
100
AcDbScale
 70
     0
300
6" = 1'-0"
140
6.0
141
12.0
290
     0
  0
SCALE
  5
5C
102
{ACAD_REACTORS
330
3B
102
}
330
3B
100
AcDbScale
 70
     0
300
1'-0" = 1'-0"
140
12.0
141
12.0
290
     0
  0
VISUALSTYLE
  5
2F
102
{ACAD_REACTORS
330
2A
102
}
330
2A
100
AcDbVisualStyle
  2
2dWireframe
 70
     4
 71
     0
 72
     2
 73
     0
 90
        0
 40
-0.6
 41
-30.0
 62
     5
 63
     7
 74
     1
 91
        4
 64
     7
 65
   257
 75
     1
175
     1
 42
1.0
 92
        0
 66
   257
 43
1.0
 76
     1
 77
     6
 78
     2
 67
     7
 79
     5
170
     0
171
     0
290
     0
174
     0
 93
        1
 44
0.0
173
     0
291
     0
 45
0.0
1001
ACAD
1000
AcDbSavedByObjectVersion
1070
     0
  0
VISUALSTYLE
  5
31
102
{ACAD_REACTORS
330
2A
102
}
330
2A
100
AcDbVisualStyle
  2
3D Hidden
 70
     6
 71
     1
 72
     2
 73
     2
 90
        0
 40
-0.6
 41
-30.0
 62
     5
 63
     7
 74
     2
 91
        2
 64
     7
 65
   257
 75
     2
175
     1
 42
40.0
 92
        0
 66
   257
 43
1.0
 76
     1
 77
     6
 78
     2
 67
     7
 79
     3
170
     0
171
     0
290
     0
174
     0
 93
        1
 44
0.0
173
     0
291
     0
 45
0.0
1001
ACAD
1000
AcDbSavedByObjectVersion
1070
     0
  0
VISUALSTYLE
  5
30
102
{ACAD_REACTORS
330
2A
102
}
330
2A
100
AcDbVisualStyle
  2
3dWireframe
 70
     5
 71
     0
 72
     2
 73
     0
 90
        0
 40
-0.6
 41
-30.0
 62
     5
 63
     7
 74
     1
 91
        4
 64
     7
 65
   257
 75
     1
175
     1
 42
1.0
 92
        0
 66
   257
 43
1.0
 76
     1
 77
     6
 78
     2
 67
     7
 79
     5
170
     0
171
     0
290
     0
174
     0
 93
        1
 44
0.0
173
     0
291
     0
 45
0.0
1001
ACAD
1000
AcDbSavedByObjectVersion
1070
     0
  0
VISUALSTYLE
  5
32
102
{ACAD_REACTORS
330
2A
102
}
330
2A
100
AcDbVisualStyle
  2
Basic
 70
     7
 71
     1
 72
     0
 73
     1
 90
        0
 40
-0.6
 41
-30.0
 62
     5
 63
     7
 74
     0
 91
        4
 64
     7
 65
   257
 75
     1
175
     1
 42
1.0
 92
        8
 66
     7
 43
1.0
 76
     1
 77
     6
 78
     2
 67
     7
 79
     5
170
     0
171
     0
290
     0
174
     0
 93
        1
 44
0.0
173
     0
291
     1
 45
0.0
1001
ACAD
1000
AcDbSavedByObjectVersion
1070
     0
  0
VISUALSTYLE
  5
36
102
{ACAD_REACTORS
330
2A
102
}
330
2A
100
AcDbVisualStyle
  2
Brighten
 70
    12
 71
     2
 72
     2
 73
     0
 90
        0
 40
-0.6
 41
-30.0
 62
     5
 63
     7
 74
     1
 91
        4
 64
     7
 65
   257
 75
     1
175
     1
 42
1.0
 92
        8
 66
     7
 43
1.0
 76
     1
 77
     6
 78
     2
 67
     7
 79
     5
170
     0
171
     0
290
     0
174
     0
 93
        1
 44
50.0
173
     0
291
     1
 45
0.0
1001
ACAD
1000
AcDbSavedByObjectVersion
1070
     0
  0
VISUALSTYLE
  5
3A
102
{ACAD_REACTORS
330
2A
102
}
330
2A
100
AcDbVisualStyle
  2
ColorChange
 70
    16
 71
     2
 72
     2
 73
     3
 90
        0
 40
-0.6
 41
-30.0
 62
     5
 63
     8
 74
     1
 91
        4
 64
     7
 65
   257
 75
     1
175
     1
 42
1.0
 92
        8
 66
     8
 43
1.0
 76
     1
 77
     6
 78
     2
 67
     7
 79
     5
170
     0
171
     0
290
     0
174
     0
 93
        1
 44
0.0
173
     0
291
     1
 45
0.0
1001
ACAD
1000
AcDbSavedByObjectVersion
1070
     0
  0
VISUALSTYLE
  5
34
102
{ACAD_REACTORS
330
2A
102
}
330
2A
100
AcDbVisualStyle
  2
Conceptual
 70
     9
 71
     3
 72
     2
 73
     0
 90
        0
 40
-0.6
 41
-30.0
 62
     5
 63
     7
 74
     2
 91
        2
 64
     7
 65
   257
 75
     1
175
     1
 42
40.0
 92
        8
 66
     7
 43
1.0
 76
     1
 77
     6
 78
     2
 67
     7
 79
     3
170
     0
171
     0
290
     0
174
     0
 93
        1
 44
0.0
173
     0
291
     0
 45
0.0
1001
ACAD
1000
AcDbSavedByObjectVersion
1070
     0
  0
VISUALSTYLE
  5
35
102
{ACAD_REACTORS
330
2A
102
}
330
2A
100
AcDbVisualStyle
  2
Dim
 70
    11
 71
     2
 72
     2
 73
     0
 90
        0
 40
-0.6
 41
-30.0
 62
     5
 63
     7
 74
     1
 91
        4
 64
     7
 65
   257
 75
     1
175
     1
 42
1.0
 92
        8
 66
     7
 43
1.0
 76
     1
 77
     6
 78
     2
 67
     7
 79
     5
170
     0
171
     0
290
     0
174
     0
 93
        1
 44
-50.0
173
     0
291
     1
 45
0.0
1001
ACAD
1000
AcDbSavedByObjectVersion
1070
     0
  0
VISUALSTYLE
  5
39
102
{ACAD_REACTORS
330
2A
102
}
330
2A
100
AcDbVisualStyle
  2
Facepattern
 70
    15
 71
     2
 72
     2
 73
     0
 90
        0
 40
-0.6
 41
-30.0
 62
     5
 63
     7
 74
     1
 91
        4
 64
     7
 65
   257
 75
     1
175
     1
 42
1.0
 92
        8
 66
     7
 43
1.0
 76
     1
 77
     6
 78
     2
 67
     7
 79
     5
170
     0
171
     0
290
     0
174
     0
 93
        1
 44
0.0
173
     0
291
     1
 45
0.0
1001
ACAD
1000
AcDbSavedByObjectVersion
1070
     0
  0
VISUALSTYLE
  5
2B
102
{ACAD_REACTORS
330
2A
102
}
330
2A
100
AcDbVisualStyle
  2
Flat
 70
     0
 71
     2
 72
     1
 73
     1
 90
        2
 40
-0.6
 41
30.0
 62
     5
 63
     7
 74
     0
 91
        4
 64
     7
 65
   257
 75
     1
175
     1
 42
1.0
 92
        8
 66
     7
 43
1.0
 76
     1
 77
     6
 78
     2
 67
     7
 79
     5
170
     0
171
     0
290
     0
174
     0
 93
       13
 44
0.0
173
     0
291
     1
 45
0.0
1001
ACAD
1000
AcDbSavedByObjectVersion
1070
     0
  0
VISUALSTYLE
  5
2C
102
{ACAD_REACTORS
330
2A
102
}
330
2A
100
AcDbVisualStyle
  2
FlatWithEdges
 70
     1
 71
     2
 72
     1
 73
     1
 90
        2
 40
-0.6
 41
30.0
 62
     5
 63
     7
 74
     1
 91
        4
 64
     7
 65
   257
 75
     1
175
     1
 42
1.0
 92
        0
 66
   257
 43
1.0
 76
     1
 77
     6
 78
     2
 67
     7
 79
     5
170
     0
171
     0
290
     0
174
     0
 93
       13
 44
0.0
173
     0
291
     1
 45
0.0
1001
ACAD
1000
AcDbSavedByObjectVersion
1070
     0
  0
VISUALSTYLE
  5
2D
102
{ACAD_REACTORS
330
2A
102
}
330
2A
100
AcDbVisualStyle
  2
Gouraud
 70
     2
 71
     2
 72
     2
 73
     1
 90
        2
 40
-0.6
 41
30.0
 62
     5
 63
     7
 74
     0
 91
        4
 64
     7
 65
   257
 75
     1
175
     1
 42
1.0
 92
        0
 66
     7
 43
1.0
 76
     1
 77
     6
 78
     2
 67
     7
 79
     5
170
     0
171
     0
290
     0
174
     0
 93
       13
 44
0.0
173
     0
291
     1
 45
0.0
1001
ACAD
1000
AcDbSavedByObjectVersion
1070
     0
  0
VISUALSTYLE
  5
2E
102
{ACAD_REACTORS
330
2A
102
}
330
2A
100
AcDbVisualStyle
  2
GouraudWithEdges
 70
     3
 71
     2
 72
     2
 73
     1
 90
        2
 40
-0.6
 41
30.0
 62
     5
 63
     7
 74
     1
 91
        4
 64
     7
 65
   257
 75
     1
175
     1
 42
1.0
 92
        0
 66
   257
 43
1.0
 76
     1
 77
     6
 78
     2
 67
     7
 79
     5
170
     0
171
     0
290
     0
174
     0
 93
       13
 44
0.0
173
     0
291
     1
 45
0.0
1001
ACAD
1000
AcDbSavedByObjectVersion
1070
     0
  0
VISUALSTYLE
  5
38
102
{ACAD_REACTORS
330
2A
102
}
330
2A
100
AcDbVisualStyle
  2
Linepattern
 70
    14
 71
     2
 72
     2
 73
     0
 90
        0
 40
-0.6
 41
-30.0
 62
     5
 63
     7
 74
     1
 91
        4
 64
     7
 65
   257
 75
     7
175
     7
 42
1.0
 92
        8
 66
     7
 43
1.0
 76
     1
 77
     6
 78
     2
 67
     7
 79
     5
170
     0
171
     0
290
     0
174
     0
 93
        1
 44
0.0
173
     0
291
     1
 45
0.0
1001
ACAD
1000
AcDbSavedByObjectVersion
1070
     0
  0
VISUALSTYLE
  5
33
102
{ACAD_REACTORS
330
2A
102
}
330
2A
100
AcDbVisualStyle
  2
Realistic
 70
     8
 71
     2
 72
     2
 73
     0
 90
        0
 40
-0.6
 41
-30.0
 62
     5
 63
     7
 74
     1
 91
        0
 64
     7
 65
   257
 75
     1
175
     1
 42
1.0
 92
        8
 66
     8
 43
1.0
 76
     1
 77
     6
 78
     2
 67
     7
 79
     5
170
     0
171
     0
290
     0
174
     0
 93
       13
 44
0.0
173
     0
291
     0
 45
0.0
1001
ACAD
1000
AcDbSavedByObjectVersion
1070
     0
  0
VISUALSTYLE
  5
37
102
{ACAD_REACTORS
330
2A
102
}
330
2A
100
AcDbVisualStyle
  2
Thicken
 70
    13
 71
     2
 72
     2
 73
     0
 90
        0
 40
-0.6
 41
-30.0
 62
     5
 63
     7
 74
     1
 91
        4
 64
     7
 65
   257
 75
     1
175
     1
 42
1.0
 92
       12
 66
     7
 43
1.0
 76
     1
 77
     6
 78
     2
 67
     7
 79
     5
170
     0
171
     0
290
     0
174
     0
 93
        1
 44
0.0
173
     0
291
     1
 45
0.0
1001
ACAD
1000
AcDbSavedByObjectVersion
1070
     0
  0
DICTIONARYVAR
  5
2F8
102
{ACAD_REACTORS
330
2F7
102
}
330
2F7
100
DictionaryVariables
280
     0
  1
1:1
  0
DICTIONARYVAR
  5
2FC
102
{ACAD_REACTORS
330
2F7
102
}
330
2F7
100
DictionaryVariables
280
     0
  1
80.000000
  0
DICTIONARYVAR
  5
2FB
102
{ACAD_REACTORS
330
2F7
102
}
330
2F7
100
DictionaryVariables
280
     0
  1
5.000000
  0
ENDSEC
  0
EOF
